ISO-10303-21;
HEADER;
FILE_DESCRIPTION(
/* description */ (''),
/* implementation_level */ '2;1');
FILE_NAME(
/* name */ 'DCGT070204.stp',
/* time_stamp */ '2017-03-21T10:54:01',
/* author */ ('Sandvik Coromant R&D'),
/* organization */ ('Sandvik Machining Solutions'),
/* preprocessor_version */ 'ST-DEVELOPER v15',
/* originating_system */ 'SIEMENS PLM Software NX v8.5.3.3(64 bits)',
/* authorization */ '');
FILE_SCHEMA(('AUTOMOTIVE_DESIGN'));
ENDSEC;
DATA;
#10=GEOMETRICALLY_BOUNDED_WIREFRAME_SHAPE_REPRESENTATION('IsoTurningInsert-None',
     (#25),#507);
#11=SHAPE_REPRESENTATION_RELATIONSHIP('None','relationship between IsoTurningInsert-None and IsoTurningInsert-None',
     #24,#13);
#12=SHAPE_REPRESENTATION_RELATIONSHIP('None','relationship between IsoTurningInsert-None and IsoTurningInsert-None',
     #24,#10);
#13=ADVANCED_BREP_SHAPE_REPRESENTATION('IsoTurningInsert-None',(#31),#507);
#14=SHAPE_DEFINITION_REPRESENTATION(#15,#24);
#15=PRODUCT_DEFINITION_SHAPE('','',#16);
#16=PRODUCT_DEFINITION(' ','',#18,#17);
#17=PRODUCT_DEFINITION_CONTEXT('part definition',#23,'design');
#18=PRODUCT_DEFINITION_FORMATION_WITH_SPECIFIED_SOURCE(' ',' ',#20,.NOT_KNOWN.);
#19=PRODUCT_RELATED_PRODUCT_CATEGORY('part','',(#20));
#20=PRODUCT('IsoTurningInsert','IsoTurningInsert',' ',(#21));
#21=PRODUCT_CONTEXT(' ',#23,'mechanical');
#22=APPLICATION_PROTOCOL_DEFINITION('international standard','automotive_design',
     2010,#23);
#23=APPLICATION_CONTEXT('core data for automotive mechanical design processes');
#24=SHAPE_REPRESENTATION('IsoTurningInsert-None',(#281),#507);
#25=GEOMETRIC_CURVE_SET('geometric curve set',(#261));
#26=SURFACE_STYLE_USAGE(.BOTH.,#27);
#27=SURFACE_SIDE_STYLE('',(#28));
#28=SURFACE_STYLE_FILL_AREA(#29);
#29=FILL_AREA_STYLE('',(#30));
#30=FILL_AREA_STYLE_COLOUR('',#280);
#31=MANIFOLD_SOLID_BREP('CUT',#32);
#32=CLOSED_SHELL('',(#49,#50,#51,#52,#53,#54,#55,#56,#57,#58,#59,#60,#61,#62));
#33=CYLINDRICAL_SURFACE('',#309,1.4);
#34=TOROIDAL_SURFACE('',#308,3.9,2.5);
#35=TOROIDAL_SURFACE('',#310,1.38569981785225,0.5);
#36=CONICAL_SURFACE('',#300,0.396875000000002,7.0);
#37=CONICAL_SURFACE('',#301,0.396875000000002,7.0);
#38=CONICAL_SURFACE('',#302,0.396875000000002,7.0);
#39=CONICAL_SURFACE('',#303,0.396875000000002,7.0);
#40=CONICAL_SURFACE('',#305,1.87499999997636,4.00000000179039);
#41=FACE_OUTER_BOUND('',#115,.T.);
#42=FACE_OUTER_BOUND('',#116,.T.);
#43=FACE_OUTER_BOUND('',#117,.T.);
#44=FACE_OUTER_BOUND('',#118,.T.);
#45=FACE_OUTER_BOUND('',#121,.T.);
#46=FACE_OUTER_BOUND('',#122,.T.);
#47=FACE_OUTER_BOUND('',#123,.T.);
#48=FACE_OUTER_BOUND('',#124,.T.);
#49=ADVANCED_FACE('',(#101,#102),#63,.F.);
#50=ADVANCED_FACE('',(#41),#64,.F.);
#51=ADVANCED_FACE('',(#42),#65,.F.);
#52=ADVANCED_FACE('',(#43),#66,.F.);
#53=ADVANCED_FACE('',(#44),#67,.F.);
#54=ADVANCED_FACE('',(#103,#104),#68,.T.);
#55=ADVANCED_FACE('',(#45),#36,.T.);
#56=ADVANCED_FACE('',(#46),#37,.T.);
#57=ADVANCED_FACE('',(#47),#38,.T.);
#58=ADVANCED_FACE('',(#48),#39,.T.);
#59=ADVANCED_FACE('',(#105,#106),#40,.F.);
#60=ADVANCED_FACE('',(#107,#108),#34,.T.);
#61=ADVANCED_FACE('',(#109,#110),#33,.F.);
#62=ADVANCED_FACE('',(#111,#112),#35,.F.);
#63=PLANE('',#289);
#64=PLANE('',#290);
#65=PLANE('',#291);
#66=PLANE('',#292);
#67=PLANE('',#293);
#68=PLANE('',#299);
#69=LINE('',#444,#85);
#70=LINE('',#449,#86);
#71=LINE('',#453,#87);
#72=LINE('',#457,#88);
#73=LINE('',#461,#89);
#74=LINE('',#464,#90);
#75=LINE('',#465,#91);
#76=LINE('',#467,#92);
#77=LINE('',#469,#93);
#78=LINE('',#471,#94);
#79=LINE('',#473,#95);
#80=LINE('',#475,#96);
#81=LINE('',#477,#97);
#82=LINE('',#479,#98);
#83=LINE('',#481,#99);
#84=LINE('',#483,#100);
#85=VECTOR('',#319,1.0);
#86=VECTOR('',#322,1.0);
#87=VECTOR('',#325,1.0);
#88=VECTOR('',#328,1.0);
#89=VECTOR('',#333,1.0);
#90=VECTOR('',#334,1.0);
#91=VECTOR('',#335,1.0);
#92=VECTOR('',#338,1.0);
#93=VECTOR('',#339,1.0);
#94=VECTOR('',#340,1.0);
#95=VECTOR('',#343,1.0);
#96=VECTOR('',#344,1.0);
#97=VECTOR('',#345,1.0);
#98=VECTOR('',#348,1.0);
#99=VECTOR('',#349,1.0);
#100=VECTOR('',#350,1.0);
#101=FACE_BOUND('',#113,.T.);
#102=FACE_BOUND('',#114,.T.);
#103=FACE_BOUND('',#119,.T.);
#104=FACE_BOUND('',#120,.T.);
#105=FACE_BOUND('',#125,.T.);
#106=FACE_BOUND('',#126,.T.);
#107=FACE_BOUND('',#127,.T.);
#108=FACE_BOUND('',#128,.T.);
#109=FACE_BOUND('',#129,.T.);
#110=FACE_BOUND('',#130,.T.);
#111=FACE_BOUND('',#131,.T.);
#112=FACE_BOUND('',#132,.T.);
#113=EDGE_LOOP('',(#133));
#114=EDGE_LOOP('',(#134,#135,#136,#137,#138,#139,#140,#141));
#115=EDGE_LOOP('',(#142,#143,#144,#145));
#116=EDGE_LOOP('',(#146,#147,#148,#149));
#117=EDGE_LOOP('',(#150,#151,#152,#153));
#118=EDGE_LOOP('',(#154,#155,#156,#157));
#119=EDGE_LOOP('',(#158));
#120=EDGE_LOOP('',(#159,#160,#161,#162,#163,#164,#165,#166));
#121=EDGE_LOOP('',(#167,#168,#169,#170));
#122=EDGE_LOOP('',(#171,#172,#173,#174));
#123=EDGE_LOOP('',(#175,#176,#177,#178));
#124=EDGE_LOOP('',(#179,#180,#181,#182));
#125=EDGE_LOOP('',(#183));
#126=EDGE_LOOP('',(#184));
#127=EDGE_LOOP('',(#185));
#128=EDGE_LOOP('',(#186));
#129=EDGE_LOOP('',(#187));
#130=EDGE_LOOP('',(#188));
#131=EDGE_LOOP('',(#189));
#132=EDGE_LOOP('',(#190));
#133=ORIENTED_EDGE('',*,*,#212,.T.);
#134=ORIENTED_EDGE('',*,*,#213,.T.);
#135=ORIENTED_EDGE('',*,*,#214,.T.);
#136=ORIENTED_EDGE('',*,*,#215,.T.);
#137=ORIENTED_EDGE('',*,*,#216,.T.);
#138=ORIENTED_EDGE('',*,*,#217,.T.);
#139=ORIENTED_EDGE('',*,*,#218,.T.);
#140=ORIENTED_EDGE('',*,*,#219,.T.);
#141=ORIENTED_EDGE('',*,*,#220,.T.);
#142=ORIENTED_EDGE('',*,*,#221,.F.);
#143=ORIENTED_EDGE('',*,*,#222,.T.);
#144=ORIENTED_EDGE('',*,*,#213,.F.);
#145=ORIENTED_EDGE('',*,*,#223,.T.);
#146=ORIENTED_EDGE('',*,*,#219,.F.);
#147=ORIENTED_EDGE('',*,*,#224,.T.);
#148=ORIENTED_EDGE('',*,*,#225,.F.);
#149=ORIENTED_EDGE('',*,*,#226,.T.);
#150=ORIENTED_EDGE('',*,*,#217,.F.);
#151=ORIENTED_EDGE('',*,*,#227,.T.);
#152=ORIENTED_EDGE('',*,*,#228,.F.);
#153=ORIENTED_EDGE('',*,*,#229,.T.);
#154=ORIENTED_EDGE('',*,*,#215,.F.);
#155=ORIENTED_EDGE('',*,*,#230,.T.);
#156=ORIENTED_EDGE('',*,*,#231,.F.);
#157=ORIENTED_EDGE('',*,*,#232,.T.);
#158=ORIENTED_EDGE('',*,*,#233,.F.);
#159=ORIENTED_EDGE('',*,*,#231,.T.);
#160=ORIENTED_EDGE('',*,*,#234,.T.);
#161=ORIENTED_EDGE('',*,*,#221,.T.);
#162=ORIENTED_EDGE('',*,*,#235,.T.);
#163=ORIENTED_EDGE('',*,*,#225,.T.);
#164=ORIENTED_EDGE('',*,*,#236,.T.);
#165=ORIENTED_EDGE('',*,*,#228,.T.);
#166=ORIENTED_EDGE('',*,*,#237,.T.);
#167=ORIENTED_EDGE('',*,*,#214,.F.);
#168=ORIENTED_EDGE('',*,*,#222,.F.);
#169=ORIENTED_EDGE('',*,*,#234,.F.);
#170=ORIENTED_EDGE('',*,*,#230,.F.);
#171=ORIENTED_EDGE('',*,*,#216,.F.);
#172=ORIENTED_EDGE('',*,*,#232,.F.);
#173=ORIENTED_EDGE('',*,*,#237,.F.);
#174=ORIENTED_EDGE('',*,*,#227,.F.);
#175=ORIENTED_EDGE('',*,*,#218,.F.);
#176=ORIENTED_EDGE('',*,*,#229,.F.);
#177=ORIENTED_EDGE('',*,*,#236,.F.);
#178=ORIENTED_EDGE('',*,*,#224,.F.);
#179=ORIENTED_EDGE('',*,*,#220,.F.);
#180=ORIENTED_EDGE('',*,*,#226,.F.);
#181=ORIENTED_EDGE('',*,*,#235,.F.);
#182=ORIENTED_EDGE('',*,*,#223,.F.);
#183=ORIENTED_EDGE('',*,*,#238,.T.);
#184=ORIENTED_EDGE('',*,*,#233,.T.);
#185=ORIENTED_EDGE('',*,*,#239,.T.);
#186=ORIENTED_EDGE('',*,*,#240,.T.);
#187=ORIENTED_EDGE('',*,*,#240,.F.);
#188=ORIENTED_EDGE('',*,*,#212,.F.);
#189=ORIENTED_EDGE('',*,*,#239,.F.);
#190=ORIENTED_EDGE('',*,*,#238,.F.);
#191=VERTEX_POINT('',#443);
#192=VERTEX_POINT('',#445);
#193=VERTEX_POINT('',#446);
#194=VERTEX_POINT('',#448);
#195=VERTEX_POINT('',#450);
#196=VERTEX_POINT('',#452);
#197=VERTEX_POINT('',#454);
#198=VERTEX_POINT('',#456);
#199=VERTEX_POINT('',#458);
#200=VERTEX_POINT('',#462);
#201=VERTEX_POINT('',#463);
#202=VERTEX_POINT('',#468);
#203=VERTEX_POINT('',#470);
#204=VERTEX_POINT('',#474);
#205=VERTEX_POINT('',#476);
#206=VERTEX_POINT('',#480);
#207=VERTEX_POINT('',#482);
#208=VERTEX_POINT('',#486);
#209=VERTEX_POINT('',#497);
#210=VERTEX_POINT('',#500);
#211=VERTEX_POINT('',#502);
#212=EDGE_CURVE('',#191,#191,#241,.T.);
#213=EDGE_CURVE('',#192,#193,#69,.T.);
#214=EDGE_CURVE('',#193,#194,#242,.T.);
#215=EDGE_CURVE('',#194,#195,#70,.T.);
#216=EDGE_CURVE('',#195,#196,#243,.T.);
#217=EDGE_CURVE('',#196,#197,#71,.T.);
#218=EDGE_CURVE('',#197,#198,#244,.T.);
#219=EDGE_CURVE('',#198,#199,#72,.T.);
#220=EDGE_CURVE('',#199,#192,#245,.T.);
#221=EDGE_CURVE('',#200,#201,#73,.T.);
#222=EDGE_CURVE('',#200,#193,#74,.T.);
#223=EDGE_CURVE('',#192,#201,#75,.T.);
#224=EDGE_CURVE('',#198,#202,#76,.T.);
#225=EDGE_CURVE('',#203,#202,#77,.T.);
#226=EDGE_CURVE('',#203,#199,#78,.T.);
#227=EDGE_CURVE('',#196,#204,#79,.T.);
#228=EDGE_CURVE('',#205,#204,#80,.T.);
#229=EDGE_CURVE('',#205,#197,#81,.T.);
#230=EDGE_CURVE('',#194,#206,#82,.T.);
#231=EDGE_CURVE('',#207,#206,#83,.T.);
#232=EDGE_CURVE('',#207,#195,#84,.T.);
#233=EDGE_CURVE('',#208,#208,#246,.T.);
#234=EDGE_CURVE('',#206,#200,#247,.T.);
#235=EDGE_CURVE('',#201,#203,#248,.T.);
#236=EDGE_CURVE('',#202,#205,#249,.T.);
#237=EDGE_CURVE('',#204,#207,#250,.T.);
#238=EDGE_CURVE('',#209,#209,#251,.T.);
#239=EDGE_CURVE('',#210,#210,#252,.T.);
#240=EDGE_CURVE('',#211,#211,#253,.T.);
#241=CIRCLE('',#284,1.4);
#242=CIRCLE('',#285,0.104494264349961);
#243=CIRCLE('',#286,0.104494264349961);
#244=CIRCLE('',#287,0.104494264349961);
#245=CIRCLE('',#288,0.104494264349962);
#246=CIRCLE('',#294,1.92255023212159);
#247=CIRCLE('',#295,0.396875000000002);
#248=CIRCLE('',#296,0.396875000000002);
#249=CIRCLE('',#297,0.396875000000002);
#250=CIRCLE('',#298,0.396875000000002);
#251=CIRCLE('',#304,1.88448184298103);
#252=CIRCLE('',#306,1.80474984821024);
#253=CIRCLE('',#307,1.4);
#254=CURVE_STYLE('',#258,POSITIVE_LENGTH_MEASURE(0.18),#257);
#255=CURVE_STYLE('',#259,POSITIVE_LENGTH_MEASURE(0.18),#279);
#256=CURVE_STYLE('',#260,POSITIVE_LENGTH_MEASURE(0.18),#279);
#257=DRAUGHTING_PRE_DEFINED_COLOUR('blue');
#258=DRAUGHTING_PRE_DEFINED_CURVE_FONT('continuous');
#259=DRAUGHTING_PRE_DEFINED_CURVE_FONT('continuous');
#260=DRAUGHTING_PRE_DEFINED_CURVE_FONT('continuous');
#261=B_SPLINE_CURVE_WITH_KNOTS('CUTTING EDGE LINE',5,(#390,#391,#392,#393,#394,#395,
     #396,#397,#398,#399,#400,#401,#402,#403,#404,#405,#406,#407,#408,#409,#410,
     #411,#412,#413,#414,#415,#416,#417,#418,#419,#420,#421,#422,#423,#424,#425,
     #426,#427,#428,#429,#430,#431,#432,#433,#434,#435,#436,#437,#438,#439),.UNSPECIFIED.,
     .T.,.F.,(2,4,1,4,4,1,1,1,1,1,1,1,4,4,1,4,4,1,1,1,1,1,1,1,4,4,1,1),(-0.2289568833,
     0.0,0.00642984120000001,0.0128596824,0.2418165656,0.2454698844875,0.249123203375055,
     0.2527765222625,0.256429841150042,0.2600831600375,0.263736478925053,0.2673897978125,
     0.2710431167,0.5,0.5064298412,0.5128596824,0.7418165656,0.7454698844875,0.749123203375055,
     0.7527765222625,0.756429841150055,0.7600831600375,0.763736478925066,0.7673897978125,
     0.7710431167,1.0,1.0064298412,1.0128596824),.UNSPECIFIED.);
#262=PRESENTATION_LAYER_ASSIGNMENT('1','Layer 1',(#261,#282,#283,#31));
#265=STYLED_ITEM('',(#271),#261);
#266=STYLED_ITEM('',(#272),#282);
#267=STYLED_ITEM('',(#273),#283);
#268=STYLED_ITEM('',(#274),#31);
#269=PRESENTATION_STYLE_ASSIGNMENT((#275));
#270=PRESENTATION_STYLE_ASSIGNMENT((#276));
#271=PRESENTATION_STYLE_ASSIGNMENT((#254));
#272=PRESENTATION_STYLE_ASSIGNMENT((#255));
#273=PRESENTATION_STYLE_ASSIGNMENT((#256));
#274=PRESENTATION_STYLE_ASSIGNMENT((#26));
#275=POINT_STYLE('',#277,POSITIVE_LENGTH_MEASURE(3.0),#279);
#276=POINT_STYLE('',#278,POSITIVE_LENGTH_MEASURE(3.0),#279);
#277=PRE_DEFINED_POINT_MARKER_SYMBOL('plus');
#278=PRE_DEFINED_POINT_MARKER_SYMBOL('plus');
#279=COLOUR_RGB('Medium Maroon',0.6,0.4,0.4);
#280=COLOUR_RGB('IsoInsertColor',0.8,0.8,0.8);
#281=AXIS2_PLACEMENT_3D('',#387,#311,#312);
#282=AXIS2_PLACEMENT_3D('PCS',#440,#313,#314);
#283=AXIS2_PLACEMENT_3D('MCS',#441,#315,#316);
#284=AXIS2_PLACEMENT_3D('',#442,#317,#318);
#285=AXIS2_PLACEMENT_3D('',#447,#320,#321);
#286=AXIS2_PLACEMENT_3D('',#451,#323,#324);
#287=AXIS2_PLACEMENT_3D('',#455,#326,#327);
#288=AXIS2_PLACEMENT_3D('',#459,#329,#330);
#289=AXIS2_PLACEMENT_3D('',#460,#331,#332);
#290=AXIS2_PLACEMENT_3D('',#466,#336,#337);
#291=AXIS2_PLACEMENT_3D('',#472,#341,#342);
#292=AXIS2_PLACEMENT_3D('',#478,#346,#347);
#293=AXIS2_PLACEMENT_3D('',#484,#351,#352);
#294=AXIS2_PLACEMENT_3D('',#485,#353,#354);
#295=AXIS2_PLACEMENT_3D('',#487,#355,#356);
#296=AXIS2_PLACEMENT_3D('',#488,#357,#358);
#297=AXIS2_PLACEMENT_3D('',#489,#359,#360);
#298=AXIS2_PLACEMENT_3D('',#490,#361,#362);
#299=AXIS2_PLACEMENT_3D('',#491,#363,#364);
#300=AXIS2_PLACEMENT_3D('',#492,#365,#366);
#301=AXIS2_PLACEMENT_3D('',#493,#367,#368);
#302=AXIS2_PLACEMENT_3D('',#494,#369,#370);
#303=AXIS2_PLACEMENT_3D('',#495,#371,#372);
#304=AXIS2_PLACEMENT_3D('',#496,#373,#374);
#305=AXIS2_PLACEMENT_3D('',#498,#375,#376);
#306=AXIS2_PLACEMENT_3D('',#499,#377,#378);
#307=AXIS2_PLACEMENT_3D('',#501,#379,#380);
#308=AXIS2_PLACEMENT_3D('',#503,#381,#382);
#309=AXIS2_PLACEMENT_3D('',#504,#383,#384);
#310=AXIS2_PLACEMENT_3D('',#505,#385,#386);
#311=DIRECTION('',(0.0,0.0,1.0));
#312=DIRECTION('',(1.0,0.0,0.0));
#313=DIRECTION('',(0.0,0.0,1.0));
#314=DIRECTION('',(1.0,0.0,0.0));
#315=DIRECTION('',(0.0,0.0,1.0));
#316=DIRECTION('',(1.0,0.0,0.0));
#317=DIRECTION('',(0.0,0.0,1.0));
#318=DIRECTION('',(-0.887010833178221,-0.461748613235034,0.0));
#319=DIRECTION('',(1.0,9.43689570931383E-16,0.0));
#320=DIRECTION('',(0.0,0.0,-1.0));
#321=DIRECTION('',(-0.88701083317823,-0.461748613235035,0.0));
#322=DIRECTION('',(-0.573576436351045,-0.819152044288992,0.0));
#323=DIRECTION('',(0.0,0.0,-1.0));
#324=DIRECTION('',(-0.887010833178218,-0.461748613235034,0.0));
#325=DIRECTION('',(-1.0,2.22044604925031E-16,0.0));
#326=DIRECTION('',(0.0,0.0,-1.0));
#327=DIRECTION('',(-0.887010833178221,-0.461748613235034,0.0));
#328=DIRECTION('',(0.573576436351046,0.819152044288991,0.0));
#329=DIRECTION('',(0.0,0.0,-1.0));
#330=DIRECTION('',(-0.88701083317822,-0.461748613235034,0.0));
#331=DIRECTION('',(0.0,0.0,1.0));
#332=DIRECTION('',(-0.887010833178222,-0.461748613235034,0.0));
#333=DIRECTION('',(-1.0,-8.88178419700125E-16,-1.76126333343879E-16));
#334=DIRECTION('',(2.77555756156289E-16,-0.121869343405148,-0.992546151641322));
#335=DIRECTION('',(-2.77555756156289E-16,0.121869343405148,0.992546151641322));
#336=DIRECTION('',(9.43689570931383E-16,-0.992546151641322,0.121869343405148));
#337=DIRECTION('',(1.0,9.43689570931383E-16,0.0));
#338=DIRECTION('',(-0.0998295217864838,0.0699013836907673,0.992546151641322));
#339=DIRECTION('',(-0.573576436351047,-0.819152044288991,6.01166036099617E-16));
#340=DIRECTION('',(0.0998295217864838,-0.0699013836907673,-0.992546151641322));
#341=DIRECTION('',(0.81304620916816,-0.569301084572375,0.121869343405148));
#342=DIRECTION('',(0.573576436351046,0.819152044288991,0.0));
#343=DIRECTION('',(-1.80411241501588E-16,-0.121869343405147,0.992546151641322));
#344=DIRECTION('',(1.0,-2.22044604925031E-16,1.69310421014735E-16));
#345=DIRECTION('',(1.80411241501588E-16,0.121869343405147,-0.992546151641322));
#346=DIRECTION('',(1.66533453693773E-16,0.992546151641322,0.121869343405147));
#347=DIRECTION('',(-1.0,2.22044604925031E-16,0.0));
#348=DIRECTION('',(0.0998295217864836,-0.0699013836907654,0.992546151641322));
#349=DIRECTION('',(0.573576436351046,0.819152044288992,-6.07981948428762E-16));
#350=DIRECTION('',(-0.0998295217864836,0.0699013836907654,-0.992546151641322));
#351=DIRECTION('',(-0.813046209168161,0.569301084572374,0.121869343405147));
#352=DIRECTION('',(-0.573576436351045,-0.819152044288992,0.0));
#353=DIRECTION('',(0.0,0.0,1.0));
#354=DIRECTION('',(-0.887010833178221,-0.461748613235034,0.0));
#355=DIRECTION('',(-1.7186295311592E-16,8.56845954402636E-16,1.0));
#356=DIRECTION('',(-0.461748613235034,0.887010833178222,-8.39389124187824E-16));
#357=DIRECTION('',(-1.7186295311592E-16,8.56845954402636E-16,1.0));
#358=DIRECTION('',(-0.461748613235034,0.887010833178222,-8.39389124187824E-16));
#359=DIRECTION('',(-1.7186295311592E-16,8.56845954402636E-16,1.0));
#360=DIRECTION('',(-0.461748613235034,0.887010833178222,-8.39389124187825E-16));
#361=DIRECTION('',(-1.7186295311592E-16,8.56845954402636E-16,1.0));
#362=DIRECTION('',(-0.461748613235034,0.887010833178222,-8.39389124187825E-16));
#363=DIRECTION('',(-1.7186295311592E-16,8.56845954402636E-16,1.0));
#364=DIRECTION('',(-0.461748613235034,0.887010833178222,-8.39389124187825E-16));
#365=DIRECTION('',(-1.7186295311592E-16,8.56845954402636E-16,1.0));
#366=DIRECTION('',(-0.461748613235034,0.887010833178222,-8.66084187041515E-16));
#367=DIRECTION('',(-1.7186295311592E-16,8.56845954402636E-16,1.0));
#368=DIRECTION('',(-0.461748613235034,0.887010833178222,-8.97770193884498E-16));
#369=DIRECTION('',(-1.7186295311592E-16,8.56845954402636E-16,1.0));
#370=DIRECTION('',(-0.461748613235034,0.887010833178222,-8.87208191603504E-16));
#371=DIRECTION('',(-1.7186295311592E-16,8.56845954402636E-16,1.0));
#372=DIRECTION('',(-0.461748613235034,0.887010833178222,-8.55522184760521E-16));
#373=DIRECTION('',(0.0,0.0,-1.0));
#374=DIRECTION('',(0.887010833178222,0.461748613235034,0.0));
#375=DIRECTION('',(0.0,0.0,1.0));
#376=DIRECTION('',(-0.887010833178222,-0.461748613235034,0.0));
#377=DIRECTION('',(0.0,0.0,1.0));
#378=DIRECTION('',(0.887010833178222,0.461748613235034,0.0));
#379=DIRECTION('',(0.0,0.0,-1.0));
#380=DIRECTION('',(-0.887010833178222,-0.461748613235034,0.0));
#381=DIRECTION('',(0.0,0.0,1.0));
#382=DIRECTION('',(-0.887010833178222,-0.461748613235034,0.0));
#383=DIRECTION('',(0.0,0.0,1.0));
#384=DIRECTION('',(-0.887010833178222,-0.461748613235034,0.0));
#385=DIRECTION('',(0.0,0.0,-1.0));
#386=DIRECTION('',(0.887010833178222,0.461748613235034,0.0));
#387=CARTESIAN_POINT('',(0.0,0.0,0.0));
#390=CARTESIAN_POINT('',(6.18873282868634,2.22044604925031E-15,-4.93038065763132E-32));
#391=CARTESIAN_POINT('',(7.58196988662304,1.33226762955019E-15,3.46359738149801E-16));
#392=CARTESIAN_POINT('',(7.6552724789741,0.0084618425911609,3.51707242551281E-16));
#393=CARTESIAN_POINT('',(7.73384330820196,0.0347223867014206,3.44871837045441E-16));
#394=CARTESIAN_POINT('',(7.80042106282368,0.0840214127774983,2.9495089343524E-16));
#395=CARTESIAN_POINT('',(7.8493972381767,0.139213867635153,1.94923496360301E-16));
#396=CARTESIAN_POINT('',(8.64852518486024,1.28048685182318,2.50923638681678E-17));
#397=CARTESIAN_POINT('',(9.42663081169578,2.39173685182318,1.97215226305253E-32));
#398=CARTESIAN_POINT('',(10.2047364385313,3.50298685182318,-1.57772181044202E-31));
#399=CARTESIAN_POINT('',(10.9828420653669,4.61423685182317,2.50923638681678E-17));
#400=CARTESIAN_POINT('',(11.7727569505835,5.74235222064129,1.38132734187186E-16));
#401=CARTESIAN_POINT('',(11.794188141763,5.77761454013949,1.51334474328896E-16));
#402=CARTESIAN_POINT('',(11.8215628832996,5.83880222536904,1.43133607029289E-16));
#403=CARTESIAN_POINT('',(11.8396920009931,5.92584242760613,8.99341383313665E-17));
#404=CARTESIAN_POINT('',(11.8309595977479,6.04057120856008,-6.42464251062135E-18));
#405=CARTESIAN_POINT('',(11.7934692225506,6.1392914889565,-9.79428750623586E-17));
#406=CARTESIAN_POINT('',(11.7341058988537,6.22662543306621,-1.84008847269026E-16));
#407=CARTESIAN_POINT('',(11.6451342841306,6.2995843243618,-2.56982714615911E-16));
#408=CARTESIAN_POINT('',(11.5634366898123,6.33465802956024,-2.7638485109283E-16));
#409=CARTESIAN_POINT('',(11.4976131656746,6.34732976851099,-2.44980541652768E-16));
#410=CARTESIAN_POINT('',(11.4564355383084,6.35,-2.00497988571373E-16));
#411=CARTESIAN_POINT('',(10.079260962864,6.35,-3.40060738153548E-17));
#412=CARTESIAN_POINT('',(8.72267520110287,6.34999999999999,8.38164711797325E-32));
#413=CARTESIAN_POINT('',(7.3660894393417,6.34999999999999,5.91645678915759E-32));
#414=CARTESIAN_POINT('',(6.00950367758054,6.34999999999999,-3.40060738153547E-17));
#415=CARTESIAN_POINT('',(4.61626661964385,6.34999999999999,-2.4049919875646E-16));
#416=CARTESIAN_POINT('',(4.54296402729278,6.34153815740883,-3.28723658570924E-16));
#417=CARTESIAN_POINT('',(4.46439319806493,6.31527761329857,-3.47802427385215E-16));
#418=CARTESIAN_POINT('',(4.3978154434432,6.26597858722249,-2.9495089343524E-16));
#419=CARTESIAN_POINT('',(4.34883926809019,6.21078613236484,-1.94923496360302E-16));
#420=CARTESIAN_POINT('',(3.54971132140664,5.06951314817682,-2.50923638681678E-17));
#421=CARTESIAN_POINT('',(2.7716056945711,3.95826314817682,-2.95822839457879E-32));
#422=CARTESIAN_POINT('',(1.99350006773557,2.84701314817682,7.88860905221012E-32));
#423=CARTESIAN_POINT('',(1.21539444090003,1.73576314817682,-2.50923638681678E-17));
#424=CARTESIAN_POINT('',(0.425479555683356,0.607647779358712,-1.38132734187186E-16));
#425=CARTESIAN_POINT('',(0.404048364503891,0.572385459860504,-1.51334474328897E-16));
#426=CARTESIAN_POINT('',(0.376673622967251,0.51119777463096,-1.43133607029289E-16));
#427=CARTESIAN_POINT('',(0.358544505273772,0.42415757239379,-8.99341383313214E-17));
#428=CARTESIAN_POINT('',(0.367276908519028,0.309428791439837,6.42464251069654E-18));
#429=CARTESIAN_POINT('',(0.404767283716343,0.210708511043364,9.79428750624761E-17));
#430=CARTESIAN_POINT('',(0.464130607413276,0.123374566933668,1.84008847269161E-16));
#431=CARTESIAN_POINT('',(0.553102222136438,0.0504156756381411,2.56982714615942E-16));
#432=CARTESIAN_POINT('',(0.634799816454623,0.0153419704397333,2.76384851092823E-16));
#433=CARTESIAN_POINT('',(0.700623340592313,0.00267023148900547,2.44980541652689E-16));
#434=CARTESIAN_POINT('',(0.741800967958432,0.0,2.00497988571373E-16));
#435=CARTESIAN_POINT('',(2.11897554340285,3.10862446895044E-15,3.40060738153548E-17));
#436=CARTESIAN_POINT('',(3.47556130516401,3.10862446895044E-15,-4.93038065763132E-33));
#437=CARTESIAN_POINT('',(4.83214706692518,2.66453525910038E-15,-4.93038065763132E-32));
#438=CARTESIAN_POINT('',(6.18873282868634,2.22044604925031E-15,-4.93038065763132E-32));
#439=CARTESIAN_POINT('',(7.58196988662304,1.33226762955019E-15,3.46359738149801E-16));
#440=CARTESIAN_POINT('',(0.0,0.0,0.0));
#441=CARTESIAN_POINT('',(6.09911825313345,3.175,0.0));
#442=CARTESIAN_POINT('',(6.09911825313345,3.175,-2.38125000000001));
#443=CARTESIAN_POINT('',(4.85730308668394,2.52855194147095,-2.38125000000001));
#444=CARTESIAN_POINT('',(6.09911825313344,6.05761926434995,-2.38125));
#445=CARTESIAN_POINT('',(4.65291791581938,6.05761926434995,-2.38125));
#446=CARTESIAN_POINT('',(11.4358467246252,6.05761926434995,-2.38125));
#447=CARTESIAN_POINT('',(11.4358467246252,5.95312499999999,-2.38125));
#448=CARTESIAN_POINT('',(11.5214434148839,5.89318955223502,-2.38125));
#449=CARTESIAN_POINT('',(8.46042171643254,1.52159751499728,-2.38125));
#450=CARTESIAN_POINT('',(7.63091528070626,0.336939552235027,-2.38125));
#451=CARTESIAN_POINT('',(7.54531859044751,0.396875000000005,-2.38125));
#452=CARTESIAN_POINT('',(7.54531859044751,0.292380735650041,-2.38125));
#453=CARTESIAN_POINT('',(6.09911825313344,0.292380735650041,-2.38125));
#454=CARTESIAN_POINT('',(0.762389781641684,0.292380735650043,-2.38125));
#455=CARTESIAN_POINT('',(0.762389781641686,0.396875000000006,-2.38125));
#456=CARTESIAN_POINT('',(0.67679309138294,0.456810447764978,-2.38125));
#457=CARTESIAN_POINT('',(3.73781478983435,4.82840248500272,-2.38125));
#458=CARTESIAN_POINT('',(4.56732122556063,6.01306044776496,-2.38125));
#459=CARTESIAN_POINT('',(4.65291791581938,5.95312499999999,-2.38125));
#460=CARTESIAN_POINT('',(5.93964492065476,2.66921520759503,-2.38125));
#461=CARTESIAN_POINT('',(6.09911825313345,6.34999999999999,-5.65390330310514E-15));
#462=CARTESIAN_POINT('',(11.4358467246252,6.35,-4.73671738801676E-15));
#463=CARTESIAN_POINT('',(4.65291791581938,6.34999999999999,-5.90245156387318E-15));
#464=CARTESIAN_POINT('',(11.4358467246252,6.35,-4.85034188862253E-15));
#465=CARTESIAN_POINT('',(4.65291791581938,6.34999999999999,-6.0327505603484E-15));
#466=CARTESIAN_POINT('',(6.09911825313344,6.34999999999999,-5.65390330310514E-15));
#467=CARTESIAN_POINT('',(0.437288814064489,0.624513148176828,-1.77370598923105E-15));
#468=CARTESIAN_POINT('',(0.437288814064489,0.624513148176828,-1.72110178457202E-15));
#469=CARTESIAN_POINT('',(3.4983105125159,4.99610518541457,-4.94080650733019E-15));
#470=CARTESIAN_POINT('',(4.32781694824218,6.18076314817681,-5.81331446440131E-15));
#471=CARTESIAN_POINT('',(4.32781694824218,6.18076314817681,-6.11759930341056E-15));
#472=CARTESIAN_POINT('',(3.4983105125159,4.99610518541457,-4.94080650733019E-15));
#473=CARTESIAN_POINT('',(7.54531859044751,1.73472347597681E-15,1.11743017062117E-16));
#474=CARTESIAN_POINT('',(7.54531859044751,1.73472347597681E-15,3.56167681196239E-17));
#475=CARTESIAN_POINT('',(6.09911825313345,2.16840434497101E-15,-2.1293149264841E-16));
#476=CARTESIAN_POINT('',(0.762389781641684,3.03576608295941E-15,-1.1301174077368E-15));
#477=CARTESIAN_POINT('',(0.762389781641684,3.03576608295941E-15,-1.27069968170777E-15));
#478=CARTESIAN_POINT('',(6.09911825313344,2.60208521396521E-15,-2.12931492648412E-16));
#479=CARTESIAN_POINT('',(11.7609476922024,5.72548685182317,-4.28831373721655E-15));
#480=CARTESIAN_POINT('',(11.7609476922024,5.72548685182317,-4.14573301118154E-15));
#481=CARTESIAN_POINT('',(8.69992599375099,1.35389481458544,-9.26028288423372E-16));
#482=CARTESIAN_POINT('',(7.87041955802471,0.169236851823182,-5.35203313522456E-17));
#483=CARTESIAN_POINT('',(7.87041955802471,0.169236851823182,2.51993534903437E-17));
#484=CARTESIAN_POINT('',(8.69992599375099,1.35389481458543,-9.26028288423368E-16));
#485=CARTESIAN_POINT('',(6.09911825313345,3.175,-6.93889390390723E-15));
#486=CARTESIAN_POINT('',(4.3937953699123,2.28726509644316,-6.93889390390723E-15));
#487=CARTESIAN_POINT('',(11.4358467246252,5.95312499999999,-4.39665664986322E-15));
#488=CARTESIAN_POINT('',(4.65291791581938,5.95312499999999,-5.56239082571963E-15));
#489=CARTESIAN_POINT('',(0.762389781641685,0.396875000000005,-1.47017814589034E-15));
#490=CARTESIAN_POINT('',(7.54531859044751,0.396875000000004,-3.04443970033924E-16));
#491=CARTESIAN_POINT('',(6.09911825313345,3.175,-2.93341739787678E-15));
#492=CARTESIAN_POINT('',(11.4358467246252,5.95312499999999,-4.33680868994202E-15));
#493=CARTESIAN_POINT('',(7.54531859044751,0.396875000000004,-4.33680868994202E-16));
#494=CARTESIAN_POINT('',(0.762389781641685,0.396875000000005,-1.73472347597681E-15));
#495=CARTESIAN_POINT('',(4.65291791581938,5.95312499999999,-5.63785129692462E-15));
#496=CARTESIAN_POINT('',(6.09911825313345,3.175,-0.544403327785287));
#497=CARTESIAN_POINT('',(7.77067406278529,4.04515687766309,-0.544403327785287));
#498=CARTESIAN_POINT('',(6.09911825313345,3.175,-0.680000000032654));
#499=CARTESIAN_POINT('',(6.09911825313345,3.175,-0.782283357604651));
#500=CARTESIAN_POINT('',(7.69995091967268,4.00834073964721,-0.782283357604651));
#501=CARTESIAN_POINT('',(6.09911825313345,3.175,-2.14607469113958));
#502=CARTESIAN_POINT('',(4.85730308668394,2.52855194147095,-2.14607469113958));
#503=CARTESIAN_POINT('',(6.09911825313345,3.175,-2.14607469113958));
#504=CARTESIAN_POINT('',(6.09911825313345,3.175,-33.3676978394524));
#505=CARTESIAN_POINT('',(6.09911825313345,3.175,-0.50952509089764));
#506=MECHANICAL_DESIGN_GEOMETRIC_PRESENTATION_REPRESENTATION('',(#265,#266,#267,
     #268),#507);
#507=(GEOMETRIC_REPRESENTATION_CONTEXT(3)GLOBAL_UNCERTAINTY_ASSIGNED_CONTEXT((#508))
     GLOBAL_UNIT_ASSIGNED_CONTEXT((#514,#510,#509))REPRESENTATION_CONTEXT('DCGT070204',
     'TOP_LEVEL_ASSEMBLY_PART'));
#508=UNCERTAINTY_MEASURE_WITH_UNIT(LENGTH_MEASURE(2.0E-5),#514,'DISTANCE_ACCURACY_VALUE',
     'Maximum Tolerance applied to model');
#509=(NAMED_UNIT(*)SI_UNIT($,.STERADIAN.)SOLID_ANGLE_UNIT());
#510=(CONVERSION_BASED_UNIT('DEGREE',#512)NAMED_UNIT(#511)PLANE_ANGLE_UNIT());
#511=DIMENSIONAL_EXPONENTS(0.0,0.0,0.0,0.0,0.0,0.0,0.0);
#512=PLANE_ANGLE_MEASURE_WITH_UNIT(PLANE_ANGLE_MEASURE(0.0174532925),#513);
#513=(NAMED_UNIT(*)PLANE_ANGLE_UNIT()SI_UNIT($,.RADIAN.));
#514=(LENGTH_UNIT()NAMED_UNIT(*)SI_UNIT(.MILLI.,.METRE.));
#515=CONSTRUCTIVE_GEOMETRY_REPRESENTATION('supplemental geometry',(#282,#283),#507);
#516=CONSTRUCTIVE_GEOMETRY_REPRESENTATION_RELATIONSHIP('supplemental geometry','contains PCS and MCS coordinate systems',
     #24,#515);
ENDSEC;
END-ISO-10303-21;
