ISO-10303-21;
HEADER;
FILE_DESCRIPTION(
/* description */ (''),
/* implementation_level */ '2;1');
FILE_NAME(
/* name */ 'VCGX220530.stp',
/* time_stamp */ '2017-03-21T10:54:47',
/* author */ ('Sandvik Coromant R&D'),
/* organization */ ('Sandvik Machining Solutions'),
/* preprocessor_version */ 'ST-DEVELOPER v15',
/* originating_system */ 'SIEMENS PLM Software NX v8.5.3.3(64 bits)',
/* authorization */ '');
FILE_SCHEMA(('AUTOMOTIVE_DESIGN'));
ENDSEC;
DATA;
#10=GEOMETRICALLY_BOUNDED_WIREFRAME_SHAPE_REPRESENTATION('IsoTurningInsert-None',
     (#25),#523);
#11=SHAPE_REPRESENTATION_RELATIONSHIP('None','relationship between IsoTurningInsert-None and IsoTurningInsert-None',
     #24,#13);
#12=SHAPE_REPRESENTATION_RELATIONSHIP('None','relationship between IsoTurningInsert-None and IsoTurningInsert-None',
     #24,#10);
#13=ADVANCED_BREP_SHAPE_REPRESENTATION('IsoTurningInsert-None',(#31),#523);
#14=SHAPE_DEFINITION_REPRESENTATION(#15,#24);
#15=PRODUCT_DEFINITION_SHAPE('','',#16);
#16=PRODUCT_DEFINITION(' ','',#18,#17);
#17=PRODUCT_DEFINITION_CONTEXT('part definition',#23,'design');
#18=PRODUCT_DEFINITION_FORMATION_WITH_SPECIFIED_SOURCE(' ',' ',#20,.NOT_KNOWN.);
#19=PRODUCT_RELATED_PRODUCT_CATEGORY('part','',(#20));
#20=PRODUCT('IsoTurningInsert','IsoTurningInsert',' ',(#21));
#21=PRODUCT_CONTEXT(' ',#23,'mechanical');
#22=APPLICATION_PROTOCOL_DEFINITION('international standard','automotive_design',
     2010,#23);
#23=APPLICATION_CONTEXT('core data for automotive mechanical design processes');
#24=SHAPE_REPRESENTATION('IsoTurningInsert-None',(#281),#523);
#25=GEOMETRIC_CURVE_SET('geometric curve set',(#261));
#26=SURFACE_STYLE_USAGE(.BOTH.,#27);
#27=SURFACE_SIDE_STYLE('',(#28));
#28=SURFACE_STYLE_FILL_AREA(#29);
#29=FILL_AREA_STYLE('',(#30));
#30=FILL_AREA_STYLE_COLOUR('',#280);
#31=MANIFOLD_SOLID_BREP('CUT',#32);
#32=CLOSED_SHELL('',(#49,#50,#51,#52,#53,#54,#55,#56,#57,#58,#59,#60,#61,#62));
#33=CYLINDRICAL_SURFACE('',#309,2.74999999999999);
#34=TOROIDAL_SURFACE('',#308,7.75,5.0);
#35=TOROIDAL_SURFACE('',#310,3.70444817488859,0.3);
#36=CONICAL_SURFACE('',#300,3.0,7.0);
#37=CONICAL_SURFACE('',#301,3.0,7.0);
#38=CONICAL_SURFACE('',#302,3.0,7.0);
#39=CONICAL_SURFACE('',#303,3.0,7.0);
#40=CONICAL_SURFACE('',#305,3.99999999997937,2.30000000053745);
#41=FACE_OUTER_BOUND('',#115,.T.);
#42=FACE_OUTER_BOUND('',#116,.T.);
#43=FACE_OUTER_BOUND('',#117,.T.);
#44=FACE_OUTER_BOUND('',#118,.T.);
#45=FACE_OUTER_BOUND('',#121,.T.);
#46=FACE_OUTER_BOUND('',#122,.T.);
#47=FACE_OUTER_BOUND('',#123,.T.);
#48=FACE_OUTER_BOUND('',#124,.T.);
#49=ADVANCED_FACE('',(#101,#102),#63,.F.);
#50=ADVANCED_FACE('',(#41),#64,.F.);
#51=ADVANCED_FACE('',(#42),#65,.F.);
#52=ADVANCED_FACE('',(#43),#66,.F.);
#53=ADVANCED_FACE('',(#44),#67,.F.);
#54=ADVANCED_FACE('',(#103,#104),#68,.T.);
#55=ADVANCED_FACE('',(#45),#36,.T.);
#56=ADVANCED_FACE('',(#46),#37,.T.);
#57=ADVANCED_FACE('',(#47),#38,.T.);
#58=ADVANCED_FACE('',(#48),#39,.T.);
#59=ADVANCED_FACE('',(#105,#106),#40,.F.);
#60=ADVANCED_FACE('',(#107,#108),#34,.T.);
#61=ADVANCED_FACE('',(#109,#110),#33,.F.);
#62=ADVANCED_FACE('',(#111,#112),#35,.F.);
#63=PLANE('',#289);
#64=PLANE('',#290);
#65=PLANE('',#291);
#66=PLANE('',#292);
#67=PLANE('',#293);
#68=PLANE('',#299);
#69=LINE('',#460,#85);
#70=LINE('',#465,#86);
#71=LINE('',#469,#87);
#72=LINE('',#473,#88);
#73=LINE('',#477,#89);
#74=LINE('',#480,#90);
#75=LINE('',#481,#91);
#76=LINE('',#483,#92);
#77=LINE('',#485,#93);
#78=LINE('',#487,#94);
#79=LINE('',#489,#95);
#80=LINE('',#491,#96);
#81=LINE('',#493,#97);
#82=LINE('',#495,#98);
#83=LINE('',#497,#99);
#84=LINE('',#499,#100);
#85=VECTOR('',#319,1.0);
#86=VECTOR('',#322,1.0);
#87=VECTOR('',#325,1.0);
#88=VECTOR('',#328,1.0);
#89=VECTOR('',#333,1.0);
#90=VECTOR('',#334,1.0);
#91=VECTOR('',#335,1.0);
#92=VECTOR('',#338,1.0);
#93=VECTOR('',#339,1.0);
#94=VECTOR('',#340,1.0);
#95=VECTOR('',#343,1.0);
#96=VECTOR('',#344,1.0);
#97=VECTOR('',#345,1.0);
#98=VECTOR('',#348,1.0);
#99=VECTOR('',#349,1.0);
#100=VECTOR('',#350,1.0);
#101=FACE_BOUND('',#113,.T.);
#102=FACE_BOUND('',#114,.T.);
#103=FACE_BOUND('',#119,.T.);
#104=FACE_BOUND('',#120,.T.);
#105=FACE_BOUND('',#125,.T.);
#106=FACE_BOUND('',#126,.T.);
#107=FACE_BOUND('',#127,.T.);
#108=FACE_BOUND('',#128,.T.);
#109=FACE_BOUND('',#129,.T.);
#110=FACE_BOUND('',#130,.T.);
#111=FACE_BOUND('',#131,.T.);
#112=FACE_BOUND('',#132,.T.);
#113=EDGE_LOOP('',(#133));
#114=EDGE_LOOP('',(#134,#135,#136,#137,#138,#139,#140,#141));
#115=EDGE_LOOP('',(#142,#143,#144,#145));
#116=EDGE_LOOP('',(#146,#147,#148,#149));
#117=EDGE_LOOP('',(#150,#151,#152,#153));
#118=EDGE_LOOP('',(#154,#155,#156,#157));
#119=EDGE_LOOP('',(#158));
#120=EDGE_LOOP('',(#159,#160,#161,#162,#163,#164,#165,#166));
#121=EDGE_LOOP('',(#167,#168,#169,#170));
#122=EDGE_LOOP('',(#171,#172,#173,#174));
#123=EDGE_LOOP('',(#175,#176,#177,#178));
#124=EDGE_LOOP('',(#179,#180,#181,#182));
#125=EDGE_LOOP('',(#183));
#126=EDGE_LOOP('',(#184));
#127=EDGE_LOOP('',(#185));
#128=EDGE_LOOP('',(#186));
#129=EDGE_LOOP('',(#187));
#130=EDGE_LOOP('',(#188));
#131=EDGE_LOOP('',(#189));
#132=EDGE_LOOP('',(#190));
#133=ORIENTED_EDGE('',*,*,#212,.T.);
#134=ORIENTED_EDGE('',*,*,#213,.T.);
#135=ORIENTED_EDGE('',*,*,#214,.T.);
#136=ORIENTED_EDGE('',*,*,#215,.T.);
#137=ORIENTED_EDGE('',*,*,#216,.T.);
#138=ORIENTED_EDGE('',*,*,#217,.T.);
#139=ORIENTED_EDGE('',*,*,#218,.T.);
#140=ORIENTED_EDGE('',*,*,#219,.T.);
#141=ORIENTED_EDGE('',*,*,#220,.T.);
#142=ORIENTED_EDGE('',*,*,#221,.F.);
#143=ORIENTED_EDGE('',*,*,#222,.T.);
#144=ORIENTED_EDGE('',*,*,#213,.F.);
#145=ORIENTED_EDGE('',*,*,#223,.T.);
#146=ORIENTED_EDGE('',*,*,#219,.F.);
#147=ORIENTED_EDGE('',*,*,#224,.T.);
#148=ORIENTED_EDGE('',*,*,#225,.F.);
#149=ORIENTED_EDGE('',*,*,#226,.T.);
#150=ORIENTED_EDGE('',*,*,#217,.F.);
#151=ORIENTED_EDGE('',*,*,#227,.T.);
#152=ORIENTED_EDGE('',*,*,#228,.F.);
#153=ORIENTED_EDGE('',*,*,#229,.T.);
#154=ORIENTED_EDGE('',*,*,#215,.F.);
#155=ORIENTED_EDGE('',*,*,#230,.T.);
#156=ORIENTED_EDGE('',*,*,#231,.F.);
#157=ORIENTED_EDGE('',*,*,#232,.T.);
#158=ORIENTED_EDGE('',*,*,#233,.F.);
#159=ORIENTED_EDGE('',*,*,#231,.T.);
#160=ORIENTED_EDGE('',*,*,#234,.T.);
#161=ORIENTED_EDGE('',*,*,#221,.T.);
#162=ORIENTED_EDGE('',*,*,#235,.T.);
#163=ORIENTED_EDGE('',*,*,#225,.T.);
#164=ORIENTED_EDGE('',*,*,#236,.T.);
#165=ORIENTED_EDGE('',*,*,#228,.T.);
#166=ORIENTED_EDGE('',*,*,#237,.T.);
#167=ORIENTED_EDGE('',*,*,#214,.F.);
#168=ORIENTED_EDGE('',*,*,#222,.F.);
#169=ORIENTED_EDGE('',*,*,#234,.F.);
#170=ORIENTED_EDGE('',*,*,#230,.F.);
#171=ORIENTED_EDGE('',*,*,#216,.F.);
#172=ORIENTED_EDGE('',*,*,#232,.F.);
#173=ORIENTED_EDGE('',*,*,#237,.F.);
#174=ORIENTED_EDGE('',*,*,#227,.F.);
#175=ORIENTED_EDGE('',*,*,#218,.F.);
#176=ORIENTED_EDGE('',*,*,#229,.F.);
#177=ORIENTED_EDGE('',*,*,#236,.F.);
#178=ORIENTED_EDGE('',*,*,#224,.F.);
#179=ORIENTED_EDGE('',*,*,#220,.F.);
#180=ORIENTED_EDGE('',*,*,#226,.F.);
#181=ORIENTED_EDGE('',*,*,#235,.F.);
#182=ORIENTED_EDGE('',*,*,#223,.F.);
#183=ORIENTED_EDGE('',*,*,#238,.T.);
#184=ORIENTED_EDGE('',*,*,#233,.T.);
#185=ORIENTED_EDGE('',*,*,#239,.T.);
#186=ORIENTED_EDGE('',*,*,#240,.T.);
#187=ORIENTED_EDGE('',*,*,#240,.F.);
#188=ORIENTED_EDGE('',*,*,#212,.F.);
#189=ORIENTED_EDGE('',*,*,#239,.F.);
#190=ORIENTED_EDGE('',*,*,#238,.F.);
#191=VERTEX_POINT('',#459);
#192=VERTEX_POINT('',#461);
#193=VERTEX_POINT('',#462);
#194=VERTEX_POINT('',#464);
#195=VERTEX_POINT('',#466);
#196=VERTEX_POINT('',#468);
#197=VERTEX_POINT('',#470);
#198=VERTEX_POINT('',#472);
#199=VERTEX_POINT('',#474);
#200=VERTEX_POINT('',#478);
#201=VERTEX_POINT('',#479);
#202=VERTEX_POINT('',#484);
#203=VERTEX_POINT('',#486);
#204=VERTEX_POINT('',#490);
#205=VERTEX_POINT('',#492);
#206=VERTEX_POINT('',#496);
#207=VERTEX_POINT('',#498);
#208=VERTEX_POINT('',#502);
#209=VERTEX_POINT('',#513);
#210=VERTEX_POINT('',#516);
#211=VERTEX_POINT('',#518);
#212=EDGE_CURVE('',#191,#191,#241,.T.);
#213=EDGE_CURVE('',#192,#193,#69,.T.);
#214=EDGE_CURVE('',#193,#194,#242,.T.);
#215=EDGE_CURVE('',#194,#195,#70,.T.);
#216=EDGE_CURVE('',#195,#196,#243,.T.);
#217=EDGE_CURVE('',#196,#197,#71,.T.);
#218=EDGE_CURVE('',#197,#198,#244,.T.);
#219=EDGE_CURVE('',#198,#199,#72,.T.);
#220=EDGE_CURVE('',#199,#192,#245,.T.);
#221=EDGE_CURVE('',#200,#201,#73,.T.);
#222=EDGE_CURVE('',#200,#193,#74,.T.);
#223=EDGE_CURVE('',#192,#201,#75,.T.);
#224=EDGE_CURVE('',#198,#202,#76,.T.);
#225=EDGE_CURVE('',#203,#202,#77,.T.);
#226=EDGE_CURVE('',#203,#199,#78,.T.);
#227=EDGE_CURVE('',#196,#204,#79,.T.);
#228=EDGE_CURVE('',#205,#204,#80,.T.);
#229=EDGE_CURVE('',#205,#197,#81,.T.);
#230=EDGE_CURVE('',#194,#206,#82,.T.);
#231=EDGE_CURVE('',#207,#206,#83,.T.);
#232=EDGE_CURVE('',#207,#195,#84,.T.);
#233=EDGE_CURVE('',#208,#208,#246,.T.);
#234=EDGE_CURVE('',#206,#200,#247,.T.);
#235=EDGE_CURVE('',#201,#203,#248,.T.);
#236=EDGE_CURVE('',#202,#205,#249,.T.);
#237=EDGE_CURVE('',#204,#207,#250,.T.);
#238=EDGE_CURVE('',#209,#209,#251,.T.);
#239=EDGE_CURVE('',#210,#210,#252,.T.);
#240=EDGE_CURVE('',#211,#211,#253,.T.);
#241=CIRCLE('',#284,2.74999999999999);
#242=CIRCLE('',#285,2.31777828348324);
#243=CIRCLE('',#286,2.31777828348324);
#244=CIRCLE('',#287,2.31777828348324);
#245=CIRCLE('',#288,2.31777828348324);
#246=CIRCLE('',#294,4.08418405623524);
#247=CIRCLE('',#295,3.0);
#248=CIRCLE('',#296,3.0);
#249=CIRCLE('',#297,3.0);
#250=CIRCLE('',#298,3.0);
#251=CIRCLE('',#304,4.00420649342281);
#252=CIRCLE('',#306,3.93344167442319);
#253=CIRCLE('',#307,2.74999999999999);
#254=CURVE_STYLE('',#258,POSITIVE_LENGTH_MEASURE(0.18),#257);
#255=CURVE_STYLE('',#259,POSITIVE_LENGTH_MEASURE(0.18),#279);
#256=CURVE_STYLE('',#260,POSITIVE_LENGTH_MEASURE(0.18),#279);
#257=DRAUGHTING_PRE_DEFINED_COLOUR('blue');
#258=DRAUGHTING_PRE_DEFINED_CURVE_FONT('continuous');
#259=DRAUGHTING_PRE_DEFINED_CURVE_FONT('continuous');
#260=DRAUGHTING_PRE_DEFINED_CURVE_FONT('continuous');
#261=B_SPLINE_CURVE_WITH_KNOTS('CUTTING EDGE LINE',5,(#390,#391,#392,#393,#394,#395,
     #396,#397,#398,#399,#400,#401,#402,#403,#404,#405,#406,#407,#408,#409,#410,
     #411,#412,#413,#414,#415,#416,#417,#418,#419,#420,#421,#422,#423,#424,#425,
     #426,#427,#428,#429,#430,#431,#432,#433,#434,#435,#436,#437,#438,#439,#440,
     #441,#442,#443,#444,#445,#446,#447,#448,#449,#450,#451,#452,#453,#454,#455),
     .UNSPECIFIED.,.T.,.F.,(2,4,1,4,4,1,1,1,1,1,1,1,1,1,1,1,1,1,1,1,4,4,1,4,4,1,
     1,1,1,1,1,1,1,1,1,1,1,1,1,1,4,4,1,1),(-0.178136243,0.0,0.0139735083,0.0279470166,
     0.2060832595,0.21331954059375,0.2205558216875,0.22779210278125,0.235028383875063,
     0.24226466496875,0.2495009460625,0.25673722715625,0.263973508250166,0.27120978934375,
     0.2784460704375,0.28568235153125,0.292918632625,0.30015491371875,0.3073911948125,
     0.31462747590625,0.321863757,0.5,0.5139735083,0.5279470166,0.7060832595,0.71331954059375,
     0.7205558216875,0.72779210278125,0.735028383875026,0.74226466496875,0.7495009460625,
     0.75673722715625,0.763973508250166,0.77120978934375,0.7784460704375,0.78568235153125,
     0.792918632625,0.80015491371875,0.8073911948125,0.81462747590625,0.821863757,
     1.0,1.0139735083,1.0279470166),.UNSPECIFIED.);
#262=PRESENTATION_LAYER_ASSIGNMENT('1','Layer 1',(#261,#282,#283,#31));
#265=STYLED_ITEM('',(#271),#261);
#266=STYLED_ITEM('',(#272),#282);
#267=STYLED_ITEM('',(#273),#283);
#268=STYLED_ITEM('',(#274),#31);
#269=PRESENTATION_STYLE_ASSIGNMENT((#275));
#270=PRESENTATION_STYLE_ASSIGNMENT((#276));
#271=PRESENTATION_STYLE_ASSIGNMENT((#254));
#272=PRESENTATION_STYLE_ASSIGNMENT((#255));
#273=PRESENTATION_STYLE_ASSIGNMENT((#256));
#274=PRESENTATION_STYLE_ASSIGNMENT((#26));
#275=POINT_STYLE('',#277,POSITIVE_LENGTH_MEASURE(3.0),#279);
#276=POINT_STYLE('',#278,POSITIVE_LENGTH_MEASURE(3.0),#279);
#277=PRE_DEFINED_POINT_MARKER_SYMBOL('plus');
#278=PRE_DEFINED_POINT_MARKER_SYMBOL('plus');
#279=COLOUR_RGB('Medium Maroon',0.6,0.4,0.4);
#280=COLOUR_RGB('IsoInsertColor',0.8,0.8,0.8);
#281=AXIS2_PLACEMENT_3D('',#387,#311,#312);
#282=AXIS2_PLACEMENT_3D('PCS',#456,#313,#314);
#283=AXIS2_PLACEMENT_3D('MCS',#457,#315,#316);
#284=AXIS2_PLACEMENT_3D('',#458,#317,#318);
#285=AXIS2_PLACEMENT_3D('',#463,#320,#321);
#286=AXIS2_PLACEMENT_3D('',#467,#323,#324);
#287=AXIS2_PLACEMENT_3D('',#471,#326,#327);
#288=AXIS2_PLACEMENT_3D('',#475,#329,#330);
#289=AXIS2_PLACEMENT_3D('',#476,#331,#332);
#290=AXIS2_PLACEMENT_3D('',#482,#336,#337);
#291=AXIS2_PLACEMENT_3D('',#488,#341,#342);
#292=AXIS2_PLACEMENT_3D('',#494,#346,#347);
#293=AXIS2_PLACEMENT_3D('',#500,#351,#352);
#294=AXIS2_PLACEMENT_3D('',#501,#353,#354);
#295=AXIS2_PLACEMENT_3D('',#503,#355,#356);
#296=AXIS2_PLACEMENT_3D('',#504,#357,#358);
#297=AXIS2_PLACEMENT_3D('',#505,#359,#360);
#298=AXIS2_PLACEMENT_3D('',#506,#361,#362);
#299=AXIS2_PLACEMENT_3D('',#507,#363,#364);
#300=AXIS2_PLACEMENT_3D('',#508,#365,#366);
#301=AXIS2_PLACEMENT_3D('',#509,#367,#368);
#302=AXIS2_PLACEMENT_3D('',#510,#369,#370);
#303=AXIS2_PLACEMENT_3D('',#511,#371,#372);
#304=AXIS2_PLACEMENT_3D('',#512,#373,#374);
#305=AXIS2_PLACEMENT_3D('',#514,#375,#376);
#306=AXIS2_PLACEMENT_3D('',#515,#377,#378);
#307=AXIS2_PLACEMENT_3D('',#517,#379,#380);
#308=AXIS2_PLACEMENT_3D('',#519,#381,#382);
#309=AXIS2_PLACEMENT_3D('',#520,#383,#384);
#310=AXIS2_PLACEMENT_3D('',#521,#385,#386);
#311=DIRECTION('',(0.0,0.0,1.0));
#312=DIRECTION('',(1.0,0.0,0.0));
#313=DIRECTION('',(0.0,0.0,1.0));
#314=DIRECTION('',(1.0,0.0,0.0));
#315=DIRECTION('',(0.0,0.0,1.0));
#316=DIRECTION('',(1.0,0.0,0.0));
#317=DIRECTION('',(0.0,0.0,1.0));
#318=DIRECTION('',(-0.953716950748227,-0.300705799504273,0.0));
#319=DIRECTION('',(1.0,8.88178419700125E-16,0.0));
#320=DIRECTION('',(0.0,0.0,-1.0));
#321=DIRECTION('',(-0.953716950748227,-0.300705799504273,0.0));
#322=DIRECTION('',(-0.819152044288991,-0.573576436351047,0.0));
#323=DIRECTION('',(0.0,0.0,-1.0));
#324=DIRECTION('',(-0.953716950748226,-0.300705799504273,0.0));
#325=DIRECTION('',(-1.0,5.55111512312578E-17,0.0));
#326=DIRECTION('',(0.0,0.0,-1.0));
#327=DIRECTION('',(-0.953716950748227,-0.300705799504273,0.0));
#328=DIRECTION('',(0.819152044288992,0.573576436351046,0.0));
#329=DIRECTION('',(0.0,0.0,-1.0));
#330=DIRECTION('',(-0.953716950748227,-0.300705799504273,0.0));
#331=DIRECTION('',(0.0,0.0,1.0));
#332=DIRECTION('',(-0.953716950748227,-0.300705799504273,0.0));
#333=DIRECTION('',(-1.0,-8.88178419700125E-16,-5.92762165459882E-17));
#334=DIRECTION('',(1.73472347597681E-16,-0.121869343405148,-0.992546151641322));
#335=DIRECTION('',(-1.73472347597681E-16,0.121869343405148,0.992546151641322));
#336=DIRECTION('',(8.88178419700125E-16,-0.992546151641322,0.121869343405148));
#337=DIRECTION('',(1.0,8.88178419700125E-16,0.0));
#338=DIRECTION('',(-0.0699013836907664,0.0998295217864841,0.992546151641322));
#339=DIRECTION('',(-0.819152044288992,-0.573576436351046,2.08084218499979E-16));
#340=DIRECTION('',(0.0699013836907664,-0.0998295217864841,-0.992546151641322));
#341=DIRECTION('',(0.569301084572375,-0.813046209168161,0.121869343405148));
#342=DIRECTION('',(0.819152044288992,0.573576436351046,0.0));
#343=DIRECTION('',(-7.63278329429795E-17,-0.121869343405147,0.992546151641322));
#344=DIRECTION('',(1.0,-5.55111512312578E-17,5.92762165459886E-17));
#345=DIRECTION('',(7.63278329429795E-17,0.121869343405147,-0.992546151641322));
#346=DIRECTION('',(1.11022302462516E-16,0.992546151641322,0.121869343405147));
#347=DIRECTION('',(-1.0,5.55111512312578E-17,0.0));
#348=DIRECTION('',(0.0699013836907664,-0.0998295217864831,0.992546151641322));
#349=DIRECTION('',(0.819152044288991,0.573576436351047,-2.0808421849998E-16));
#350=DIRECTION('',(-0.0699013836907664,0.0998295217864831,-0.992546151641322));
#351=DIRECTION('',(-0.569301084572376,0.81304620916816,0.121869343405147));
#352=DIRECTION('',(-0.819152044288991,-0.573576436351047,0.0));
#353=DIRECTION('',(0.0,0.0,1.0));
#354=DIRECTION('',(-0.953716950748227,-0.300705799504273,0.0));
#355=DIRECTION('',(-6.01698676553747E-17,4.54184586103904E-16,1.0));
#356=DIRECTION('',(-0.300705799504273,0.953716950748227,-4.51256966695236E-16));
#357=DIRECTION('',(-6.01698676553747E-17,4.54184586103904E-16,1.0));
#358=DIRECTION('',(-0.300705799504273,0.953716950748227,-4.51256966695236E-16));
#359=DIRECTION('',(-6.01698676553747E-17,4.54184586103904E-16,1.0));
#360=DIRECTION('',(-0.300705799504273,0.953716950748227,-4.51256966695236E-16));
#361=DIRECTION('',(-6.01698676553747E-17,4.54184586103904E-16,1.0));
#362=DIRECTION('',(-0.300705799504273,0.953716950748227,-4.51256966695236E-16));
#363=DIRECTION('',(-6.01698676553747E-17,4.54184586103904E-16,1.0));
#364=DIRECTION('',(-0.300705799504273,0.953716950748227,-4.51256966695236E-16));
#365=DIRECTION('',(-6.01698676553747E-17,4.54184586103904E-16,1.0));
#366=DIRECTION('',(-0.300705799504273,0.953716950748227,-8.55056095426402E-16));
#367=DIRECTION('',(-6.01698676553747E-17,4.54184586103904E-16,1.0));
#368=DIRECTION('',(-0.300705799504273,0.953716950748227,-8.75742936444783E-16));
#369=DIRECTION('',(-6.01698676553747E-17,4.54184586103904E-16,1.0));
#370=DIRECTION('',(-0.300705799504273,0.953716950748227,-8.68847322771989E-16));
#371=DIRECTION('',(-6.01698676553747E-17,4.54184586103904E-16,1.0));
#372=DIRECTION('',(-0.300705799504273,0.953716950748227,-8.48160481753609E-16));
#373=DIRECTION('',(0.0,0.0,-1.0));
#374=DIRECTION('',(0.953716950748227,0.300705799504273,0.0));
#375=DIRECTION('',(0.0,0.0,1.0));
#376=DIRECTION('',(-0.953716950748227,-0.300705799504273,-3.14231976148301E-16));
#377=DIRECTION('',(0.0,0.0,1.0));
#378=DIRECTION('',(0.953716950748227,0.300705799504273,0.0));
#379=DIRECTION('',(0.0,0.0,-1.0));
#380=DIRECTION('',(-0.953716950748227,-0.300705799504273,0.0));
#381=DIRECTION('',(0.0,0.0,1.0));
#382=DIRECTION('',(-0.953716950748227,-0.300705799504273,0.0));
#383=DIRECTION('',(0.0,0.0,1.0));
#384=DIRECTION('',(-0.953716950748227,-0.300705799504273,0.0));
#385=DIRECTION('',(0.0,0.0,-1.0));
#386=DIRECTION('',(0.953716950748227,0.300705799504273,0.0));
#387=CARTESIAN_POINT('',(0.0,0.0,0.0));
#390=CARTESIAN_POINT('',(18.8596592316187,2.66453525910038E-15,1.77493703674728E-31));
#391=CARTESIAN_POINT('',(21.3763014174535,2.66453525910038E-15,1.37340981520734E-15));
#392=CARTESIAN_POINT('',(21.7371483768587,0.0271271933566535,1.38280117591174E-15));
#393=CARTESIAN_POINT('',(22.1072596176593,0.109466601033633,1.37193856966017E-15));
#394=CARTESIAN_POINT('',(22.4576649412021,0.254305193461391,1.25339190420198E-15));
#395=CARTESIAN_POINT('',(22.768812984568,0.439057210611177,8.86236582361598E-16));
#396=CARTESIAN_POINT('',(24.8303255758385,1.88254386713303,1.21967475137114E-16));
#397=CARTESIAN_POINT('',(26.744043904873,3.22254386713303,-3.94430452610506E-32));
#398=CARTESIAN_POINT('',(28.6577622339074,4.56254386713302,2.36658271566304E-31));
#399=CARTESIAN_POINT('',(30.5714805629418,5.90254386713302,1.21967475137114E-16));
#400=CARTESIAN_POINT('',(32.557854768066,7.29341805926627,6.52086533805417E-16));
#401=CARTESIAN_POINT('',(32.6994062201628,7.40053670860055,7.20723999954134E-16));
#402=CARTESIAN_POINT('',(32.9103594576637,7.58543437240159,7.86174577240453E-16));
#403=CARTESIAN_POINT('',(33.1619548387013,7.86539789155524,7.98449711022878E-16));
#404=CARTESIAN_POINT('',(33.4279718569373,8.27611101282408,7.24518075080601E-16));
#405=CARTESIAN_POINT('',(33.6243443613423,8.7288685754576,5.81612150165004E-16));
#406=CARTESIAN_POINT('',(33.744284302402,9.20916571039352,3.94074807727502E-16));
#407=CARTESIAN_POINT('',(33.7838537389284,9.69387381554599,1.83734414050672E-16));
#408=CARTESIAN_POINT('',(33.7455089919005,10.1703119379107,-3.40994994008449E-17));
#409=CARTESIAN_POINT('',(33.6408041125839,10.6069047936114,-2.38825823567454E-16));
#410=CARTESIAN_POINT('',(33.4761539542104,11.0245969754364,-4.38612898962547E-16));
#411=CARTESIAN_POINT('',(33.2342904517581,11.4368658806987,-6.39437597874481E-16));
#412=CARTESIAN_POINT('',(32.9238599193146,11.8112194195244,-8.19849834817836E-16));
#413=CARTESIAN_POINT('',(32.5501237523575,12.1358610755035,-9.63653812196237E-16));
#414=CARTESIAN_POINT('',(32.1295737446255,12.3941037172281,-1.04937055737881E-15));
#415=CARTESIAN_POINT('',(31.6760899918618,12.577959116803,-1.05224244120257E-15));
#416=CARTESIAN_POINT('',(31.3094146435274,12.662982623786,-9.7406977209012E-16));
#417=CARTESIAN_POINT('',(31.0305589246867,12.6934441168704,-8.51930510341953E-16));
#418=CARTESIAN_POINT('',(30.8531660301776,12.7,-7.44067713578635E-16));
#419=CARTESIAN_POINT('',(28.4282508767908,12.7,-1.36255375831171E-16));
#420=CARTESIAN_POINT('',(26.0920321706586,12.7,1.97215226305253E-31));
#421=CARTESIAN_POINT('',(23.7558134645263,12.7,4.73316543132607E-31));
#422=CARTESIAN_POINT('',(21.419594758394,12.7,-1.36255375831171E-16));
#423=CARTESIAN_POINT('',(18.9029525725592,12.7,-9.58337373443412E-16));
#424=CARTESIAN_POINT('',(18.5421056131541,12.6728728066433,-1.30506807886355E-15));
#425=CARTESIAN_POINT('',(18.1719943723534,12.5905333989664,-1.37670334928347E-15));
#426=CARTESIAN_POINT('',(17.8215890488106,12.4456948065386,-1.25339190420198E-15));
#427=CARTESIAN_POINT('',(17.5104410054447,12.2609427893888,-8.86236582361598E-16));
#428=CARTESIAN_POINT('',(15.4489284141742,10.817456132867,-1.21967475137114E-16));
#429=CARTESIAN_POINT('',(13.5352100851398,9.47745613286697,5.32481111024183E-31));
#430=CARTESIAN_POINT('',(11.6214917561054,8.13745613286697,-9.46633086265214E-31));
#431=CARTESIAN_POINT('',(9.70777342707094,6.79745613286698,-1.21967475137115E-16));
#432=CARTESIAN_POINT('',(7.7213992219468,5.40658194073373,-6.52086533805418E-16));
#433=CARTESIAN_POINT('',(7.57984776984999,5.29946329139945,-7.20723999954134E-16));
#434=CARTESIAN_POINT('',(7.36889453234907,5.11456562759841,-7.86174577240454E-16));
#435=CARTESIAN_POINT('',(7.11729915131181,4.83460210844511,-7.98449711022861E-16));
#436=CARTESIAN_POINT('',(6.85128213307573,4.42388898717635,-7.24518075080704E-16));
#437=CARTESIAN_POINT('',(6.65490962867064,3.97113142454288,-5.81612150165172E-16));
#438=CARTESIAN_POINT('',(6.53496968761079,3.49083428960698,-3.9407480772772E-16));
#439=CARTESIAN_POINT('',(6.49540025108434,3.0061261844545,-1.83734414050891E-16));
#440=CARTESIAN_POINT('',(6.53374499811229,2.52968806208926,3.40994994008394E-17));
#441=CARTESIAN_POINT('',(6.63844987742886,2.09309520638861,2.38825823567454E-16));
#442=CARTESIAN_POINT('',(6.80310003580235,1.67540302456365,4.38612898962545E-16));
#443=CARTESIAN_POINT('',(7.04496353825467,1.26313411930129,6.3943759787448E-16));
#444=CARTESIAN_POINT('',(7.35539407069815,0.888780580475591,8.19849834817835E-16));
#445=CARTESIAN_POINT('',(7.72913023765523,0.564138924496544,9.63653812196237E-16));
#446=CARTESIAN_POINT('',(8.14968024538723,0.305896282771884,1.04937055737881E-15));
#447=CARTESIAN_POINT('',(8.60316399815092,0.122040883197026,1.05224244120257E-15));
#448=CARTESIAN_POINT('',(8.96983934648532,0.0370173762140293,9.74069772090121E-16));
#449=CARTESIAN_POINT('',(9.24869506532606,0.00655588312965438,8.51930510341953E-16));
#450=CARTESIAN_POINT('',(9.42608795983513,6.21724893790088E-15,7.44067713578634E-16));
#451=CARTESIAN_POINT('',(11.8510031132219,4.44089209850063E-15,1.36255375831171E-16));
#452=CARTESIAN_POINT('',(14.1872218193542,4.44089209850063E-15,1.97215226305253E-31));
#453=CARTESIAN_POINT('',(16.5234405254864,2.66453525910038E-15,2.56379794196829E-31));
#454=CARTESIAN_POINT('',(18.8596592316187,2.66453525910038E-15,1.77493703674728E-31));
#455=CARTESIAN_POINT('',(21.3763014174535,2.66453525910038E-15,1.37340981520734E-15));
#456=CARTESIAN_POINT('',(0.0,0.0,0.0));
#457=CARTESIAN_POINT('',(20.1396269950064,6.35,0.0));
#458=CARTESIAN_POINT('',(20.1396269950064,6.35,-5.55625));
#459=CARTESIAN_POINT('',(17.5169053804488,5.52305905136325,-5.55625));
#460=CARTESIAN_POINT('',(20.1396269950064,12.0177782834832,-5.55625));
#461=CARTESIAN_POINT('',(19.0833760522618,12.0177782834832,-5.55625));
#462=CARTESIAN_POINT('',(30.7644695829231,12.0177782834832,-5.55625));
#463=CARTESIAN_POINT('',(30.7644695829231,9.69999999999999,-5.55625));
#464=CARTESIAN_POINT('',(32.0938925910153,7.80138718087607,-5.55625));
#465=CARTESIAN_POINT('',(23.3905310648745,1.70722783250796,-5.55625));
#466=CARTESIAN_POINT('',(22.5253009458431,1.10138718087608,-5.55625));
#467=CARTESIAN_POINT('',(21.195877937751,3.00000000000001,-5.55625));
#468=CARTESIAN_POINT('',(21.195877937751,0.682221716516765,-5.55625));
#469=CARTESIAN_POINT('',(20.1396269950064,0.682221716516765,-5.55625));
#470=CARTESIAN_POINT('',(9.51478440708967,0.682221716516765,-5.55625));
#471=CARTESIAN_POINT('',(9.51478440708967,3.00000000000001,-5.55625));
#472=CARTESIAN_POINT('',(8.1853613989975,4.89861281912393,-5.55625));
#473=CARTESIAN_POINT('',(16.8887229251382,10.992772167492,-5.55625));
#474=CARTESIAN_POINT('',(17.7539530441696,11.5986128191239,-5.55625));
#475=CARTESIAN_POINT('',(19.0833760522618,9.69999999999998,-5.55625));
#476=CARTESIAN_POINT('',(19.8947478132899,5.87959146865531,-5.55625));
#477=CARTESIAN_POINT('',(20.1396269950064,12.7,-5.81748951963656E-15));
#478=CARTESIAN_POINT('',(30.7644695829231,12.7,-5.17819414726243E-15));
#479=CARTESIAN_POINT('',(19.0833760522618,12.7,-5.88104399907237E-15));
#480=CARTESIAN_POINT('',(30.7644695829231,12.7,-5.22225333652424E-15));
#481=CARTESIAN_POINT('',(19.0833760522618,12.7,-5.29493268193308E-15));
#482=CARTESIAN_POINT('',(20.1396269950064,12.7,-5.81748951963656E-15));
#483=CARTESIAN_POINT('',(7.79405509803652,5.45745613286699,-2.63416448576561E-15));
#484=CARTESIAN_POINT('',(7.79405509803652,5.45745613286699,-3.27086915817398E-15));
#485=CARTESIAN_POINT('',(16.4974166241773,11.5516154812351,-5.51506228827902E-15));
#486=CARTESIAN_POINT('',(17.3626467432087,12.157456132867,-5.73816499213179E-15));
#487=CARTESIAN_POINT('',(17.3626467432087,12.157456132867,-5.20487230906697E-15));
#488=CARTESIAN_POINT('',(16.4974166241772,11.5516154812351,-5.51506228827901E-15));
#489=CARTESIAN_POINT('',(21.195877937751,4.33680868994202E-15,9.59542282150012E-17));
#490=CARTESIAN_POINT('',(21.195877937751,4.33680868994202E-15,1.42092033188136E-17));
#491=CARTESIAN_POINT('',(20.1396269950064,4.33680868994202E-15,-4.93452761169929E-17));
#492=CARTESIAN_POINT('',(9.51478440708966,5.20417042793042E-15,-6.88640648491132E-16));
#493=CARTESIAN_POINT('',(9.51478440708966,5.20417042793042E-15,1.56486017246969E-16));
#494=CARTESIAN_POINT('',(20.1396269950064,4.33680868994202E-15,-4.93452761169937E-17));
#495=CARTESIAN_POINT('',(32.4851988919762,7.24254386713302,-2.69367859473692E-15));
#496=CARTESIAN_POINT('',(32.4851988919762,7.24254386713302,-2.59596563757958E-15));
#497=CARTESIAN_POINT('',(23.7818373658355,1.14838451876491,-3.51772507474541E-16));
#498=CARTESIAN_POINT('',(22.9166072468041,0.542543867133031,-1.28669803621759E-16));
#499=CARTESIAN_POINT('',(22.9166072468041,0.542543867133031,-2.85928853363437E-17));
#500=CARTESIAN_POINT('',(23.7818373658355,1.14838451876491,-3.51772507474539E-16));
#501=CARTESIAN_POINT('',(20.1396269950064,6.35,0.0));
#502=CARTESIAN_POINT('',(16.2444714305992,5.12186216804718,0.0));
#503=CARTESIAN_POINT('',(30.7644695829231,9.69999999999999,-3.81564038895071E-15));
#504=CARTESIAN_POINT('',(19.0833760522618,9.69999999999998,-4.51849024076065E-15));
#505=CARTESIAN_POINT('',(9.51478440708966,3.00000000000001,-2.05119440680284E-15));
#506=CARTESIAN_POINT('',(21.195877937751,3.00000000000001,-1.3483445549929E-15));
#507=CARTESIAN_POINT('',(20.1396269950064,6.35,-2.93341739787678E-15));
#508=CARTESIAN_POINT('',(30.7644695829231,9.69999999999999,-3.46944695195361E-15));
#509=CARTESIAN_POINT('',(21.195877937751,3.00000000000001,-8.67361737988404E-16));
#510=CARTESIAN_POINT('',(9.51478440708966,3.00000000000001,-1.73472347597681E-15));
#511=CARTESIAN_POINT('',(19.0833760522618,9.69999999999998,-4.33680868994202E-15));
#512=CARTESIAN_POINT('',(20.1396269950064,6.35,-1.99126745742952));
#513=CARTESIAN_POINT('',(23.9585066020798,7.55408811498491,-1.99126745742952));
#514=CARTESIAN_POINT('',(20.1396269950064,6.35,-2.0960000000234));
#515=CARTESIAN_POINT('',(20.1396269950064,6.35,-2.17303704527998));
#516=CARTESIAN_POINT('',(23.8910169946833,7.53280872351086,-2.17303704527998));
#517=CARTESIAN_POINT('',(20.1396269950064,6.35,-5.40318913883076));
#518=CARTESIAN_POINT('',(17.5169053804488,5.52305905136325,-5.40318913883076));
#519=CARTESIAN_POINT('',(20.1396269950064,6.35,-5.40318913883075));
#520=CARTESIAN_POINT('',(20.1396269950064,6.35,-33.3676978394524));
#521=CARTESIAN_POINT('',(20.1396269950064,6.35,-1.97922791966694));
#522=MECHANICAL_DESIGN_GEOMETRIC_PRESENTATION_REPRESENTATION('',(#265,#266,#267,
     #268),#523);
#523=(GEOMETRIC_REPRESENTATION_CONTEXT(3)GLOBAL_UNCERTAINTY_ASSIGNED_CONTEXT((#524))
     GLOBAL_UNIT_ASSIGNED_CONTEXT((#530,#526,#525))REPRESENTATION_CONTEXT('VCGX220530',
     'TOP_LEVEL_ASSEMBLY_PART'));
#524=UNCERTAINTY_MEASURE_WITH_UNIT(LENGTH_MEASURE(2.0E-5),#530,'DISTANCE_ACCURACY_VALUE',
     'Maximum Tolerance applied to model');
#525=(NAMED_UNIT(*)SI_UNIT($,.STERADIAN.)SOLID_ANGLE_UNIT());
#526=(CONVERSION_BASED_UNIT('DEGREE',#528)NAMED_UNIT(#527)PLANE_ANGLE_UNIT());
#527=DIMENSIONAL_EXPONENTS(0.0,0.0,0.0,0.0,0.0,0.0,0.0);
#528=PLANE_ANGLE_MEASURE_WITH_UNIT(PLANE_ANGLE_MEASURE(0.0174532925),#529);
#529=(NAMED_UNIT(*)PLANE_ANGLE_UNIT()SI_UNIT($,.RADIAN.));
#530=(LENGTH_UNIT()NAMED_UNIT(*)SI_UNIT(.MILLI.,.METRE.));
#531=CONSTRUCTIVE_GEOMETRY_REPRESENTATION('supplemental geometry',(#282,#283),#523);
#532=CONSTRUCTIVE_GEOMETRY_REPRESENTATION_RELATIONSHIP('supplemental geometry','contains PCS and MCS coordinate systems',
     #24,#531);
ENDSEC;
END-ISO-10303-21;
