ISO-10303-21;
HEADER;
FILE_DESCRIPTION(
/* description */ (''),
/* implementation_level */ '2;1');
FILE_NAME(
/* name */ 'VBMT160408.stp',
/* time_stamp */ '2017-03-21T10:54:45',
/* author */ ('Sandvik Coromant R&D'),
/* organization */ ('Sandvik Machining Solutions'),
/* preprocessor_version */ 'ST-DEVELOPER v15',
/* originating_system */ 'SIEMENS PLM Software NX v8.5.3.3(64 bits)',
/* authorization */ '');
FILE_SCHEMA(('AUTOMOTIVE_DESIGN'));
ENDSEC;
DATA;
#10=GEOMETRICALLY_BOUNDED_WIREFRAME_SHAPE_REPRESENTATION('IsoTurningInsert-None',
     (#25),#523);
#11=SHAPE_REPRESENTATION_RELATIONSHIP('None','relationship between IsoTurningInsert-None and IsoTurningInsert-None',
     #24,#13);
#12=SHAPE_REPRESENTATION_RELATIONSHIP('None','relationship between IsoTurningInsert-None and IsoTurningInsert-None',
     #24,#10);
#13=ADVANCED_BREP_SHAPE_REPRESENTATION('IsoTurningInsert-None',(#31),#523);
#14=SHAPE_DEFINITION_REPRESENTATION(#15,#24);
#15=PRODUCT_DEFINITION_SHAPE('','',#16);
#16=PRODUCT_DEFINITION(' ','',#18,#17);
#17=PRODUCT_DEFINITION_CONTEXT('part definition',#23,'design');
#18=PRODUCT_DEFINITION_FORMATION_WITH_SPECIFIED_SOURCE(' ',' ',#20,.NOT_KNOWN.);
#19=PRODUCT_RELATED_PRODUCT_CATEGORY('part','',(#20));
#20=PRODUCT('IsoTurningInsert','IsoTurningInsert',' ',(#21));
#21=PRODUCT_CONTEXT(' ',#23,'mechanical');
#22=APPLICATION_PROTOCOL_DEFINITION('international standard','automotive_design',
     2010,#23);
#23=APPLICATION_CONTEXT('core data for automotive mechanical design processes');
#24=SHAPE_REPRESENTATION('IsoTurningInsert-None',(#281),#523);
#25=GEOMETRIC_CURVE_SET('geometric curve set',(#261));
#26=SURFACE_STYLE_USAGE(.BOTH.,#27);
#27=SURFACE_SIDE_STYLE('',(#28));
#28=SURFACE_STYLE_FILL_AREA(#29);
#29=FILL_AREA_STYLE('',(#30));
#30=FILL_AREA_STYLE_COLOUR('',#280);
#31=MANIFOLD_SOLID_BREP('CUT',#32);
#32=CLOSED_SHELL('',(#49,#50,#51,#52,#53,#54,#55,#56,#57,#58,#59,#60,#61,#62));
#33=CYLINDRICAL_SURFACE('',#309,2.2);
#34=TOROIDAL_SURFACE('',#308,6.2,4.0);
#35=TOROIDAL_SURFACE('',#310,2.51117873496443,0.5);
#36=CONICAL_SURFACE('',#300,0.793750000000005,5.0);
#37=CONICAL_SURFACE('',#301,0.793750000000005,5.0);
#38=CONICAL_SURFACE('',#302,0.793750000000005,5.0);
#39=CONICAL_SURFACE('',#303,0.793750000000005,5.0);
#40=CONICAL_SURFACE('',#305,2.99999999999613,4.00000000019628);
#41=FACE_OUTER_BOUND('',#115,.T.);
#42=FACE_OUTER_BOUND('',#116,.T.);
#43=FACE_OUTER_BOUND('',#117,.T.);
#44=FACE_OUTER_BOUND('',#118,.T.);
#45=FACE_OUTER_BOUND('',#121,.T.);
#46=FACE_OUTER_BOUND('',#122,.T.);
#47=FACE_OUTER_BOUND('',#123,.T.);
#48=FACE_OUTER_BOUND('',#124,.T.);
#49=ADVANCED_FACE('',(#101,#102),#63,.F.);
#50=ADVANCED_FACE('',(#41),#64,.F.);
#51=ADVANCED_FACE('',(#42),#65,.F.);
#52=ADVANCED_FACE('',(#43),#66,.F.);
#53=ADVANCED_FACE('',(#44),#67,.F.);
#54=ADVANCED_FACE('',(#103,#104),#68,.T.);
#55=ADVANCED_FACE('',(#45),#36,.T.);
#56=ADVANCED_FACE('',(#46),#37,.T.);
#57=ADVANCED_FACE('',(#47),#38,.T.);
#58=ADVANCED_FACE('',(#48),#39,.T.);
#59=ADVANCED_FACE('',(#105,#106),#40,.F.);
#60=ADVANCED_FACE('',(#107,#108),#34,.T.);
#61=ADVANCED_FACE('',(#109,#110),#33,.F.);
#62=ADVANCED_FACE('',(#111,#112),#35,.F.);
#63=PLANE('',#289);
#64=PLANE('',#290);
#65=PLANE('',#291);
#66=PLANE('',#292);
#67=PLANE('',#293);
#68=PLANE('',#299);
#69=LINE('',#460,#85);
#70=LINE('',#465,#86);
#71=LINE('',#469,#87);
#72=LINE('',#473,#88);
#73=LINE('',#477,#89);
#74=LINE('',#480,#90);
#75=LINE('',#481,#91);
#76=LINE('',#483,#92);
#77=LINE('',#485,#93);
#78=LINE('',#487,#94);
#79=LINE('',#489,#95);
#80=LINE('',#491,#96);
#81=LINE('',#493,#97);
#82=LINE('',#495,#98);
#83=LINE('',#497,#99);
#84=LINE('',#499,#100);
#85=VECTOR('',#319,1.0);
#86=VECTOR('',#322,1.0);
#87=VECTOR('',#325,1.0);
#88=VECTOR('',#328,1.0);
#89=VECTOR('',#333,1.0);
#90=VECTOR('',#334,1.0);
#91=VECTOR('',#335,1.0);
#92=VECTOR('',#338,1.0);
#93=VECTOR('',#339,1.0);
#94=VECTOR('',#340,1.0);
#95=VECTOR('',#343,1.0);
#96=VECTOR('',#344,1.0);
#97=VECTOR('',#345,1.0);
#98=VECTOR('',#348,1.0);
#99=VECTOR('',#349,1.0);
#100=VECTOR('',#350,1.0);
#101=FACE_BOUND('',#113,.T.);
#102=FACE_BOUND('',#114,.T.);
#103=FACE_BOUND('',#119,.T.);
#104=FACE_BOUND('',#120,.T.);
#105=FACE_BOUND('',#125,.T.);
#106=FACE_BOUND('',#126,.T.);
#107=FACE_BOUND('',#127,.T.);
#108=FACE_BOUND('',#128,.T.);
#109=FACE_BOUND('',#129,.T.);
#110=FACE_BOUND('',#130,.T.);
#111=FACE_BOUND('',#131,.T.);
#112=FACE_BOUND('',#132,.T.);
#113=EDGE_LOOP('',(#133));
#114=EDGE_LOOP('',(#134,#135,#136,#137,#138,#139,#140,#141));
#115=EDGE_LOOP('',(#142,#143,#144,#145));
#116=EDGE_LOOP('',(#146,#147,#148,#149));
#117=EDGE_LOOP('',(#150,#151,#152,#153));
#118=EDGE_LOOP('',(#154,#155,#156,#157));
#119=EDGE_LOOP('',(#158));
#120=EDGE_LOOP('',(#159,#160,#161,#162,#163,#164,#165,#166));
#121=EDGE_LOOP('',(#167,#168,#169,#170));
#122=EDGE_LOOP('',(#171,#172,#173,#174));
#123=EDGE_LOOP('',(#175,#176,#177,#178));
#124=EDGE_LOOP('',(#179,#180,#181,#182));
#125=EDGE_LOOP('',(#183));
#126=EDGE_LOOP('',(#184));
#127=EDGE_LOOP('',(#185));
#128=EDGE_LOOP('',(#186));
#129=EDGE_LOOP('',(#187));
#130=EDGE_LOOP('',(#188));
#131=EDGE_LOOP('',(#189));
#132=EDGE_LOOP('',(#190));
#133=ORIENTED_EDGE('',*,*,#212,.T.);
#134=ORIENTED_EDGE('',*,*,#213,.T.);
#135=ORIENTED_EDGE('',*,*,#214,.T.);
#136=ORIENTED_EDGE('',*,*,#215,.T.);
#137=ORIENTED_EDGE('',*,*,#216,.T.);
#138=ORIENTED_EDGE('',*,*,#217,.T.);
#139=ORIENTED_EDGE('',*,*,#218,.T.);
#140=ORIENTED_EDGE('',*,*,#219,.T.);
#141=ORIENTED_EDGE('',*,*,#220,.T.);
#142=ORIENTED_EDGE('',*,*,#221,.F.);
#143=ORIENTED_EDGE('',*,*,#222,.T.);
#144=ORIENTED_EDGE('',*,*,#213,.F.);
#145=ORIENTED_EDGE('',*,*,#223,.T.);
#146=ORIENTED_EDGE('',*,*,#219,.F.);
#147=ORIENTED_EDGE('',*,*,#224,.T.);
#148=ORIENTED_EDGE('',*,*,#225,.F.);
#149=ORIENTED_EDGE('',*,*,#226,.T.);
#150=ORIENTED_EDGE('',*,*,#217,.F.);
#151=ORIENTED_EDGE('',*,*,#227,.T.);
#152=ORIENTED_EDGE('',*,*,#228,.F.);
#153=ORIENTED_EDGE('',*,*,#229,.T.);
#154=ORIENTED_EDGE('',*,*,#215,.F.);
#155=ORIENTED_EDGE('',*,*,#230,.T.);
#156=ORIENTED_EDGE('',*,*,#231,.F.);
#157=ORIENTED_EDGE('',*,*,#232,.T.);
#158=ORIENTED_EDGE('',*,*,#233,.F.);
#159=ORIENTED_EDGE('',*,*,#231,.T.);
#160=ORIENTED_EDGE('',*,*,#234,.T.);
#161=ORIENTED_EDGE('',*,*,#221,.T.);
#162=ORIENTED_EDGE('',*,*,#235,.T.);
#163=ORIENTED_EDGE('',*,*,#225,.T.);
#164=ORIENTED_EDGE('',*,*,#236,.T.);
#165=ORIENTED_EDGE('',*,*,#228,.T.);
#166=ORIENTED_EDGE('',*,*,#237,.T.);
#167=ORIENTED_EDGE('',*,*,#214,.F.);
#168=ORIENTED_EDGE('',*,*,#222,.F.);
#169=ORIENTED_EDGE('',*,*,#234,.F.);
#170=ORIENTED_EDGE('',*,*,#230,.F.);
#171=ORIENTED_EDGE('',*,*,#216,.F.);
#172=ORIENTED_EDGE('',*,*,#232,.F.);
#173=ORIENTED_EDGE('',*,*,#237,.F.);
#174=ORIENTED_EDGE('',*,*,#227,.F.);
#175=ORIENTED_EDGE('',*,*,#218,.F.);
#176=ORIENTED_EDGE('',*,*,#229,.F.);
#177=ORIENTED_EDGE('',*,*,#236,.F.);
#178=ORIENTED_EDGE('',*,*,#224,.F.);
#179=ORIENTED_EDGE('',*,*,#220,.F.);
#180=ORIENTED_EDGE('',*,*,#226,.F.);
#181=ORIENTED_EDGE('',*,*,#235,.F.);
#182=ORIENTED_EDGE('',*,*,#223,.F.);
#183=ORIENTED_EDGE('',*,*,#238,.T.);
#184=ORIENTED_EDGE('',*,*,#233,.T.);
#185=ORIENTED_EDGE('',*,*,#239,.T.);
#186=ORIENTED_EDGE('',*,*,#240,.T.);
#187=ORIENTED_EDGE('',*,*,#240,.F.);
#188=ORIENTED_EDGE('',*,*,#212,.F.);
#189=ORIENTED_EDGE('',*,*,#239,.F.);
#190=ORIENTED_EDGE('',*,*,#238,.F.);
#191=VERTEX_POINT('',#459);
#192=VERTEX_POINT('',#461);
#193=VERTEX_POINT('',#462);
#194=VERTEX_POINT('',#464);
#195=VERTEX_POINT('',#466);
#196=VERTEX_POINT('',#468);
#197=VERTEX_POINT('',#470);
#198=VERTEX_POINT('',#472);
#199=VERTEX_POINT('',#474);
#200=VERTEX_POINT('',#478);
#201=VERTEX_POINT('',#479);
#202=VERTEX_POINT('',#484);
#203=VERTEX_POINT('',#486);
#204=VERTEX_POINT('',#490);
#205=VERTEX_POINT('',#492);
#206=VERTEX_POINT('',#496);
#207=VERTEX_POINT('',#498);
#208=VERTEX_POINT('',#502);
#209=VERTEX_POINT('',#513);
#210=VERTEX_POINT('',#516);
#211=VERTEX_POINT('',#518);
#212=EDGE_CURVE('',#191,#191,#241,.T.);
#213=EDGE_CURVE('',#192,#193,#69,.T.);
#214=EDGE_CURVE('',#193,#194,#242,.T.);
#215=EDGE_CURVE('',#194,#195,#70,.T.);
#216=EDGE_CURVE('',#195,#196,#243,.T.);
#217=EDGE_CURVE('',#196,#197,#71,.T.);
#218=EDGE_CURVE('',#197,#198,#244,.T.);
#219=EDGE_CURVE('',#198,#199,#72,.T.);
#220=EDGE_CURVE('',#199,#192,#245,.T.);
#221=EDGE_CURVE('',#200,#201,#73,.T.);
#222=EDGE_CURVE('',#200,#193,#74,.T.);
#223=EDGE_CURVE('',#192,#201,#75,.T.);
#224=EDGE_CURVE('',#198,#202,#76,.T.);
#225=EDGE_CURVE('',#203,#202,#77,.T.);
#226=EDGE_CURVE('',#203,#199,#78,.T.);
#227=EDGE_CURVE('',#196,#204,#79,.T.);
#228=EDGE_CURVE('',#205,#204,#80,.T.);
#229=EDGE_CURVE('',#205,#197,#81,.T.);
#230=EDGE_CURVE('',#194,#206,#82,.T.);
#231=EDGE_CURVE('',#207,#206,#83,.T.);
#232=EDGE_CURVE('',#207,#195,#84,.T.);
#233=EDGE_CURVE('',#208,#208,#246,.T.);
#234=EDGE_CURVE('',#206,#200,#247,.T.);
#235=EDGE_CURVE('',#201,#203,#248,.T.);
#236=EDGE_CURVE('',#202,#205,#249,.T.);
#237=EDGE_CURVE('',#204,#207,#250,.T.);
#238=EDGE_CURVE('',#209,#209,#251,.T.);
#239=EDGE_CURVE('',#210,#210,#252,.T.);
#240=EDGE_CURVE('',#211,#211,#253,.T.);
#241=CIRCLE('',#284,2.2);
#242=CIRCLE('',#285,0.377085239957792);
#243=CIRCLE('',#286,0.377085239957792);
#244=CIRCLE('',#287,0.377085239957792);
#245=CIRCLE('',#288,0.377085239957792);
#246=CIRCLE('',#294,3.07132534818238);
#247=CIRCLE('',#295,0.793750000000005);
#248=CIRCLE('',#296,0.793750000000005);
#249=CIRCLE('',#297,0.793750000000005);
#250=CIRCLE('',#298,0.793750000000005);
#251=CIRCLE('',#304,3.00996076009422);
#252=CIRCLE('',#306,2.92104776441283);
#253=CIRCLE('',#307,2.2);
#254=CURVE_STYLE('',#258,POSITIVE_LENGTH_MEASURE(0.18),#257);
#255=CURVE_STYLE('',#259,POSITIVE_LENGTH_MEASURE(0.18),#279);
#256=CURVE_STYLE('',#260,POSITIVE_LENGTH_MEASURE(0.18),#279);
#257=DRAUGHTING_PRE_DEFINED_COLOUR('blue');
#258=DRAUGHTING_PRE_DEFINED_CURVE_FONT('continuous');
#259=DRAUGHTING_PRE_DEFINED_CURVE_FONT('continuous');
#260=DRAUGHTING_PRE_DEFINED_CURVE_FONT('continuous');
#261=B_SPLINE_CURVE_WITH_KNOTS('CUTTING EDGE LINE',5,(#390,#391,#392,#393,#394,#395,
     #396,#397,#398,#399,#400,#401,#402,#403,#404,#405,#406,#407,#408,#409,#410,
     #411,#412,#413,#414,#415,#416,#417,#418,#419,#420,#421,#422,#423,#424,#425,
     #426,#427,#428,#429,#430,#431,#432,#433,#434,#435,#436,#437,#438,#439,#440,
     #441,#442,#443,#444,#445,#446,#447,#448,#449,#450,#451,#452,#453,#454,#455),
     .UNSPECIFIED.,.T.,.F.,(2,4,1,4,4,1,1,1,1,1,1,1,1,1,1,1,1,1,1,1,4,4,1,4,4,1,
     1,1,1,1,1,1,1,1,1,1,1,1,1,1,4,4,1,1),(-0.2293373523,0.0,0.00401773704999997,
     0.00803547410000005,0.2373728263,0.2394534401375,0.241534053975,0.2436146678125,
     0.245695281650008,0.2477758954875,0.249856509325,0.2519371231625,0.254017737000044,
     0.2560983508375,0.258178964675,0.2602595785125,0.26234019235,0.2644208061875,
     0.266501420025,0.2685820338625,0.2706626477,0.5,0.50401773705,0.5080354741,
     0.7373728263,0.7394534401375,0.741534053975,0.7436146678125,0.745695281650008,
     0.7477758954875,0.749856509325,0.7519371231625,0.754017737000052,0.7560983508375,
     0.758178964675,0.7602595785125,0.76234019235,0.7644208061875,0.766501420025,
     0.7685820338625,0.7706626477,1.0,1.00401773705,1.0080354741),.UNSPECIFIED.);
#262=PRESENTATION_LAYER_ASSIGNMENT('1','Layer 1',(#261,#282,#283,#31));
#265=STYLED_ITEM('',(#271),#261);
#266=STYLED_ITEM('',(#272),#282);
#267=STYLED_ITEM('',(#273),#283);
#268=STYLED_ITEM('',(#274),#31);
#269=PRESENTATION_STYLE_ASSIGNMENT((#275));
#270=PRESENTATION_STYLE_ASSIGNMENT((#276));
#271=PRESENTATION_STYLE_ASSIGNMENT((#254));
#272=PRESENTATION_STYLE_ASSIGNMENT((#255));
#273=PRESENTATION_STYLE_ASSIGNMENT((#256));
#274=PRESENTATION_STYLE_ASSIGNMENT((#26));
#275=POINT_STYLE('',#277,POSITIVE_LENGTH_MEASURE(3.0),#279);
#276=POINT_STYLE('',#278,POSITIVE_LENGTH_MEASURE(3.0),#279);
#277=PRE_DEFINED_POINT_MARKER_SYMBOL('plus');
#278=PRE_DEFINED_POINT_MARKER_SYMBOL('plus');
#279=COLOUR_RGB('Medium Maroon',0.6,0.4,0.4);
#280=COLOUR_RGB('IsoInsertColor',0.8,0.8,0.8);
#281=AXIS2_PLACEMENT_3D('',#387,#311,#312);
#282=AXIS2_PLACEMENT_3D('PCS',#456,#313,#314);
#283=AXIS2_PLACEMENT_3D('MCS',#457,#315,#316);
#284=AXIS2_PLACEMENT_3D('',#458,#317,#318);
#285=AXIS2_PLACEMENT_3D('',#463,#320,#321);
#286=AXIS2_PLACEMENT_3D('',#467,#323,#324);
#287=AXIS2_PLACEMENT_3D('',#471,#326,#327);
#288=AXIS2_PLACEMENT_3D('',#475,#329,#330);
#289=AXIS2_PLACEMENT_3D('',#476,#331,#332);
#290=AXIS2_PLACEMENT_3D('',#482,#336,#337);
#291=AXIS2_PLACEMENT_3D('',#488,#341,#342);
#292=AXIS2_PLACEMENT_3D('',#494,#346,#347);
#293=AXIS2_PLACEMENT_3D('',#500,#351,#352);
#294=AXIS2_PLACEMENT_3D('',#501,#353,#354);
#295=AXIS2_PLACEMENT_3D('',#503,#355,#356);
#296=AXIS2_PLACEMENT_3D('',#504,#357,#358);
#297=AXIS2_PLACEMENT_3D('',#505,#359,#360);
#298=AXIS2_PLACEMENT_3D('',#506,#361,#362);
#299=AXIS2_PLACEMENT_3D('',#507,#363,#364);
#300=AXIS2_PLACEMENT_3D('',#508,#365,#366);
#301=AXIS2_PLACEMENT_3D('',#509,#367,#368);
#302=AXIS2_PLACEMENT_3D('',#510,#369,#370);
#303=AXIS2_PLACEMENT_3D('',#511,#371,#372);
#304=AXIS2_PLACEMENT_3D('',#512,#373,#374);
#305=AXIS2_PLACEMENT_3D('',#514,#375,#376);
#306=AXIS2_PLACEMENT_3D('',#515,#377,#378);
#307=AXIS2_PLACEMENT_3D('',#517,#379,#380);
#308=AXIS2_PLACEMENT_3D('',#519,#381,#382);
#309=AXIS2_PLACEMENT_3D('',#520,#383,#384);
#310=AXIS2_PLACEMENT_3D('',#521,#385,#386);
#311=DIRECTION('',(0.0,0.0,1.0));
#312=DIRECTION('',(1.0,0.0,0.0));
#313=DIRECTION('',(0.0,0.0,1.0));
#314=DIRECTION('',(1.0,0.0,0.0));
#315=DIRECTION('',(0.0,0.0,1.0));
#316=DIRECTION('',(1.0,0.0,0.0));
#317=DIRECTION('',(0.0,0.0,1.0));
#318=DIRECTION('',(-0.953716950748226,-0.300705799504273,0.0));
#319=DIRECTION('',(1.0,1.33226762955019E-15,0.0));
#320=DIRECTION('',(0.0,0.0,-1.0));
#321=DIRECTION('',(-0.953716950748223,-0.300705799504275,0.0));
#322=DIRECTION('',(-0.819152044288991,-0.573576436351048,0.0));
#323=DIRECTION('',(0.0,0.0,-1.0));
#324=DIRECTION('',(-0.953716950748224,-0.300705799504273,0.0));
#325=DIRECTION('',(-1.0,-1.66533453693773E-16,0.0));
#326=DIRECTION('',(0.0,0.0,-1.0));
#327=DIRECTION('',(-0.953716950748227,-0.300705799504274,0.0));
#328=DIRECTION('',(0.819152044288992,0.573576436351046,0.0));
#329=DIRECTION('',(0.0,0.0,-1.0));
#330=DIRECTION('',(-0.953716950748227,-0.300705799504275,0.0));
#331=DIRECTION('',(0.0,0.0,1.0));
#332=DIRECTION('',(-0.953716950748227,-0.300705799504273,0.0));
#333=DIRECTION('',(-1.0,-1.33226762955019E-15,-7.96170798800703E-17));
#334=DIRECTION('',(1.94289029309402E-16,-0.0871557427476587,-0.996194698091745));
#335=DIRECTION('',(-1.94289029309402E-16,0.0871557427476587,0.996194698091745));
#336=DIRECTION('',(1.27675647831893E-15,-0.996194698091746,0.0871557427476587));
#337=DIRECTION('',(1.0,1.33226762955019E-15,0.0));
#338=DIRECTION('',(-0.0499904803327304,0.0713938048432702,0.996194698091745));
#339=DIRECTION('',(-0.819152044288992,-0.573576436351046,2.7948912416233E-16));
#340=DIRECTION('',(0.0499904803327304,-0.0713938048432702,-0.996194698091745));
#341=DIRECTION('',(0.57139380484327,-0.816034923451708,0.0871557427476586));
#342=DIRECTION('',(0.819152044288992,0.573576436351046,0.0));
#343=DIRECTION('',(-7.28583859910259E-17,-0.0871557427476575,0.996194698091746));
#344=DIRECTION('',(1.0,1.66533453693773E-16,7.9617079880071E-17));
#345=DIRECTION('',(7.28583859910259E-17,0.0871557427476575,-0.996194698091746));
#346=DIRECTION('',(-1.11022302462516E-16,0.996194698091746,0.0871557427476575));
#347=DIRECTION('',(-1.0,-1.66533453693773E-16,0.0));
#348=DIRECTION('',(0.0499904803327303,-0.0713938048432689,0.996194698091746));
#349=DIRECTION('',(0.819152044288991,0.573576436351048,-2.79489124162331E-16));
#350=DIRECTION('',(-0.0499904803327303,0.0713938048432689,-0.996194698091746));
#351=DIRECTION('',(-0.571393804843271,0.816034923451707,0.0871557427476576));
#352=DIRECTION('',(-0.819152044288991,-0.573576436351048,0.0));
#353=DIRECTION('',(0.0,0.0,1.0));
#354=DIRECTION('',(-0.953716950748227,-0.300705799504274,0.0));
#355=DIRECTION('',(-8.02264902071665E-17,6.05579448138538E-16,1.0));
#356=DIRECTION('',(-0.300705799504276,0.953716950748227,-6.01675955593648E-16));
#357=DIRECTION('',(-8.02264902071665E-17,6.05579448138538E-16,1.0));
#358=DIRECTION('',(-0.300705799504273,0.953716950748227,-6.01675955593648E-16));
#359=DIRECTION('',(-8.02264902071665E-17,6.05579448138538E-16,1.0));
#360=DIRECTION('',(-0.300705799504273,0.953716950748227,-6.01675955593648E-16));
#361=DIRECTION('',(-8.02264902071665E-17,6.05579448138538E-16,1.0));
#362=DIRECTION('',(-0.300705799504276,0.953716950748227,-6.01675955593648E-16));
#363=DIRECTION('',(-8.02264902071665E-17,6.05579448138538E-16,1.0));
#364=DIRECTION('',(-0.300705799504273,0.953716950748227,-6.01675955593648E-16));
#365=DIRECTION('',(-8.02264902071665E-17,6.05579448138538E-16,1.0));
#366=DIRECTION('',(-0.300705799504273,0.953716950748227,4.91242651478771E-17));
#367=DIRECTION('',(-8.02264902071665E-17,6.05579448138538E-16,1.0));
#368=DIRECTION('',(-0.300705799504273,0.953716950748227,0.0));
#369=DIRECTION('',(-8.02264902071665E-17,6.05579448138538E-16,1.0));
#370=DIRECTION('',(-0.300705799504273,0.953716950748227,9.82485302957542E-18));
#371=DIRECTION('',(-8.02264902071665E-17,6.05579448138538E-16,1.0));
#372=DIRECTION('',(-0.300705799504273,0.953716950748227,5.89491181774525E-17));
#373=DIRECTION('',(0.0,0.0,-1.0));
#374=DIRECTION('',(0.953716950748227,0.300705799504273,0.0));
#375=DIRECTION('',(0.0,0.0,1.0));
#376=DIRECTION('',(-0.953716950748227,-0.300705799504273,4.75743674970665E-16));
#377=DIRECTION('',(0.0,0.0,1.0));
#378=DIRECTION('',(0.953716950748227,0.300705799504274,0.0));
#379=DIRECTION('',(0.0,0.0,-1.0));
#380=DIRECTION('',(-0.953716950748226,-0.300705799504273,0.0));
#381=DIRECTION('',(0.0,0.0,1.0));
#382=DIRECTION('',(-0.953716950748227,-0.300705799504273,0.0));
#383=DIRECTION('',(0.0,0.0,1.0));
#384=DIRECTION('',(-0.953716950748226,-0.300705799504273,0.0));
#385=DIRECTION('',(0.0,0.0,-1.0));
#386=DIRECTION('',(0.953716950748226,0.300705799504273,0.0));
#387=CARTESIAN_POINT('',(0.0,0.0,0.0));
#390=CARTESIAN_POINT('',(13.5883405265698,-3.5527136788005E-15,8.87468518373638E-32));
#391=CARTESIAN_POINT('',(16.4037993602896,-3.5527136788005E-15,4.84508462587035E-16));
#392=CARTESIAN_POINT('',(16.4992734516322,0.00717740324227645,4.87821525946643E-16));
#393=CARTESIAN_POINT('',(16.5971987174273,0.0289630381901462,4.83989439852338E-16));
#394=CARTESIAN_POINT('',(16.689910125948,0.0672849157699869,4.42168810649034E-16));
#395=CARTESIAN_POINT('',(16.7722347124219,0.116167220307537,3.12644572110898E-16));
#396=CARTESIAN_POINT('',(19.078523571675,1.73104806484561,4.30274148400376E-17));
#397=CARTESIAN_POINT('',(21.3457085323781,3.31854806484561,-3.45126646034193E-32));
#398=CARTESIAN_POINT('',(23.6128934930812,4.90604806484561,-7.88860905221012E-32));
#399=CARTESIAN_POINT('',(25.8800784537843,6.49354806484561,4.30274148400377E-17));
#400=CARTESIAN_POINT('',(28.1664869483695,8.09450852818087,2.3004163831469E-16));
#401=CARTESIAN_POINT('',(28.2039391034034,8.1228503374839,2.54255411094931E-16));
#402=CARTESIAN_POINT('',(28.2597538141588,8.17177117769792,2.77344920304273E-16));
#403=CARTESIAN_POINT('',(28.326321758725,8.24584485880724,2.81675314721955E-16));
#404=CARTESIAN_POINT('',(28.3967054281333,8.35451270547626,2.55593876486805E-16));
#405=CARTESIAN_POINT('',(28.4486623199238,8.4743048105897,2.05179841863826E-16));
#406=CARTESIAN_POINT('',(28.4803964293292,8.60138342754149,1.39020834948391E-16));
#407=CARTESIAN_POINT('',(28.4908658427435,8.72962911369637,6.48174182902044E-17));
#408=CARTESIAN_POINT('',(28.480720461759,8.85568670023883,-1.20295456219322E-17));
#409=CARTESIAN_POINT('',(28.4530172957732,8.97120189330965,-8.42524433140496E-17));
#410=CARTESIAN_POINT('',(28.4094536080369,9.08171628308415,-1.54732883800641E-16));
#411=CARTESIAN_POINT('',(28.3454605563464,9.19079576426818,-2.25579374805697E-16));
#412=CARTESIAN_POINT('',(28.263325811304,9.28984347141583,-2.89224802838512E-16));
#413=CARTESIAN_POINT('',(28.1644414504633,9.37573824289364,-3.39955650413673E-16));
#414=CARTESIAN_POINT('',(28.0531709275842,9.44406494184994,-3.70194613297524E-16));
#415=CARTESIAN_POINT('',(27.9331866846655,9.4927100163208,-3.71207750090908E-16));
#416=CARTESIAN_POINT('',(27.836170498752,9.51520581921005,-3.4363016959846E-16));
#417=CARTESIAN_POINT('',(27.762389923142,9.52326542258862,-3.00542152259523E-16));
#418=CARTESIAN_POINT('',(27.7154547198032,9.52500000000001,-2.62490554512464E-16));
#419=CARTESIAN_POINT('',(24.9242653300853,9.525,-4.80678686959967E-17));
#420=CARTESIAN_POINT('',(22.1565435420368,9.525,2.16936748935778E-31));
#421=CARTESIAN_POINT('',(19.3888217539883,9.525,0.0));
#422=CARTESIAN_POINT('',(16.6210999659398,9.52499999999999,-4.80678686959967E-17));
#423=CARTESIAN_POINT('',(13.80564113222,9.52499999999999,-3.3808012896476E-16));
#424=CARTESIAN_POINT('',(13.7101670408774,9.51782259675771,-4.60399016710197E-16));
#425=CARTESIAN_POINT('',(13.6122417750822,9.49603696180984,-4.85670348219447E-16));
#426=CARTESIAN_POINT('',(13.5195303665615,9.45771508423,-4.42168810649034E-16));
#427=CARTESIAN_POINT('',(13.4372057800876,9.40883277969245,-3.12644572110898E-16));
#428=CARTESIAN_POINT('',(11.1309169208346,7.79395193515438,-4.30274148400376E-17));
#429=CARTESIAN_POINT('',(8.86373196013147,6.20645193515438,4.43734259186819E-32));
#430=CARTESIAN_POINT('',(6.59654699942838,4.61895193515439,4.73316543132607E-31));
#431=CARTESIAN_POINT('',(4.32936203872527,3.03145193515439,-4.30274148400377E-17));
#432=CARTESIAN_POINT('',(2.0429535441401,1.43049147181913,-2.30041638314691E-16));
#433=CARTESIAN_POINT('',(2.00550138910615,1.40214966251611,-2.54255411094932E-16));
#434=CARTESIAN_POINT('',(1.9496866783507,1.35322882230208,-2.77344920304274E-16));
#435=CARTESIAN_POINT('',(1.88311873378458,1.27915514119277,-2.81675314721957E-16));
#436=CARTESIAN_POINT('',(1.81273506437629,1.17048729452375,-2.55593876486806E-16));
#437=CARTESIAN_POINT('',(1.76077817258578,1.05069518941031,-2.05179841863828E-16));
#438=CARTESIAN_POINT('',(1.72904406318035,0.923616572458513,-1.39020834948393E-16));
#439=CARTESIAN_POINT('',(1.71857464976605,0.795370886303538,-6.48174182901516E-17));
#440=CARTESIAN_POINT('',(1.72872003075054,0.669313299761066,1.20295456219907E-17));
#441=CARTESIAN_POINT('',(1.7564231967364,0.553798106690285,8.42524433140945E-17));
#442=CARTESIAN_POINT('',(1.79998688447272,0.443283716915745,1.54732883800707E-16));
#443=CARTESIAN_POINT('',(1.86397993616324,0.334204235731765,2.25579374805739E-16));
#444=CARTESIAN_POINT('',(1.94611468120555,0.235156528584163,2.89224802838515E-16));
#445=CARTESIAN_POINT('',(2.04499904204628,0.149261757106374,3.39955650413672E-16));
#446=CARTESIAN_POINT('',(2.15626956492536,0.0809350581500512,3.70194613297526E-16));
#447=CARTESIAN_POINT('',(2.27625380784412,0.0322899836792132,3.71207750090908E-16));
#448=CARTESIAN_POINT('',(2.37326999375756,0.00979418078995042,3.43630169598461E-16));
#449=CARTESIAN_POINT('',(2.44705056936754,0.00173457741138439,3.00542152259523E-16));
#450=CARTESIAN_POINT('',(2.49398577270639,-1.77635683940025E-15,2.62490554512464E-16));
#451=CARTESIAN_POINT('',(5.2851751624243,-4.44089209850063E-15,4.80678686959967E-17));
#452=CARTESIAN_POINT('',(8.05289695047279,-3.5527136788005E-15,-4.93038065763132E-32));
#453=CARTESIAN_POINT('',(10.8206187385213,-3.5527136788005E-15,1.28189897098414E-31));
#454=CARTESIAN_POINT('',(13.5883405265698,-3.5527136788005E-15,8.87468518373638E-32));
#455=CARTESIAN_POINT('',(16.4037993602896,-3.5527136788005E-15,4.84508462587035E-16));
#456=CARTESIAN_POINT('',(0.0,0.0,0.0));
#457=CARTESIAN_POINT('',(15.1047202462548,4.7625,0.0));
#458=CARTESIAN_POINT('',(15.1047202462548,4.7625,-4.7625));
#459=CARTESIAN_POINT('',(13.0065429546087,4.1009472410906,-4.7625));
#460=CARTESIAN_POINT('',(15.1047202462548,9.10833523995777,-4.7625));
#461=CARTESIAN_POINT('',(13.8533781778913,9.10833523995777,-4.7625));
#462=CARTESIAN_POINT('',(27.6919871181337,9.10833523995779,-4.7625));
#463=CARTESIAN_POINT('',(27.6919871181337,8.73125,-4.7625));
#464=CARTESIAN_POINT('',(27.9082743262693,8.42235985481737,-4.7625));
#465=CARTESIAN_POINT('',(17.5973889361586,1.20260017904543,-4.7625));
#466=CARTESIAN_POINT('',(16.5723495227538,0.484859854817369,-4.7625));
#467=CARTESIAN_POINT('',(16.3560623146183,0.793750000000003,-4.7625));
#468=CARTESIAN_POINT('',(16.3560623146183,0.416664760042206,-4.7625));
#469=CARTESIAN_POINT('',(15.1047202462548,0.416664760042207,-4.7625));
#470=CARTESIAN_POINT('',(2.51745337437581,0.416664760042204,-4.7625));
#471=CARTESIAN_POINT('',(2.51745337437581,0.79375,-4.7625));
#472=CARTESIAN_POINT('',(2.30116616624025,1.10264014518263,-4.7625));
#473=CARTESIAN_POINT('',(12.612051556351,8.32239982095455,-4.7625));
#474=CARTESIAN_POINT('',(13.6370909697557,9.04014014518262,-4.7625));
#475=CARTESIAN_POINT('',(13.8533781778913,8.73124999999999,-4.7625));
#476=CARTESIAN_POINT('',(14.8598410645383,4.29209146865531,-4.7625));
#477=CARTESIAN_POINT('',(15.1047202462548,9.52499999999999,-5.81748951963656E-15));
#478=CARTESIAN_POINT('',(27.6919871181337,9.52500000000001,-4.80765727720478E-15));
#479=CARTESIAN_POINT('',(13.8533781778913,9.52499999999999,-5.91788030182994E-15));
#480=CARTESIAN_POINT('',(27.6919871181337,9.52500000000001,-4.26770363746013E-15));
#481=CARTESIAN_POINT('',(13.8533781778913,9.52499999999999,-5.15156734838005E-15));
#482=CARTESIAN_POINT('',(15.1047202462548,9.52499999999999,-5.81748951963656E-15));
#483=CARTESIAN_POINT('',(2.06217707802217,1.44395193515439,-1.5878907177933E-15));
#484=CARTESIAN_POINT('',(2.06217707802217,1.44395193515439,-1.97013035390912E-15));
#485=CARTESIAN_POINT('',(12.3730624681329,8.66371161092632,-5.51506228827902E-15));
#486=CARTESIAN_POINT('',(13.3981018815377,9.38145193515438,-5.86747576327034E-15));
#487=CARTESIAN_POINT('',(13.3981018815377,9.38145193515438,-5.15467128770925E-15));
#488=CARTESIAN_POINT('',(12.3730624681329,8.66371161092631,-5.51506228827901E-15));
#489=CARTESIAN_POINT('',(16.3560623146183,-3.46944695195361E-15,-9.19392346846803E-18));
#490=CARTESIAN_POINT('',(16.3560623146183,-3.46944695195361E-15,5.10455060763868E-17));
#491=CARTESIAN_POINT('',(15.1047202462548,-3.46944695195361E-15,-4.93452761169902E-17));
#492=CARTESIAN_POINT('',(2.51745337437581,-5.20417042793042E-15,-1.05917751854878E-15));
#493=CARTESIAN_POINT('',(2.51745337437581,-5.20417042793042E-15,-8.92492091964045E-16));
#494=CARTESIAN_POINT('',(15.1047202462548,-2.60208521396521E-15,-4.93452761169906E-17));
#495=CARTESIAN_POINT('',(28.1472634144874,8.08104806484561,-3.3637342027967E-15));
#496=CARTESIAN_POINT('',(28.1472634144874,8.08104806484561,-3.89670444184444E-15));
#497=CARTESIAN_POINT('',(17.8363780243767,0.861288389073682,-3.51772507474539E-16));
#498=CARTESIAN_POINT('',(16.8113386109719,0.143548064845614,6.4096751679422E-19));
#499=CARTESIAN_POINT('',(16.8113386109719,0.143548064845614,9.25760272772003E-17));
#500=CARTESIAN_POINT('',(17.8363780243766,0.861288389073676,-3.51772507474536E-16));
#501=CARTESIAN_POINT('',(15.1047202462548,4.7625,0.0));
#502=CARTESIAN_POINT('',(12.1755452004306,3.83893465563708,0.0));
#503=CARTESIAN_POINT('',(27.6919871181337,8.73125,-4.32697859024481E-15));
#504=CARTESIAN_POINT('',(13.8533781778913,8.73124999999999,-5.43720161486997E-15));
#505=CARTESIAN_POINT('',(2.51745337437581,0.793749999999999,-1.53985620550875E-15));
#506=CARTESIAN_POINT('',(16.3560623146183,0.793750000000002,-4.2963318088358E-16));
#507=CARTESIAN_POINT('',(15.1047202462548,4.7625,-2.93341739787678E-15));
#508=CARTESIAN_POINT('',(27.6919871181337,8.73125,-4.33680868994202E-15));
#509=CARTESIAN_POINT('',(16.3560623146183,0.793750000000002,0.0));
#510=CARTESIAN_POINT('',(2.51745337437581,0.793749999999999,-8.67361737988404E-16));
#511=CARTESIAN_POINT('',(13.8533781778913,8.73124999999999,-5.20417042793042E-15));
#512=CARTESIAN_POINT('',(15.1047202462548,4.7625,-0.877554494186139));
#513=CARTESIAN_POINT('',(17.9753708442437,5.66761265684063,-0.877554494186139));
#514=CARTESIAN_POINT('',(15.1047202462548,4.7625,-1.02000000000516));
#515=CARTESIAN_POINT('',(15.1047202462548,4.7625,-1.12904556205543));
#516=CARTESIAN_POINT('',(17.8905730131205,5.64087600338793,-1.12904556205543));
#517=CARTESIAN_POINT('',(15.1047202462548,4.7625,-3.42000000000001));
#518=CARTESIAN_POINT('',(13.0065429546087,4.1009472410906,-3.42000000000001));
#519=CARTESIAN_POINT('',(15.1047202462548,4.7625,-3.42));
#520=CARTESIAN_POINT('',(15.1047202462548,4.7625,-33.3676978394524));
#521=CARTESIAN_POINT('',(15.1047202462548,4.7625,-0.842676257312362));
#522=MECHANICAL_DESIGN_GEOMETRIC_PRESENTATION_REPRESENTATION('',(#265,#266,#267,
     #268),#523);
#523=(GEOMETRIC_REPRESENTATION_CONTEXT(3)GLOBAL_UNCERTAINTY_ASSIGNED_CONTEXT((#524))
     GLOBAL_UNIT_ASSIGNED_CONTEXT((#530,#526,#525))REPRESENTATION_CONTEXT('VBMT160408',
     'TOP_LEVEL_ASSEMBLY_PART'));
#524=UNCERTAINTY_MEASURE_WITH_UNIT(LENGTH_MEASURE(2.0E-5),#530,'DISTANCE_ACCURACY_VALUE',
     'Maximum Tolerance applied to model');
#525=(NAMED_UNIT(*)SI_UNIT($,.STERADIAN.)SOLID_ANGLE_UNIT());
#526=(CONVERSION_BASED_UNIT('DEGREE',#528)NAMED_UNIT(#527)PLANE_ANGLE_UNIT());
#527=DIMENSIONAL_EXPONENTS(0.0,0.0,0.0,0.0,0.0,0.0,0.0);
#528=PLANE_ANGLE_MEASURE_WITH_UNIT(PLANE_ANGLE_MEASURE(0.0174532925),#529);
#529=(NAMED_UNIT(*)PLANE_ANGLE_UNIT()SI_UNIT($,.RADIAN.));
#530=(LENGTH_UNIT()NAMED_UNIT(*)SI_UNIT(.MILLI.,.METRE.));
#531=CONSTRUCTIVE_GEOMETRY_REPRESENTATION('supplemental geometry',(#282,#283),#523);
#532=CONSTRUCTIVE_GEOMETRY_REPRESENTATION_RELATIONSHIP('supplemental geometry','contains PCS and MCS coordinate systems',
     #24,#531);
ENDSEC;
END-ISO-10303-21;
