ISO-10303-21;
HEADER;
FILE_DESCRIPTION(
/* description */ (''),
/* implementation_level */ '2;1');
FILE_NAME(
/* name */ 'TNGN110308.stp',
/* time_stamp */ '2017-03-21T10:54:36',
/* author */ ('Sandvik Coromant R&D'),
/* organization */ ('Sandvik Machining Solutions'),
/* preprocessor_version */ 'ST-DEVELOPER v15',
/* originating_system */ 'SIEMENS PLM Software NX v8.5.3.3(64 bits)',
/* authorization */ '');
FILE_SCHEMA(('AUTOMOTIVE_DESIGN'));
ENDSEC;
DATA;
#10=GEOMETRICALLY_BOUNDED_WIREFRAME_SHAPE_REPRESENTATION('IsoTurningInsert-None',
     (#25),#315);
#11=SHAPE_REPRESENTATION_RELATIONSHIP('None','relationship between IsoTurningInsert-None and IsoTurningInsert-None',
     #24,#13);
#12=SHAPE_REPRESENTATION_RELATIONSHIP('None','relationship between IsoTurningInsert-None and IsoTurningInsert-None',
     #24,#10);
#13=ADVANCED_BREP_SHAPE_REPRESENTATION('IsoTurningInsert-None',(#31),#315);
#14=SHAPE_DEFINITION_REPRESENTATION(#15,#24);
#15=PRODUCT_DEFINITION_SHAPE('','',#16);
#16=PRODUCT_DEFINITION(' ','',#18,#17);
#17=PRODUCT_DEFINITION_CONTEXT('part definition',#23,'design');
#18=PRODUCT_DEFINITION_FORMATION_WITH_SPECIFIED_SOURCE(' ',' ',#20,.NOT_KNOWN.);
#19=PRODUCT_RELATED_PRODUCT_CATEGORY('part','',(#20));
#20=PRODUCT('IsoTurningInsert','IsoTurningInsert',' ',(#21));
#21=PRODUCT_CONTEXT(' ',#23,'mechanical');
#22=APPLICATION_PROTOCOL_DEFINITION('international standard','automotive_design',
     2010,#23);
#23=APPLICATION_CONTEXT('core data for automotive mechanical design processes');
#24=SHAPE_REPRESENTATION('IsoTurningInsert-None',(#189),#315);
#25=GEOMETRIC_CURVE_SET('geometric curve set',(#168));
#26=SURFACE_STYLE_USAGE(.BOTH.,#27);
#27=SURFACE_SIDE_STYLE('',(#28));
#28=SURFACE_STYLE_FILL_AREA(#29);
#29=FILL_AREA_STYLE('',(#30));
#30=FILL_AREA_STYLE_COLOUR('',#188);
#31=MANIFOLD_SOLID_BREP('CUT',#32);
#32=CLOSED_SHELL('',(#36,#37,#38,#39,#40,#41,#42,#43));
#33=CYLINDRICAL_SURFACE('',#203,0.793750000000002);
#34=CYLINDRICAL_SURFACE('',#204,0.793750000000002);
#35=CYLINDRICAL_SURFACE('',#205,0.793750000000002);
#36=ADVANCED_FACE('',(#49),#44,.F.);
#37=ADVANCED_FACE('',(#50),#45,.T.);
#38=ADVANCED_FACE('',(#51),#46,.T.);
#39=ADVANCED_FACE('',(#52),#47,.T.);
#40=ADVANCED_FACE('',(#53),#48,.T.);
#41=ADVANCED_FACE('',(#54),#33,.T.);
#42=ADVANCED_FACE('',(#55),#34,.T.);
#43=ADVANCED_FACE('',(#56),#35,.T.);
#44=PLANE('',#195);
#45=PLANE('',#196);
#46=PLANE('',#197);
#47=PLANE('',#198);
#48=PLANE('',#202);
#49=FACE_OUTER_BOUND('',#57,.T.);
#50=FACE_OUTER_BOUND('',#58,.T.);
#51=FACE_OUTER_BOUND('',#59,.T.);
#52=FACE_OUTER_BOUND('',#60,.T.);
#53=FACE_OUTER_BOUND('',#61,.T.);
#54=FACE_OUTER_BOUND('',#62,.T.);
#55=FACE_OUTER_BOUND('',#63,.T.);
#56=FACE_OUTER_BOUND('',#64,.T.);
#57=EDGE_LOOP('',(#71,#72,#73,#74,#75,#76));
#58=EDGE_LOOP('',(#77,#78,#79,#80));
#59=EDGE_LOOP('',(#81,#82,#83,#84));
#60=EDGE_LOOP('',(#85,#86,#87,#88));
#61=EDGE_LOOP('',(#89,#90,#91,#92,#93,#94));
#62=EDGE_LOOP('',(#95,#96,#97,#98));
#63=EDGE_LOOP('',(#99,#100,#101,#102));
#64=EDGE_LOOP('',(#103,#104,#105,#106));
#65=CIRCLE('',#192,0.793750000000002);
#66=CIRCLE('',#193,0.793750000000002);
#67=CIRCLE('',#194,0.793750000000002);
#68=CIRCLE('',#199,0.793750000000002);
#69=CIRCLE('',#200,0.793750000000002);
#70=CIRCLE('',#201,0.793750000000002);
#71=ORIENTED_EDGE('',*,*,#119,.T.);
#72=ORIENTED_EDGE('',*,*,#120,.T.);
#73=ORIENTED_EDGE('',*,*,#121,.T.);
#74=ORIENTED_EDGE('',*,*,#122,.T.);
#75=ORIENTED_EDGE('',*,*,#123,.T.);
#76=ORIENTED_EDGE('',*,*,#124,.T.);
#77=ORIENTED_EDGE('',*,*,#123,.F.);
#78=ORIENTED_EDGE('',*,*,#125,.T.);
#79=ORIENTED_EDGE('',*,*,#126,.F.);
#80=ORIENTED_EDGE('',*,*,#127,.T.);
#81=ORIENTED_EDGE('',*,*,#121,.F.);
#82=ORIENTED_EDGE('',*,*,#128,.T.);
#83=ORIENTED_EDGE('',*,*,#129,.F.);
#84=ORIENTED_EDGE('',*,*,#130,.T.);
#85=ORIENTED_EDGE('',*,*,#131,.F.);
#86=ORIENTED_EDGE('',*,*,#132,.T.);
#87=ORIENTED_EDGE('',*,*,#119,.F.);
#88=ORIENTED_EDGE('',*,*,#133,.T.);
#89=ORIENTED_EDGE('',*,*,#129,.T.);
#90=ORIENTED_EDGE('',*,*,#134,.T.);
#91=ORIENTED_EDGE('',*,*,#131,.T.);
#92=ORIENTED_EDGE('',*,*,#135,.T.);
#93=ORIENTED_EDGE('',*,*,#126,.T.);
#94=ORIENTED_EDGE('',*,*,#136,.T.);
#95=ORIENTED_EDGE('',*,*,#120,.F.);
#96=ORIENTED_EDGE('',*,*,#132,.F.);
#97=ORIENTED_EDGE('',*,*,#134,.F.);
#98=ORIENTED_EDGE('',*,*,#128,.F.);
#99=ORIENTED_EDGE('',*,*,#122,.F.);
#100=ORIENTED_EDGE('',*,*,#130,.F.);
#101=ORIENTED_EDGE('',*,*,#136,.F.);
#102=ORIENTED_EDGE('',*,*,#125,.F.);
#103=ORIENTED_EDGE('',*,*,#124,.F.);
#104=ORIENTED_EDGE('',*,*,#127,.F.);
#105=ORIENTED_EDGE('',*,*,#135,.F.);
#106=ORIENTED_EDGE('',*,*,#133,.F.);
#107=VERTEX_POINT('',#277);
#108=VERTEX_POINT('',#278);
#109=VERTEX_POINT('',#280);
#110=VERTEX_POINT('',#282);
#111=VERTEX_POINT('',#284);
#112=VERTEX_POINT('',#286);
#113=VERTEX_POINT('',#290);
#114=VERTEX_POINT('',#292);
#115=VERTEX_POINT('',#296);
#116=VERTEX_POINT('',#298);
#117=VERTEX_POINT('',#302);
#118=VERTEX_POINT('',#303);
#119=EDGE_CURVE('',#107,#108,#137,.T.);
#120=EDGE_CURVE('',#108,#109,#65,.T.);
#121=EDGE_CURVE('',#109,#110,#138,.T.);
#122=EDGE_CURVE('',#110,#111,#66,.T.);
#123=EDGE_CURVE('',#111,#112,#139,.T.);
#124=EDGE_CURVE('',#112,#107,#67,.T.);
#125=EDGE_CURVE('',#111,#113,#140,.T.);
#126=EDGE_CURVE('',#114,#113,#141,.T.);
#127=EDGE_CURVE('',#114,#112,#142,.T.);
#128=EDGE_CURVE('',#109,#115,#143,.T.);
#129=EDGE_CURVE('',#116,#115,#144,.T.);
#130=EDGE_CURVE('',#116,#110,#145,.T.);
#131=EDGE_CURVE('',#117,#118,#146,.T.);
#132=EDGE_CURVE('',#117,#108,#147,.T.);
#133=EDGE_CURVE('',#107,#118,#148,.T.);
#134=EDGE_CURVE('',#115,#117,#68,.T.);
#135=EDGE_CURVE('',#118,#114,#69,.T.);
#136=EDGE_CURVE('',#113,#116,#70,.T.);
#137=LINE('',#276,#149);
#138=LINE('',#281,#150);
#139=LINE('',#285,#151);
#140=LINE('',#289,#152);
#141=LINE('',#291,#153);
#142=LINE('',#293,#154);
#143=LINE('',#295,#155);
#144=LINE('',#297,#156);
#145=LINE('',#299,#157);
#146=LINE('',#301,#158);
#147=LINE('',#304,#159);
#148=LINE('',#305,#160);
#149=VECTOR('',#212,1.0);
#150=VECTOR('',#215,1.0);
#151=VECTOR('',#218,1.0);
#152=VECTOR('',#223,1.0);
#153=VECTOR('',#224,1.0);
#154=VECTOR('',#225,1.0);
#155=VECTOR('',#228,1.0);
#156=VECTOR('',#229,1.0);
#157=VECTOR('',#230,1.0);
#158=VECTOR('',#233,1.0);
#159=VECTOR('',#234,1.0);
#160=VECTOR('',#235,1.0);
#161=CURVE_STYLE('',#165,POSITIVE_LENGTH_MEASURE(0.18),#164);
#162=CURVE_STYLE('',#166,POSITIVE_LENGTH_MEASURE(0.18),#187);
#163=CURVE_STYLE('',#167,POSITIVE_LENGTH_MEASURE(0.18),#187);
#164=DRAUGHTING_PRE_DEFINED_COLOUR('blue');
#165=DRAUGHTING_PRE_DEFINED_CURVE_FONT('continuous');
#166=DRAUGHTING_PRE_DEFINED_CURVE_FONT('continuous');
#167=DRAUGHTING_PRE_DEFINED_CURVE_FONT('continuous');
#168=TRIMMED_CURVE('CUTTING EDGE LINE',#169,(PARAMETER_VALUE(0.0)),(PARAMETER_VALUE(
     1.0)),.T.,.PARAMETER.);
#169=(BOUNDED_CURVE()B_SPLINE_CURVE(3,(#255,#256,#257,#258,#259,#260,#261,#262,#263,
     #264,#265,#266,#267,#268,#269,#270,#271,#272,#273),.UNSPECIFIED.,.T.,.F.)
     B_SPLINE_CURVE_WITH_KNOTS((1,3,3,3,3,3,3,3,1),(-0.0559100245629807,0.0,0.277423308770353,
     0.333333333333333,0.610756642103686,0.666666666666667,0.944089975437019,1.0,
     1.27742330877035),.UNSPECIFIED.)CURVE()GEOMETRIC_REPRESENTATION_ITEM()
     RATIONAL_B_SPLINE_CURVE((0.666666666666667,0.666666666666667,0.666666666666667,
     0.666666666666667,0.444444444444444,0.444444444444444,0.666666666666667,0.666666666666667,
     0.666666666666667,0.666666666666667,0.444444444444444,0.444444444444444,0.666666666666667,
     0.666666666666667,0.666666666666667,0.666666666666667,0.444444444444444,0.444444444444444,
     0.666666666666667))REPRESENTATION_ITEM('CUTTING EDGE LINE'));
#170=PRESENTATION_LAYER_ASSIGNMENT('1','Layer 1',(#168,#190,#191,#31));
#173=STYLED_ITEM('',(#179),#168);
#174=STYLED_ITEM('',(#180),#190);
#175=STYLED_ITEM('',(#181),#191);
#176=STYLED_ITEM('',(#182),#31);
#177=PRESENTATION_STYLE_ASSIGNMENT((#183));
#178=PRESENTATION_STYLE_ASSIGNMENT((#184));
#179=PRESENTATION_STYLE_ASSIGNMENT((#161));
#180=PRESENTATION_STYLE_ASSIGNMENT((#162));
#181=PRESENTATION_STYLE_ASSIGNMENT((#163));
#182=PRESENTATION_STYLE_ASSIGNMENT((#26));
#183=POINT_STYLE('',#185,POSITIVE_LENGTH_MEASURE(3.0),#187);
#184=POINT_STYLE('',#186,POSITIVE_LENGTH_MEASURE(3.0),#187);
#185=PRE_DEFINED_POINT_MARKER_SYMBOL('plus');
#186=PRE_DEFINED_POINT_MARKER_SYMBOL('plus');
#187=COLOUR_RGB('Medium Maroon',0.6,0.4,0.4);
#188=COLOUR_RGB('IsoInsertColor',0.8,0.8,0.8);
#189=AXIS2_PLACEMENT_3D('',#252,#206,#207);
#190=AXIS2_PLACEMENT_3D('PCS',#274,#208,#209);
#191=AXIS2_PLACEMENT_3D('MCS',#275,#210,#211);
#192=AXIS2_PLACEMENT_3D('',#279,#213,#214);
#193=AXIS2_PLACEMENT_3D('',#283,#216,#217);
#194=AXIS2_PLACEMENT_3D('',#287,#219,#220);
#195=AXIS2_PLACEMENT_3D('',#288,#221,#222);
#196=AXIS2_PLACEMENT_3D('',#294,#226,#227);
#197=AXIS2_PLACEMENT_3D('',#300,#231,#232);
#198=AXIS2_PLACEMENT_3D('',#306,#236,#237);
#199=AXIS2_PLACEMENT_3D('',#307,#238,#239);
#200=AXIS2_PLACEMENT_3D('',#308,#240,#241);
#201=AXIS2_PLACEMENT_3D('',#309,#242,#243);
#202=AXIS2_PLACEMENT_3D('',#310,#244,#245);
#203=AXIS2_PLACEMENT_3D('',#311,#246,#247);
#204=AXIS2_PLACEMENT_3D('',#312,#248,#249);
#205=AXIS2_PLACEMENT_3D('',#313,#250,#251);
#206=DIRECTION('',(0.0,0.0,1.0));
#207=DIRECTION('',(1.0,0.0,0.0));
#208=DIRECTION('',(0.0,0.0,1.0));
#209=DIRECTION('',(1.0,0.0,0.0));
#210=DIRECTION('',(0.0,0.0,1.0));
#211=DIRECTION('',(1.0,0.0,0.0));
#212=DIRECTION('',(0.500000000000001,-0.866025403784438,0.0));
#213=DIRECTION('',(0.0,0.0,-1.0));
#214=DIRECTION('',(-0.866025403784438,-0.5,0.0));
#215=DIRECTION('',(-1.0,-8.32667268468867E-16,0.0));
#216=DIRECTION('',(0.0,0.0,-1.0));
#217=DIRECTION('',(-0.866025403784439,-0.5,0.0));
#218=DIRECTION('',(0.5,0.866025403784439,0.0));
#219=DIRECTION('',(0.0,0.0,-1.0));
#220=DIRECTION('',(-0.866025403784438,-0.500000000000001,0.0));
#221=DIRECTION('',(0.0,0.0,1.0));
#222=DIRECTION('',(-0.866025403784439,-0.5,0.0));
#223=DIRECTION('',(-2.0062405979986E-16,5.01931538035914E-16,1.0));
#224=DIRECTION('',(-0.5,-0.866025403784439,3.34373432999767E-16));
#225=DIRECTION('',(2.0062405979986E-16,-5.01931538035914E-16,-1.0));
#226=DIRECTION('',(-0.866025403784439,0.5,-4.24711301415005E-16));
#227=DIRECTION('',(-0.5,-0.866025403784439,0.0));
#228=DIRECTION('',(-2.0062405979986E-16,5.01931538035914E-16,1.0));
#229=DIRECTION('',(1.0,8.32667268468867E-16,2.0062405979986E-16));
#230=DIRECTION('',(2.0062405979986E-16,-5.01931538035914E-16,-1.0));
#231=DIRECTION('',(8.32667268468867E-16,-1.0,5.01931538035915E-16));
#232=DIRECTION('',(1.0,8.32667268468867E-16,0.0));
#233=DIRECTION('',(-0.500000000000001,0.866025403784438,-5.34997492799627E-16));
#234=DIRECTION('',(2.0062405979986E-16,-5.01931538035914E-16,-1.0));
#235=DIRECTION('',(-2.0062405979986E-16,5.01931538035914E-16,1.0));
#236=DIRECTION('',(0.866025403784438,0.500000000000001,-7.722023662091E-17));
#237=DIRECTION('',(-0.500000000000001,0.866025403784438,0.0));
#238=DIRECTION('',(-2.0062405979986E-16,5.01931538035914E-16,1.0));
#239=DIRECTION('',(-0.500000000000001,0.866025403784439,-5.34997492799627E-16));
#240=DIRECTION('',(-2.0062405979986E-16,5.01931538035914E-16,1.0));
#241=DIRECTION('',(-0.500000000000001,0.866025403784438,-5.34997492799627E-16));
#242=DIRECTION('',(-2.0062405979986E-16,5.01931538035914E-16,1.0));
#243=DIRECTION('',(-0.5,0.866025403784439,-5.34997492799627E-16));
#244=DIRECTION('',(-2.0062405979986E-16,5.01931538035914E-16,1.0));
#245=DIRECTION('',(-0.5,0.866025403784439,-5.34997492799627E-16));
#246=DIRECTION('',(-2.0062405979986E-16,5.01931538035914E-16,1.0));
#247=DIRECTION('',(-0.500000000000001,0.866025403784439,-5.34997492799627E-16));
#248=DIRECTION('',(-2.0062405979986E-16,5.01931538035914E-16,1.0));
#249=DIRECTION('',(-0.5,0.866025403784439,-5.34997492799627E-16));
#250=DIRECTION('',(-2.0062405979986E-16,5.01931538035914E-16,1.0));
#251=DIRECTION('',(-0.500000000000001,0.866025403784438,-5.34997492799627E-16));
#252=CARTESIAN_POINT('',(0.0,0.0,0.0));
#255=CARTESIAN_POINT('',(10.3111149638085,1.190625,0.0));
#256=CARTESIAN_POINT('',(8.93629963530067,3.571875,0.0));
#257=CARTESIAN_POINT('',(7.56148430679288,5.95312499999999,1.5629858518551E-15));
#258=CARTESIAN_POINT('',(6.18666897828508,8.33437499999999,-3.06467814089234E-17));
#259=CARTESIAN_POINT('',(5.84296514615813,8.92968749999999,-4.29054939724931E-16));
#260=CARTESIAN_POINT('',(5.15555748190423,8.92968749999999,-2.10696622186351E-16));
#261=CARTESIAN_POINT('',(4.81185364977728,8.33437499999999,-1.6855729774908E-16));
#262=CARTESIAN_POINT('',(3.43703832126948,5.95312499999999,0.0));
#263=CARTESIAN_POINT('',(2.06222299276168,3.571875,-4.13731549020471E-16));
#264=CARTESIAN_POINT('',(0.687407664253893,1.19062499999999,-1.6855729774908E-16));
#265=CARTESIAN_POINT('',(0.343703832126944,0.595312499999992,-1.07263734931232E-16));
#266=CARTESIAN_POINT('',(0.687407664253892,-9.99200722162641E-15,2.49005098947505E-16));
#267=CARTESIAN_POINT('',(1.37481532850779,-8.65973959207622E-15,1.99204079158004E-16));
#268=CARTESIAN_POINT('',(4.12444598552338,-6.66133814775094E-15,0.0));
#269=CARTESIAN_POINT('',(6.87407664253898,-1.99840144432528E-15,-1.14925430283463E-15));
#270=CARTESIAN_POINT('',(9.62370729955457,-1.99840144432528E-15,1.99204079158004E-16));
#271=CARTESIAN_POINT('',(10.3111149638085,-9.99200722162641E-16,5.36318674656164E-16));
#272=CARTESIAN_POINT('',(10.6548187959354,0.5953125,3.06467814089237E-16));
#273=CARTESIAN_POINT('',(10.3111149638085,1.190625,-6.12935628178473E-17));
#274=CARTESIAN_POINT('',(0.0,0.0,0.0));
#275=CARTESIAN_POINT('',(5.49926131403118,3.175,0.0));
#276=CARTESIAN_POINT('',(8.24889197104677,4.7625,-3.175));
#277=CARTESIAN_POINT('',(6.18666897828508,8.33437499999999,-3.175));
#278=CARTESIAN_POINT('',(10.3111149638085,1.190625,-3.175));
#279=CARTESIAN_POINT('',(9.62370729955457,0.793749999999999,-3.175));
#280=CARTESIAN_POINT('',(9.62370729955457,-3.90312782094782E-15,-3.175));
#281=CARTESIAN_POINT('',(4.44546536472996,-8.23993651088983E-15,-3.175));
#282=CARTESIAN_POINT('',(1.37481532850779,-1.04083408558608E-14,-3.175));
#283=CARTESIAN_POINT('',(1.37481532850779,0.793749999999992,-3.175));
#284=CARTESIAN_POINT('',(0.687407664253894,1.19062499999999,-3.175));
#285=CARTESIAN_POINT('',(2.22273268236498,3.84988593749999,-3.175));
#286=CARTESIAN_POINT('',(4.81185364977728,8.33437499999999,-3.175));
#287=CARTESIAN_POINT('',(5.49926131403118,7.93749999999999,-3.175));
#288=CARTESIAN_POINT('',(5.36200178761202,2.66274047358083,-3.175));
#289=CARTESIAN_POINT('',(0.687407664253893,1.190625,-2.16840434497101E-15));
#290=CARTESIAN_POINT('',(0.687407664253893,1.190625,-2.41560244029771E-15));
#291=CARTESIAN_POINT('',(2.74963065701559,4.7625,-3.79470760369927E-15));
#292=CARTESIAN_POINT('',(4.81185364977728,8.33437499999999,-5.17381276710083E-15));
#293=CARTESIAN_POINT('',(4.81185364977728,8.33437499999999,-5.20417042793042E-15));
#294=CARTESIAN_POINT('',(2.22273268236497,3.8498859375,-3.44234623445017E-15));
#295=CARTESIAN_POINT('',(9.62370729955457,-1.73472347597681E-15,7.70371977754894E-31));
#296=CARTESIAN_POINT('',(9.62370729955457,-1.73472347597681E-15,-2.51534904016636E-17));
#297=CARTESIAN_POINT('',(5.49926131403119,-5.20417042793042E-15,-8.52616588442599E-16));
#298=CARTESIAN_POINT('',(1.37481532850779,-9.10729824887824E-15,-1.68007968648354E-15));
#299=CARTESIAN_POINT('',(1.37481532850779,-9.10729824887824E-15,-1.30104260698261E-15));
#300=CARTESIAN_POINT('',(4.44546536472996,-6.50521303491303E-15,-1.06403340999206E-15));
#301=CARTESIAN_POINT('',(8.24889197104677,4.7625,-2.69142347297802E-15));
#302=CARTESIAN_POINT('',(10.3111149638085,1.190625,-4.84855211535519E-16));
#303=CARTESIAN_POINT('',(6.18666897828508,8.33437499999999,-4.89799173442051E-15));
#304=CARTESIAN_POINT('',(10.3111149638085,1.190625,-4.33680868994202E-16));
#305=CARTESIAN_POINT('',(6.18666897828508,8.33437499999999,-4.77048955893622E-15));
#306=CARTESIAN_POINT('',(8.24889197104677,4.7625,-2.69142347297802E-15));
#307=CARTESIAN_POINT('',(9.62370729955457,0.79375,-4.23561648717672E-16));
#308=CARTESIAN_POINT('',(5.49926131403118,7.93749999999999,-4.83669817160267E-15));
#309=CARTESIAN_POINT('',(1.37481532850779,0.793749999999994,-2.07848784479954E-15));
#310=CARTESIAN_POINT('',(5.49926131403118,3.175,-2.44624922170663E-15));
#311=CARTESIAN_POINT('',(9.62370729955457,0.79375,-4.33680868994202E-16));
#312=CARTESIAN_POINT('',(1.37481532850779,0.793749999999994,-1.73472347597681E-15));
#313=CARTESIAN_POINT('',(5.49926131403118,7.93749999999999,-4.77048955893622E-15));
#314=MECHANICAL_DESIGN_GEOMETRIC_PRESENTATION_REPRESENTATION('',(#173,#174,#175,
     #176),#315);
#315=(GEOMETRIC_REPRESENTATION_CONTEXT(3)GLOBAL_UNCERTAINTY_ASSIGNED_CONTEXT((#316))
     GLOBAL_UNIT_ASSIGNED_CONTEXT((#322,#318,#317))REPRESENTATION_CONTEXT('TNGN110308',
     'TOP_LEVEL_ASSEMBLY_PART'));
#316=UNCERTAINTY_MEASURE_WITH_UNIT(LENGTH_MEASURE(2.0E-5),#322,'DISTANCE_ACCURACY_VALUE',
     'Maximum Tolerance applied to model');
#317=(NAMED_UNIT(*)SI_UNIT($,.STERADIAN.)SOLID_ANGLE_UNIT());
#318=(CONVERSION_BASED_UNIT('DEGREE',#320)NAMED_UNIT(#319)PLANE_ANGLE_UNIT());
#319=DIMENSIONAL_EXPONENTS(0.0,0.0,0.0,0.0,0.0,0.0,0.0);
#320=PLANE_ANGLE_MEASURE_WITH_UNIT(PLANE_ANGLE_MEASURE(0.0174532925),#321);
#321=(NAMED_UNIT(*)PLANE_ANGLE_UNIT()SI_UNIT($,.RADIAN.));
#322=(LENGTH_UNIT()NAMED_UNIT(*)SI_UNIT(.MILLI.,.METRE.));
#323=CONSTRUCTIVE_GEOMETRY_REPRESENTATION('supplemental geometry',(#190,#191),#315);
#324=CONSTRUCTIVE_GEOMETRY_REPRESENTATION_RELATIONSHIP('supplemental geometry','contains PCS and MCS coordinate systems',
     #24,#323);
ENDSEC;
END-ISO-10303-21;
