ISO-10303-21;
HEADER;
FILE_DESCRIPTION(
/* description */ (''),
/* implementation_level */ '2;1');
FILE_NAME(
/* name */ 'TEGN160304.stp',
/* time_stamp */ '2017-03-21T10:54:35',
/* author */ ('Sandvik Coromant R&D'),
/* organization */ ('Sandvik Machining Solutions'),
/* preprocessor_version */ 'ST-DEVELOPER v15',
/* originating_system */ 'SIEMENS PLM Software NX v8.5.3.3(64 bits)',
/* authorization */ '');
FILE_SCHEMA(('AUTOMOTIVE_DESIGN'));
ENDSEC;
DATA;
#10=GEOMETRICALLY_BOUNDED_WIREFRAME_SHAPE_REPRESENTATION('IsoTurningInsert-None',
     (#25),#312);
#11=SHAPE_REPRESENTATION_RELATIONSHIP('None','relationship between IsoTurningInsert-None and IsoTurningInsert-None',
     #24,#13);
#12=SHAPE_REPRESENTATION_RELATIONSHIP('None','relationship between IsoTurningInsert-None and IsoTurningInsert-None',
     #24,#10);
#13=ADVANCED_BREP_SHAPE_REPRESENTATION('IsoTurningInsert-None',(#31),#312);
#14=SHAPE_DEFINITION_REPRESENTATION(#15,#24);
#15=PRODUCT_DEFINITION_SHAPE('','',#16);
#16=PRODUCT_DEFINITION(' ','',#18,#17);
#17=PRODUCT_DEFINITION_CONTEXT('part definition',#23,'design');
#18=PRODUCT_DEFINITION_FORMATION_WITH_SPECIFIED_SOURCE(' ',' ',#20,.NOT_KNOWN.);
#19=PRODUCT_RELATED_PRODUCT_CATEGORY('part','',(#20));
#20=PRODUCT('IsoTurningInsert','IsoTurningInsert',' ',(#21));
#21=PRODUCT_CONTEXT(' ',#23,'mechanical');
#22=APPLICATION_PROTOCOL_DEFINITION('international standard','automotive_design',
     2010,#23);
#23=APPLICATION_CONTEXT('core data for automotive mechanical design processes');
#24=SHAPE_REPRESENTATION('IsoTurningInsert-None',(#192),#312);
#25=GEOMETRIC_CURVE_SET('geometric curve set',(#171));
#26=SURFACE_STYLE_USAGE(.BOTH.,#27);
#27=SURFACE_SIDE_STYLE('',(#28));
#28=SURFACE_STYLE_FILL_AREA(#29);
#29=FILL_AREA_STYLE('',(#30));
#30=FILL_AREA_STYLE_COLOUR('',#191);
#31=MANIFOLD_SOLID_BREP('CUT',#32);
#32=CLOSED_SHELL('',(#39,#40,#41,#42,#43,#44,#45,#46));
#33=CONICAL_SURFACE('',#203,0.396874999999997,20.0);
#34=CONICAL_SURFACE('',#204,0.396874999999997,20.0);
#35=CONICAL_SURFACE('',#205,0.396874999999997,20.0);
#36=CIRCLE('',#199,0.396874999999997);
#37=CIRCLE('',#200,0.396874999999997);
#38=CIRCLE('',#201,0.396874999999997);
#39=ADVANCED_FACE('',(#52),#47,.F.);
#40=ADVANCED_FACE('',(#53),#48,.F.);
#41=ADVANCED_FACE('',(#54),#49,.F.);
#42=ADVANCED_FACE('',(#55),#50,.F.);
#43=ADVANCED_FACE('',(#56),#51,.T.);
#44=ADVANCED_FACE('',(#57),#33,.T.);
#45=ADVANCED_FACE('',(#58),#34,.T.);
#46=ADVANCED_FACE('',(#59),#35,.T.);
#47=PLANE('',#195);
#48=PLANE('',#196);
#49=PLANE('',#197);
#50=PLANE('',#198);
#51=PLANE('',#202);
#52=FACE_OUTER_BOUND('',#60,.T.);
#53=FACE_OUTER_BOUND('',#61,.T.);
#54=FACE_OUTER_BOUND('',#62,.T.);
#55=FACE_OUTER_BOUND('',#63,.T.);
#56=FACE_OUTER_BOUND('',#64,.T.);
#57=FACE_OUTER_BOUND('',#65,.T.);
#58=FACE_OUTER_BOUND('',#66,.T.);
#59=FACE_OUTER_BOUND('',#67,.T.);
#60=EDGE_LOOP('',(#68,#69,#70));
#61=EDGE_LOOP('',(#71,#72,#73,#74,#75,#76));
#62=EDGE_LOOP('',(#77,#78,#79,#80,#81,#82));
#63=EDGE_LOOP('',(#83,#84,#85,#86,#87,#88));
#64=EDGE_LOOP('',(#89,#90,#91,#92,#93,#94));
#65=EDGE_LOOP('',(#95,#96,#97));
#66=EDGE_LOOP('',(#98,#99,#100));
#67=EDGE_LOOP('',(#101,#102,#103));
#68=ORIENTED_EDGE('',*,*,#116,.T.);
#69=ORIENTED_EDGE('',*,*,#117,.T.);
#70=ORIENTED_EDGE('',*,*,#118,.T.);
#71=ORIENTED_EDGE('',*,*,#118,.F.);
#72=ORIENTED_EDGE('',*,*,#119,.T.);
#73=ORIENTED_EDGE('',*,*,#120,.T.);
#74=ORIENTED_EDGE('',*,*,#121,.F.);
#75=ORIENTED_EDGE('',*,*,#122,.T.);
#76=ORIENTED_EDGE('',*,*,#123,.F.);
#77=ORIENTED_EDGE('',*,*,#117,.F.);
#78=ORIENTED_EDGE('',*,*,#124,.T.);
#79=ORIENTED_EDGE('',*,*,#125,.T.);
#80=ORIENTED_EDGE('',*,*,#126,.F.);
#81=ORIENTED_EDGE('',*,*,#127,.T.);
#82=ORIENTED_EDGE('',*,*,#119,.F.);
#83=ORIENTED_EDGE('',*,*,#128,.F.);
#84=ORIENTED_EDGE('',*,*,#129,.T.);
#85=ORIENTED_EDGE('',*,*,#124,.F.);
#86=ORIENTED_EDGE('',*,*,#116,.F.);
#87=ORIENTED_EDGE('',*,*,#123,.T.);
#88=ORIENTED_EDGE('',*,*,#130,.T.);
#89=ORIENTED_EDGE('',*,*,#126,.T.);
#90=ORIENTED_EDGE('',*,*,#131,.T.);
#91=ORIENTED_EDGE('',*,*,#128,.T.);
#92=ORIENTED_EDGE('',*,*,#132,.T.);
#93=ORIENTED_EDGE('',*,*,#121,.T.);
#94=ORIENTED_EDGE('',*,*,#133,.T.);
#95=ORIENTED_EDGE('',*,*,#125,.F.);
#96=ORIENTED_EDGE('',*,*,#129,.F.);
#97=ORIENTED_EDGE('',*,*,#131,.F.);
#98=ORIENTED_EDGE('',*,*,#120,.F.);
#99=ORIENTED_EDGE('',*,*,#127,.F.);
#100=ORIENTED_EDGE('',*,*,#133,.F.);
#101=ORIENTED_EDGE('',*,*,#130,.F.);
#102=ORIENTED_EDGE('',*,*,#122,.F.);
#103=ORIENTED_EDGE('',*,*,#132,.F.);
#104=VERTEX_POINT('',#274);
#105=VERTEX_POINT('',#275);
#106=VERTEX_POINT('',#277);
#107=VERTEX_POINT('',#281);
#108=VERTEX_POINT('',#283);
#109=VERTEX_POINT('',#285);
#110=VERTEX_POINT('',#287);
#111=VERTEX_POINT('',#291);
#112=VERTEX_POINT('',#293);
#113=VERTEX_POINT('',#295);
#114=VERTEX_POINT('',#299);
#115=VERTEX_POINT('',#300);
#116=EDGE_CURVE('',#104,#105,#134,.T.);
#117=EDGE_CURVE('',#105,#106,#135,.T.);
#118=EDGE_CURVE('',#106,#104,#136,.T.);
#119=EDGE_CURVE('INSERT_CORNER_EDGE1',#106,#107,#137,.T.);
#120=EDGE_CURVE('',#107,#108,#138,.T.);
#121=EDGE_CURVE('',#109,#108,#139,.T.);
#122=EDGE_CURVE('',#109,#110,#140,.T.);
#123=EDGE_CURVE('INSERT_CORNER_EDGE3',#104,#110,#141,.T.);
#124=EDGE_CURVE('INSERT_CORNER_EDGE2',#105,#111,#142,.T.);
#125=EDGE_CURVE('',#111,#112,#143,.T.);
#126=EDGE_CURVE('',#113,#112,#144,.T.);
#127=EDGE_CURVE('',#113,#107,#145,.T.);
#128=EDGE_CURVE('',#114,#115,#146,.T.);
#129=EDGE_CURVE('',#114,#111,#147,.T.);
#130=EDGE_CURVE('',#110,#115,#148,.T.);
#131=EDGE_CURVE('',#112,#114,#36,.T.);
#132=EDGE_CURVE('',#115,#109,#37,.T.);
#133=EDGE_CURVE('',#108,#113,#38,.T.);
#134=LINE('',#273,#149);
#135=LINE('',#276,#150);
#136=LINE('',#278,#151);
#137=LINE('',#280,#152);
#138=LINE('',#282,#153);
#139=LINE('',#284,#154);
#140=LINE('',#286,#155);
#141=LINE('',#288,#156);
#142=LINE('',#290,#157);
#143=LINE('',#292,#158);
#144=LINE('',#294,#159);
#145=LINE('',#296,#160);
#146=LINE('',#298,#161);
#147=LINE('',#301,#162);
#148=LINE('',#302,#163);
#149=VECTOR('',#212,1.0);
#150=VECTOR('',#213,1.0);
#151=VECTOR('',#214,1.0);
#152=VECTOR('',#217,1.0);
#153=VECTOR('',#218,1.0);
#154=VECTOR('',#219,1.0);
#155=VECTOR('',#220,1.0);
#156=VECTOR('',#221,1.0);
#157=VECTOR('',#224,1.0);
#158=VECTOR('',#225,1.0);
#159=VECTOR('',#226,1.0);
#160=VECTOR('',#227,1.0);
#161=VECTOR('',#230,1.0);
#162=VECTOR('',#231,1.0);
#163=VECTOR('',#232,1.0);
#164=CURVE_STYLE('',#168,POSITIVE_LENGTH_MEASURE(0.18),#167);
#165=CURVE_STYLE('',#169,POSITIVE_LENGTH_MEASURE(0.18),#190);
#166=CURVE_STYLE('',#170,POSITIVE_LENGTH_MEASURE(0.18),#190);
#167=DRAUGHTING_PRE_DEFINED_COLOUR('blue');
#168=DRAUGHTING_PRE_DEFINED_CURVE_FONT('continuous');
#169=DRAUGHTING_PRE_DEFINED_CURVE_FONT('continuous');
#170=DRAUGHTING_PRE_DEFINED_CURVE_FONT('continuous');
#171=TRIMMED_CURVE('CUTTING EDGE LINE',#172,(PARAMETER_VALUE(0.0)),(PARAMETER_VALUE(
     1.0)),.T.,.PARAMETER.);
#172=(BOUNDED_CURVE()B_SPLINE_CURVE(3,(#252,#253,#254,#255,#256,#257,#258,#259,#260,
     #261,#262,#263,#264,#265,#266,#267,#268,#269,#270),.UNSPECIFIED.,.T.,.F.)
     B_SPLINE_CURVE_WITH_KNOTS((1,3,3,3,3,3,3,3,1),(-0.01736667066162,0.0,0.315966662671713,
     0.333333333333333,0.649299996005047,0.666666666666667,0.98263332933838,1.0,
     1.31596666267171),.UNSPECIFIED.)CURVE()GEOMETRIC_REPRESENTATION_ITEM()
     RATIONAL_B_SPLINE_CURVE((0.666666666666667,0.666666666666667,0.666666666666667,
     0.666666666666667,0.444444444444444,0.444444444444444,0.666666666666667,0.666666666666667,
     0.666666666666667,0.666666666666667,0.444444444444444,0.444444444444444,0.666666666666667,
     0.666666666666667,0.666666666666667,0.666666666666667,0.444444444444444,0.444444444444444,
     0.666666666666667))REPRESENTATION_ITEM('CUTTING EDGE LINE'));
#173=PRESENTATION_LAYER_ASSIGNMENT('1','Layer 1',(#171,#193,#194,#31));
#176=STYLED_ITEM('',(#182),#171);
#177=STYLED_ITEM('',(#183),#193);
#178=STYLED_ITEM('',(#184),#194);
#179=STYLED_ITEM('',(#185),#31);
#180=PRESENTATION_STYLE_ASSIGNMENT((#186));
#181=PRESENTATION_STYLE_ASSIGNMENT((#187));
#182=PRESENTATION_STYLE_ASSIGNMENT((#164));
#183=PRESENTATION_STYLE_ASSIGNMENT((#165));
#184=PRESENTATION_STYLE_ASSIGNMENT((#166));
#185=PRESENTATION_STYLE_ASSIGNMENT((#26));
#186=POINT_STYLE('',#188,POSITIVE_LENGTH_MEASURE(3.0),#190);
#187=POINT_STYLE('',#189,POSITIVE_LENGTH_MEASURE(3.0),#190);
#188=PRE_DEFINED_POINT_MARKER_SYMBOL('plus');
#189=PRE_DEFINED_POINT_MARKER_SYMBOL('plus');
#190=COLOUR_RGB('Medium Maroon',0.6,0.4,0.4);
#191=COLOUR_RGB('IsoInsertColor',0.8,0.8,0.8);
#192=AXIS2_PLACEMENT_3D('',#249,#206,#207);
#193=AXIS2_PLACEMENT_3D('PCS',#271,#208,#209);
#194=AXIS2_PLACEMENT_3D('MCS',#272,#210,#211);
#195=AXIS2_PLACEMENT_3D('',#279,#215,#216);
#196=AXIS2_PLACEMENT_3D('',#289,#222,#223);
#197=AXIS2_PLACEMENT_3D('',#297,#228,#229);
#198=AXIS2_PLACEMENT_3D('',#303,#233,#234);
#199=AXIS2_PLACEMENT_3D('',#304,#235,#236);
#200=AXIS2_PLACEMENT_3D('',#305,#237,#238);
#201=AXIS2_PLACEMENT_3D('',#306,#239,#240);
#202=AXIS2_PLACEMENT_3D('',#307,#241,#242);
#203=AXIS2_PLACEMENT_3D('',#308,#243,#244);
#204=AXIS2_PLACEMENT_3D('',#309,#245,#246);
#205=AXIS2_PLACEMENT_3D('',#310,#247,#248);
#206=DIRECTION('',(0.0,0.0,1.0));
#207=DIRECTION('',(1.0,0.0,0.0));
#208=DIRECTION('',(0.0,0.0,1.0));
#209=DIRECTION('',(1.0,0.0,0.0));
#210=DIRECTION('',(0.0,0.0,1.0));
#211=DIRECTION('',(1.0,0.0,0.0));
#212=DIRECTION('',(0.500000000000001,-0.866025403784438,0.0));
#213=DIRECTION('',(-1.0,-1.66533453693773E-15,0.0));
#214=DIRECTION('',(0.500000000000001,0.866025403784439,0.0));
#215=DIRECTION('',(0.0,0.0,1.0));
#216=DIRECTION('',(-0.866025403784439,-0.5,0.0));
#217=DIRECTION('',(-0.509677372062341,-0.294262367960053,0.808479211365493));
#218=DIRECTION('',(-0.296198132726024,0.171010071662835,0.939692620785908));
#219=DIRECTION('',(-0.500000000000001,-0.866025403784438,2.17043854476646E-16));
#220=DIRECTION('',(0.296198132726024,-0.171010071662835,-0.939692620785908));
#221=DIRECTION('',(-5.55111512312578E-17,0.588524735920106,0.808479211365493));
#222=DIRECTION('',(0.813797681349374,-0.469846310392955,0.342020143325669));
#223=DIRECTION('',(0.500000000000001,0.866025403784439,0.0));
#224=DIRECTION('',(0.50967737206234,-0.294262367960052,0.808479211365494));
#225=DIRECTION('',(4.71844785465692E-16,-0.342020143325668,0.939692620785909));
#226=DIRECTION('',(1.0,1.60982338570648E-15,1.38308075373198E-16));
#227=DIRECTION('',(-4.71844785465692E-16,0.342020143325668,-0.939692620785909));
#228=DIRECTION('',(-1.60982338570648E-15,0.939692620785909,0.342020143325668));
#229=DIRECTION('',(-1.0,-1.66533453693773E-15,0.0));
#230=DIRECTION('',(-0.500000000000001,0.866025403784438,-3.56664995199752E-16));
#231=DIRECTION('',(-0.296198132726024,-0.171010071662835,-0.939692620785908));
#232=DIRECTION('',(0.296198132726024,0.171010071662835,0.939692620785908));
#233=DIRECTION('',(-0.813797681349374,-0.469846310392955,0.342020143325669));
#234=DIRECTION('',(-0.296198132726024,-0.171010071662834,-0.939692620785908));
#235=DIRECTION('',(-1.33749373199907E-16,3.34621025357277E-16,1.0));
#236=DIRECTION('',(-0.500000000000001,0.866025403784438,-3.56664995199752E-16));
#237=DIRECTION('',(-1.33749373199907E-16,3.34621025357277E-16,1.0));
#238=DIRECTION('',(-0.500000000000001,0.866025403784438,-3.56664995199753E-16));
#239=DIRECTION('',(-1.33749373199907E-16,3.34621025357277E-16,1.0));
#240=DIRECTION('',(-0.5,0.866025403784439,-3.56664995199753E-16));
#241=DIRECTION('',(-1.33749373199907E-16,3.34621025357277E-16,1.0));
#242=DIRECTION('',(-0.5,0.866025403784439,-3.56664995199752E-16));
#243=DIRECTION('',(-1.33749373199907E-16,3.34621025357277E-16,1.0));
#244=DIRECTION('',(-0.5,0.866025403784439,-3.04699023701956E-16));
#245=DIRECTION('',(-1.33749373199907E-16,3.34621025357277E-16,1.0));
#246=DIRECTION('',(-0.5,0.866025403784439,-2.99938101456613E-16));
#247=DIRECTION('',(-1.33749373199907E-16,3.34621025357277E-16,1.0));
#248=DIRECTION('',(-0.5,0.866025403784439,-2.90416256965927E-16));
#249=CARTESIAN_POINT('',(0.0,0.0,0.0));
#252=CARTESIAN_POINT('',(16.1540801099666,0.595312500000008,0.0));
#253=CARTESIAN_POINT('',(13.6335853410356,4.96093749999999,0.0));
#254=CARTESIAN_POINT('',(11.1130905721047,9.32656249999997,1.93755762463084E-15));
#255=CARTESIAN_POINT('',(8.59259580317372,13.6921875,-1.0215593802974E-17));
#256=CARTESIAN_POINT('',(8.42074388711025,13.98984375,-1.43018313241642E-16));
#257=CARTESIAN_POINT('',(8.0770400549833,13.98984375,-6.00166135924754E-17));
#258=CARTESIAN_POINT('',(7.90518813891983,13.6921875,-5.618576591636E-17));
#259=CARTESIAN_POINT('',(5.38469336998887,9.32656249999997,0.0));
#260=CARTESIAN_POINT('',(2.86419860105793,4.96093749999996,-3.55843184136938E-16));
#261=CARTESIAN_POINT('',(0.343703832126943,0.595312499999984,-5.61857659163598E-17));
#262=CARTESIAN_POINT('',(0.171851916063468,0.297656249999987,-3.57545783104114E-17));
#263=CARTESIAN_POINT('',(0.343703832126941,-1.49880108324396E-14,7.09287251547431E-17));
#264=CARTESIAN_POINT('',(0.687407664253885,-1.33226762955019E-14,6.6401359719334E-17));
#265=CARTESIAN_POINT('',(5.72839720211581,-3.99680288865056E-15,0.0));
#266=CARTESIAN_POINT('',(10.7693867399777,2.66453525910038E-15,-1.5817144404939E-15));
#267=CARTESIAN_POINT('',(15.8103762778396,1.46549439250521E-14,6.64013597193341E-17));
#268=CARTESIAN_POINT('',(16.1540801099666,1.49880108324396E-14,1.78772891552053E-16));
#269=CARTESIAN_POINT('',(16.3259320260301,0.297656250000013,1.02155938029745E-16));
#270=CARTESIAN_POINT('',(16.1540801099666,0.59531250000001,-2.04311876059489E-17));
#271=CARTESIAN_POINT('',(0.0,0.0,0.0));
#272=CARTESIAN_POINT('',(8.24889197104677,4.7625,0.0));
#273=CARTESIAN_POINT('',(11.3725542421907,6.56594725310239,-3.175));
#274=CARTESIAN_POINT('',(8.24889197104677,11.9762890124096,-3.175));
#275=CARTESIAN_POINT('',(14.4962165133345,1.1556054937952,-3.175));
#276=CARTESIAN_POINT('',(6.32243199197522,1.15560549379519,-3.175));
#277=CARTESIAN_POINT('',(2.00156742875899,1.15560549379518,-3.175));
#278=CARTESIAN_POINT('',(4.16199971036711,4.89758397185239,-3.175));
#279=CARTESIAN_POINT('',(8.11163244462761,4.25024047358083,-3.175));
#280=CARTESIAN_POINT('',(1.64238463014857,0.948231208329172,-2.6052438333066));
#281=CARTESIAN_POINT('',(0.687407664253887,0.396874999999984,-1.09040510084604));
#282=CARTESIAN_POINT('',(0.343703832126943,0.595312499999984,-1.8901233735678E-15));
#283=CARTESIAN_POINT('',(0.343703832126943,0.595312499999984,-2.10913462620847E-15));
#284=CARTESIAN_POINT('',(4.1244459855234,7.14375,-3.79470760369927E-15));
#285=CARTESIAN_POINT('',(7.90518813891982,13.6921875,-5.48028058119006E-15));
#286=CARTESIAN_POINT('',(7.90518813891982,13.6921875,-5.13385242529403E-15));
#287=CARTESIAN_POINT('',(8.24889197104677,13.49375,-1.09040510084605));
#288=CARTESIAN_POINT('',(8.24889197104677,11.8131810002826,-3.39906779012547));
#289=CARTESIAN_POINT('',(3.16121599598761,5.47538671874999,-3.36526957920673E-15));
#290=CARTESIAN_POINT('',(13.8545223505987,1.52608779138818,-4.19289174694436));
#291=CARTESIAN_POINT('',(15.8103762778396,0.39687500000001,-1.09040510084604));
#292=CARTESIAN_POINT('',(15.8103762778396,1.56125112837913E-14,4.13732914769306E-16));
#293=CARTESIAN_POINT('',(15.8103762778396,1.56125112837913E-14,1.58727198051878E-16));
#294=CARTESIAN_POINT('',(8.24889197104678,8.67361737988404E-16,-8.52616588442599E-16));
#295=CARTESIAN_POINT('',(0.687407664253887,-1.04083408558608E-14,-1.86396037493708E-15));
#296=CARTESIAN_POINT('',(0.687407664253887,-1.04083408558608E-14,-1.56808120081252E-15));
#297=CARTESIAN_POINT('',(6.32243199197522,-1.73472347597681E-15,-1.11027940313813E-15));
#298=CARTESIAN_POINT('',(12.3733379565701,7.14375,-2.69142347297802E-15));
#299=CARTESIAN_POINT('',(16.1540801099666,0.595312500000009,5.49329100726169E-18));
#300=CARTESIAN_POINT('',(8.59259580317372,13.6921875,-5.38834023696329E-15));
#301=CARTESIAN_POINT('',(16.1540801099666,0.595312500000009,1.38007076908796E-16));
#302=CARTESIAN_POINT('',(8.59259580317372,13.6921875,-5.13537948015874E-15));
#303=CARTESIAN_POINT('',(12.3733379565702,7.14374999999999,-2.69142347297802E-15));
#304=CARTESIAN_POINT('',(15.8103762778396,0.39687500000001,2.59244786132105E-17));
#305=CARTESIAN_POINT('',(8.24889197104677,13.49375,-5.36790904935734E-15));
#306=CARTESIAN_POINT('',(0.687407664253888,0.396874999999984,-1.99676309437575E-15));
#307=CARTESIAN_POINT('',(8.24889197104677,4.7625,-2.44624922170663E-15));
#308=CARTESIAN_POINT('',(15.8103762778396,0.39687500000001,0.0));
#309=CARTESIAN_POINT('',(0.687407664253888,0.396874999999984,-1.73472347597681E-15));
#310=CARTESIAN_POINT('',(8.24889197104677,13.49375,-5.20417042793042E-15));
#311=MECHANICAL_DESIGN_GEOMETRIC_PRESENTATION_REPRESENTATION('',(#176,#177,#178,
     #179),#312);
#312=(GEOMETRIC_REPRESENTATION_CONTEXT(3)GLOBAL_UNCERTAINTY_ASSIGNED_CONTEXT((#313))
     GLOBAL_UNIT_ASSIGNED_CONTEXT((#319,#315,#314))REPRESENTATION_CONTEXT('TEGN160304',
     'TOP_LEVEL_ASSEMBLY_PART'));
#313=UNCERTAINTY_MEASURE_WITH_UNIT(LENGTH_MEASURE(2.0E-5),#319,'DISTANCE_ACCURACY_VALUE',
     'Maximum Tolerance applied to model');
#314=(NAMED_UNIT(*)SI_UNIT($,.STERADIAN.)SOLID_ANGLE_UNIT());
#315=(CONVERSION_BASED_UNIT('DEGREE',#317)NAMED_UNIT(#316)PLANE_ANGLE_UNIT());
#316=DIMENSIONAL_EXPONENTS(0.0,0.0,0.0,0.0,0.0,0.0,0.0);
#317=PLANE_ANGLE_MEASURE_WITH_UNIT(PLANE_ANGLE_MEASURE(0.0174532925),#318);
#318=(NAMED_UNIT(*)PLANE_ANGLE_UNIT()SI_UNIT($,.RADIAN.));
#319=(LENGTH_UNIT()NAMED_UNIT(*)SI_UNIT(.MILLI.,.METRE.));
#320=CONSTRUCTIVE_GEOMETRY_REPRESENTATION('supplemental geometry',(#193,#194),#312);
#321=CONSTRUCTIVE_GEOMETRY_REPRESENTATION_RELATIONSHIP('supplemental geometry','contains PCS and MCS coordinate systems',
     #24,#320);
ENDSEC;
END-ISO-10303-21;
