ISO-10303-21;
HEADER;
FILE_DESCRIPTION(
/* description */ (''),
/* implementation_level */ '2;1');
FILE_NAME(
/* name */ 'SNMM120412.stp',
/* time_stamp */ '2017-03-21T10:54:20',
/* author */ ('Sandvik Coromant R&D'),
/* organization */ ('Sandvik Machining Solutions'),
/* preprocessor_version */ 'ST-DEVELOPER v15',
/* originating_system */ 'SIEMENS PLM Software NX v8.5.3.3(64 bits)',
/* authorization */ '');
FILE_SCHEMA(('AUTOMOTIVE_DESIGN'));
ENDSEC;
DATA;
#10=GEOMETRICALLY_BOUNDED_WIREFRAME_SHAPE_REPRESENTATION('IsoTurningInsert-None',
     (#25),#459);
#11=SHAPE_REPRESENTATION_RELATIONSHIP('None','relationship between IsoTurningInsert-None and IsoTurningInsert-None',
     #24,#13);
#12=SHAPE_REPRESENTATION_RELATIONSHIP('None','relationship between IsoTurningInsert-None and IsoTurningInsert-None',
     #24,#10);
#13=ADVANCED_BREP_SHAPE_REPRESENTATION('IsoTurningInsert-None',(#31),#459);
#14=SHAPE_DEFINITION_REPRESENTATION(#15,#24);
#15=PRODUCT_DEFINITION_SHAPE('','',#16);
#16=PRODUCT_DEFINITION(' ','',#18,#17);
#17=PRODUCT_DEFINITION_CONTEXT('part definition',#23,'design');
#18=PRODUCT_DEFINITION_FORMATION_WITH_SPECIFIED_SOURCE(' ',' ',#20,.NOT_KNOWN.);
#19=PRODUCT_RELATED_PRODUCT_CATEGORY('part','',(#20));
#20=PRODUCT('IsoTurningInsert','IsoTurningInsert',' ',(#21));
#21=PRODUCT_CONTEXT(' ',#23,'mechanical');
#22=APPLICATION_PROTOCOL_DEFINITION('international standard','automotive_design',
     2010,#23);
#23=APPLICATION_CONTEXT('core data for automotive mechanical design processes');
#24=SHAPE_REPRESENTATION('IsoTurningInsert-None',(#248),#459);
#25=GEOMETRIC_CURVE_SET('geometric curve set',(#228));
#26=SURFACE_STYLE_USAGE(.BOTH.,#27);
#27=SURFACE_SIDE_STYLE('',(#28));
#28=SURFACE_STYLE_FILL_AREA(#29);
#29=FILL_AREA_STYLE('',(#30));
#30=FILL_AREA_STYLE_COLOUR('',#247);
#31=MANIFOLD_SOLID_BREP('CUT',#32);
#32=CLOSED_SHELL('',(#46,#47,#48,#49,#50,#51,#52,#53,#54,#55,#56));
#33=CYLINDRICAL_SURFACE('',#267,1.190625);
#34=CYLINDRICAL_SURFACE('',#268,1.190625);
#35=CYLINDRICAL_SURFACE('',#269,1.190625);
#36=CYLINDRICAL_SURFACE('',#270,1.190625);
#37=CYLINDRICAL_SURFACE('',#271,2.578);
#38=FACE_OUTER_BOUND('',#103,.T.);
#39=FACE_OUTER_BOUND('',#104,.T.);
#40=FACE_OUTER_BOUND('',#105,.T.);
#41=FACE_OUTER_BOUND('',#106,.T.);
#42=FACE_OUTER_BOUND('',#109,.T.);
#43=FACE_OUTER_BOUND('',#110,.T.);
#44=FACE_OUTER_BOUND('',#111,.T.);
#45=FACE_OUTER_BOUND('',#112,.T.);
#46=ADVANCED_FACE('',(#95,#96),#57,.F.);
#47=ADVANCED_FACE('',(#38),#58,.T.);
#48=ADVANCED_FACE('',(#39),#59,.T.);
#49=ADVANCED_FACE('',(#40),#60,.T.);
#50=ADVANCED_FACE('',(#41),#61,.T.);
#51=ADVANCED_FACE('',(#97,#98),#62,.T.);
#52=ADVANCED_FACE('',(#42),#33,.T.);
#53=ADVANCED_FACE('',(#43),#34,.T.);
#54=ADVANCED_FACE('',(#44),#35,.T.);
#55=ADVANCED_FACE('',(#45),#36,.T.);
#56=ADVANCED_FACE('',(#99,#100),#37,.F.);
#57=PLANE('',#256);
#58=PLANE('',#257);
#59=PLANE('',#258);
#60=PLANE('',#259);
#61=PLANE('',#260);
#62=PLANE('',#266);
#63=LINE('',#405,#79);
#64=LINE('',#410,#80);
#65=LINE('',#414,#81);
#66=LINE('',#418,#82);
#67=LINE('',#422,#83);
#68=LINE('',#425,#84);
#69=LINE('',#426,#85);
#70=LINE('',#428,#86);
#71=LINE('',#430,#87);
#72=LINE('',#432,#88);
#73=LINE('',#434,#89);
#74=LINE('',#436,#90);
#75=LINE('',#438,#91);
#76=LINE('',#440,#92);
#77=LINE('',#442,#93);
#78=LINE('',#444,#94);
#79=VECTOR('',#280,1.0);
#80=VECTOR('',#283,1.0);
#81=VECTOR('',#286,1.0);
#82=VECTOR('',#289,1.0);
#83=VECTOR('',#294,1.0);
#84=VECTOR('',#295,1.0);
#85=VECTOR('',#296,1.0);
#86=VECTOR('',#299,1.0);
#87=VECTOR('',#300,1.0);
#88=VECTOR('',#301,1.0);
#89=VECTOR('',#304,1.0);
#90=VECTOR('',#305,1.0);
#91=VECTOR('',#306,1.0);
#92=VECTOR('',#309,1.0);
#93=VECTOR('',#310,1.0);
#94=VECTOR('',#311,1.0);
#95=FACE_BOUND('',#101,.T.);
#96=FACE_BOUND('',#102,.T.);
#97=FACE_BOUND('',#107,.T.);
#98=FACE_BOUND('',#108,.T.);
#99=FACE_BOUND('',#113,.T.);
#100=FACE_BOUND('',#114,.T.);
#101=EDGE_LOOP('',(#115));
#102=EDGE_LOOP('',(#116,#117,#118,#119,#120,#121,#122,#123));
#103=EDGE_LOOP('',(#124,#125,#126,#127));
#104=EDGE_LOOP('',(#128,#129,#130,#131));
#105=EDGE_LOOP('',(#132,#133,#134,#135));
#106=EDGE_LOOP('',(#136,#137,#138,#139));
#107=EDGE_LOOP('',(#140));
#108=EDGE_LOOP('',(#141,#142,#143,#144,#145,#146,#147,#148));
#109=EDGE_LOOP('',(#149,#150,#151,#152));
#110=EDGE_LOOP('',(#153,#154,#155,#156));
#111=EDGE_LOOP('',(#157,#158,#159,#160));
#112=EDGE_LOOP('',(#161,#162,#163,#164));
#113=EDGE_LOOP('',(#165));
#114=EDGE_LOOP('',(#166));
#115=ORIENTED_EDGE('',*,*,#185,.T.);
#116=ORIENTED_EDGE('',*,*,#186,.T.);
#117=ORIENTED_EDGE('',*,*,#187,.T.);
#118=ORIENTED_EDGE('',*,*,#188,.T.);
#119=ORIENTED_EDGE('',*,*,#189,.T.);
#120=ORIENTED_EDGE('',*,*,#190,.T.);
#121=ORIENTED_EDGE('',*,*,#191,.T.);
#122=ORIENTED_EDGE('',*,*,#192,.T.);
#123=ORIENTED_EDGE('',*,*,#193,.T.);
#124=ORIENTED_EDGE('',*,*,#194,.F.);
#125=ORIENTED_EDGE('',*,*,#195,.T.);
#126=ORIENTED_EDGE('',*,*,#186,.F.);
#127=ORIENTED_EDGE('',*,*,#196,.T.);
#128=ORIENTED_EDGE('',*,*,#192,.F.);
#129=ORIENTED_EDGE('',*,*,#197,.T.);
#130=ORIENTED_EDGE('',*,*,#198,.F.);
#131=ORIENTED_EDGE('',*,*,#199,.T.);
#132=ORIENTED_EDGE('',*,*,#190,.F.);
#133=ORIENTED_EDGE('',*,*,#200,.T.);
#134=ORIENTED_EDGE('',*,*,#201,.F.);
#135=ORIENTED_EDGE('',*,*,#202,.T.);
#136=ORIENTED_EDGE('',*,*,#188,.F.);
#137=ORIENTED_EDGE('',*,*,#203,.T.);
#138=ORIENTED_EDGE('',*,*,#204,.F.);
#139=ORIENTED_EDGE('',*,*,#205,.T.);
#140=ORIENTED_EDGE('',*,*,#206,.F.);
#141=ORIENTED_EDGE('',*,*,#204,.T.);
#142=ORIENTED_EDGE('',*,*,#207,.T.);
#143=ORIENTED_EDGE('',*,*,#194,.T.);
#144=ORIENTED_EDGE('',*,*,#208,.T.);
#145=ORIENTED_EDGE('',*,*,#198,.T.);
#146=ORIENTED_EDGE('',*,*,#209,.T.);
#147=ORIENTED_EDGE('',*,*,#201,.T.);
#148=ORIENTED_EDGE('',*,*,#210,.T.);
#149=ORIENTED_EDGE('',*,*,#187,.F.);
#150=ORIENTED_EDGE('',*,*,#195,.F.);
#151=ORIENTED_EDGE('',*,*,#207,.F.);
#152=ORIENTED_EDGE('',*,*,#203,.F.);
#153=ORIENTED_EDGE('',*,*,#189,.F.);
#154=ORIENTED_EDGE('',*,*,#205,.F.);
#155=ORIENTED_EDGE('',*,*,#210,.F.);
#156=ORIENTED_EDGE('',*,*,#200,.F.);
#157=ORIENTED_EDGE('',*,*,#191,.F.);
#158=ORIENTED_EDGE('',*,*,#202,.F.);
#159=ORIENTED_EDGE('',*,*,#209,.F.);
#160=ORIENTED_EDGE('',*,*,#197,.F.);
#161=ORIENTED_EDGE('',*,*,#193,.F.);
#162=ORIENTED_EDGE('',*,*,#199,.F.);
#163=ORIENTED_EDGE('',*,*,#208,.F.);
#164=ORIENTED_EDGE('',*,*,#196,.F.);
#165=ORIENTED_EDGE('',*,*,#185,.F.);
#166=ORIENTED_EDGE('',*,*,#206,.T.);
#167=VERTEX_POINT('',#404);
#168=VERTEX_POINT('',#406);
#169=VERTEX_POINT('',#407);
#170=VERTEX_POINT('',#409);
#171=VERTEX_POINT('',#411);
#172=VERTEX_POINT('',#413);
#173=VERTEX_POINT('',#415);
#174=VERTEX_POINT('',#417);
#175=VERTEX_POINT('',#419);
#176=VERTEX_POINT('',#423);
#177=VERTEX_POINT('',#424);
#178=VERTEX_POINT('',#429);
#179=VERTEX_POINT('',#431);
#180=VERTEX_POINT('',#435);
#181=VERTEX_POINT('',#437);
#182=VERTEX_POINT('',#441);
#183=VERTEX_POINT('',#443);
#184=VERTEX_POINT('',#447);
#185=EDGE_CURVE('',#167,#167,#211,.T.);
#186=EDGE_CURVE('',#168,#169,#63,.T.);
#187=EDGE_CURVE('',#169,#170,#212,.T.);
#188=EDGE_CURVE('',#170,#171,#64,.T.);
#189=EDGE_CURVE('',#171,#172,#213,.T.);
#190=EDGE_CURVE('',#172,#173,#65,.T.);
#191=EDGE_CURVE('',#173,#174,#214,.T.);
#192=EDGE_CURVE('',#174,#175,#66,.T.);
#193=EDGE_CURVE('',#175,#168,#215,.T.);
#194=EDGE_CURVE('',#176,#177,#67,.T.);
#195=EDGE_CURVE('',#176,#169,#68,.T.);
#196=EDGE_CURVE('',#168,#177,#69,.T.);
#197=EDGE_CURVE('',#174,#178,#70,.T.);
#198=EDGE_CURVE('',#179,#178,#71,.T.);
#199=EDGE_CURVE('',#179,#175,#72,.T.);
#200=EDGE_CURVE('',#172,#180,#73,.T.);
#201=EDGE_CURVE('',#181,#180,#74,.T.);
#202=EDGE_CURVE('',#181,#173,#75,.T.);
#203=EDGE_CURVE('',#170,#182,#76,.T.);
#204=EDGE_CURVE('',#183,#182,#77,.T.);
#205=EDGE_CURVE('',#183,#171,#78,.T.);
#206=EDGE_CURVE('',#184,#184,#216,.T.);
#207=EDGE_CURVE('',#182,#176,#217,.T.);
#208=EDGE_CURVE('',#177,#179,#218,.T.);
#209=EDGE_CURVE('',#178,#181,#219,.T.);
#210=EDGE_CURVE('',#180,#183,#220,.T.);
#211=CIRCLE('',#251,2.578);
#212=CIRCLE('',#252,1.190625);
#213=CIRCLE('',#253,1.190625);
#214=CIRCLE('',#254,1.190625);
#215=CIRCLE('',#255,1.190625);
#216=CIRCLE('',#261,2.578);
#217=CIRCLE('',#262,1.190625);
#218=CIRCLE('',#263,1.190625);
#219=CIRCLE('',#264,1.190625);
#220=CIRCLE('',#265,1.190625);
#221=CURVE_STYLE('',#225,POSITIVE_LENGTH_MEASURE(0.18),#224);
#222=CURVE_STYLE('',#226,POSITIVE_LENGTH_MEASURE(0.18),#246);
#223=CURVE_STYLE('',#227,POSITIVE_LENGTH_MEASURE(0.18),#246);
#224=DRAUGHTING_PRE_DEFINED_COLOUR('blue');
#225=DRAUGHTING_PRE_DEFINED_CURVE_FONT('continuous');
#226=DRAUGHTING_PRE_DEFINED_CURVE_FONT('continuous');
#227=DRAUGHTING_PRE_DEFINED_CURVE_FONT('continuous');
#228=B_SPLINE_CURVE_WITH_KNOTS('CUTTING EDGE LINE',5,(#339,#340,#341,#342,#343,#344,
     #345,#346,#347,#348,#349,#350,#351,#352,#353,#354,#355,#356,#357,#358,#359,
     #360,#361,#362,#363,#364,#365,#366,#367,#368,#369,#370,#371,#372,#373,#374,
     #375,#376,#377,#378,#379,#380,#381,#382,#383,#384,#385,#386,#387,#388,#389,
     #390,#391,#392,#393,#394,#395,#396,#397,#398,#399,#400),.UNSPECIFIED.,.T.,.F.,
     (2,4,1,1,1,1,1,1,1,4,4,1,1,1,1,1,1,1,4,4,1,1,1,1,1,1,1,4,4,1,1,1,1,1,1,1,4,
     4,1,1),(-0.2116409767,0.0,0.0047948779125,0.00958975582499999,0.0143846337375,
     0.01917951165,0.0239743895625,0.028769267475,0.0335641453875,0.0383590233,0.25,
     0.2547948779125,0.259589755825,0.2643846337375,0.26917951165,0.2739743895625,
     0.278769267475,0.2835641453875,0.2883590233,0.5,0.5047948779125,0.509589755825,
     0.5143846337375,0.51917951165,0.5239743895625,0.528769267475,0.5335641453875,
     0.5383590233,0.75,0.7547948779125,0.759589755825,0.7643846337375,0.76917951165,
     0.7739743895625,0.778769267475,0.7835641453875,0.7883590233,1.0,1.0047948779125,
     1.009589755825),.UNSPECIFIED.);
#229=PRESENTATION_LAYER_ASSIGNMENT('1','Layer 1',(#228,#249,#250,#31));
#232=STYLED_ITEM('',(#238),#228);
#233=STYLED_ITEM('',(#239),#249);
#234=STYLED_ITEM('',(#240),#250);
#235=STYLED_ITEM('',(#241),#31);
#236=PRESENTATION_STYLE_ASSIGNMENT((#242));
#237=PRESENTATION_STYLE_ASSIGNMENT((#243));
#238=PRESENTATION_STYLE_ASSIGNMENT((#221));
#239=PRESENTATION_STYLE_ASSIGNMENT((#222));
#240=PRESENTATION_STYLE_ASSIGNMENT((#223));
#241=PRESENTATION_STYLE_ASSIGNMENT((#26));
#242=POINT_STYLE('',#244,POSITIVE_LENGTH_MEASURE(3.0),#246);
#243=POINT_STYLE('',#245,POSITIVE_LENGTH_MEASURE(3.0),#246);
#244=PRE_DEFINED_POINT_MARKER_SYMBOL('plus');
#245=PRE_DEFINED_POINT_MARKER_SYMBOL('plus');
#246=COLOUR_RGB('Medium Maroon',0.6,0.4,0.4);
#247=COLOUR_RGB('IsoInsertColor',0.8,0.8,0.8);
#248=AXIS2_PLACEMENT_3D('',#336,#272,#273);
#249=AXIS2_PLACEMENT_3D('PCS',#401,#274,#275);
#250=AXIS2_PLACEMENT_3D('MCS',#402,#276,#277);
#251=AXIS2_PLACEMENT_3D('',#403,#278,#279);
#252=AXIS2_PLACEMENT_3D('',#408,#281,#282);
#253=AXIS2_PLACEMENT_3D('',#412,#284,#285);
#254=AXIS2_PLACEMENT_3D('',#416,#287,#288);
#255=AXIS2_PLACEMENT_3D('',#420,#290,#291);
#256=AXIS2_PLACEMENT_3D('',#421,#292,#293);
#257=AXIS2_PLACEMENT_3D('',#427,#297,#298);
#258=AXIS2_PLACEMENT_3D('',#433,#302,#303);
#259=AXIS2_PLACEMENT_3D('',#439,#307,#308);
#260=AXIS2_PLACEMENT_3D('',#445,#312,#313);
#261=AXIS2_PLACEMENT_3D('',#446,#314,#315);
#262=AXIS2_PLACEMENT_3D('',#448,#316,#317);
#263=AXIS2_PLACEMENT_3D('',#449,#318,#319);
#264=AXIS2_PLACEMENT_3D('',#450,#320,#321);
#265=AXIS2_PLACEMENT_3D('',#451,#322,#323);
#266=AXIS2_PLACEMENT_3D('',#452,#324,#325);
#267=AXIS2_PLACEMENT_3D('',#453,#326,#327);
#268=AXIS2_PLACEMENT_3D('',#454,#328,#329);
#269=AXIS2_PLACEMENT_3D('',#455,#330,#331);
#270=AXIS2_PLACEMENT_3D('',#456,#332,#333);
#271=AXIS2_PLACEMENT_3D('',#457,#334,#335);
#272=DIRECTION('',(0.0,0.0,1.0));
#273=DIRECTION('',(1.0,0.0,0.0));
#274=DIRECTION('',(0.0,0.0,1.0));
#275=DIRECTION('',(1.0,0.0,0.0));
#276=DIRECTION('',(0.0,0.0,1.0));
#277=DIRECTION('',(1.0,0.0,0.0));
#278=DIRECTION('',(0.0,0.0,1.0));
#279=DIRECTION('',(-0.707106781186547,-0.707106781186547,0.0));
#280=DIRECTION('',(1.0,-5.55111512312578E-16,0.0));
#281=DIRECTION('',(0.0,0.0,-1.0));
#282=DIRECTION('',(-0.707106781186548,-0.707106781186548,0.0));
#283=DIRECTION('',(-1.11022302462516E-16,-1.0,0.0));
#284=DIRECTION('',(0.0,0.0,-1.0));
#285=DIRECTION('',(-0.707106781186548,-0.707106781186547,0.0));
#286=DIRECTION('',(-1.0,0.0,0.0));
#287=DIRECTION('',(0.0,0.0,-1.0));
#288=DIRECTION('',(-0.707106781186548,-0.707106781186547,0.0));
#289=DIRECTION('',(0.0,1.0,0.0));
#290=DIRECTION('',(0.0,0.0,-1.0));
#291=DIRECTION('',(-0.707106781186548,-0.707106781186548,0.0));
#292=DIRECTION('',(0.0,0.0,1.0));
#293=DIRECTION('',(-0.707106781186548,-0.707106781186547,0.0));
#294=DIRECTION('',(-1.0,5.55111512312578E-16,-1.04902962956708E-16));
#295=DIRECTION('',(1.04902962956707E-16,-3.68253109545943E-16,-1.0));
#296=DIRECTION('',(-1.04902962956707E-16,3.68253109545943E-16,1.0));
#297=DIRECTION('',(5.55111512312578E-16,1.0,-3.68253109545943E-16));
#298=DIRECTION('',(-1.0,5.55111512312578E-16,0.0));
#299=DIRECTION('',(-1.04902962956707E-16,3.68253109545943E-16,1.0));
#300=DIRECTION('',(0.0,-1.0,3.68253109545943E-16));
#301=DIRECTION('',(1.04902962956707E-16,-3.68253109545943E-16,-1.0));
#302=DIRECTION('',(-1.0,0.0,-1.04902962956707E-16));
#303=DIRECTION('',(0.0,-1.0,0.0));
#304=DIRECTION('',(-1.04902962956707E-16,3.68253109545943E-16,1.0));
#305=DIRECTION('',(1.0,0.0,1.04902962956707E-16));
#306=DIRECTION('',(1.04902962956707E-16,-3.68253109545943E-16,-1.0));
#307=DIRECTION('',(0.0,-1.0,3.68253109545943E-16));
#308=DIRECTION('',(1.0,0.0,0.0));
#309=DIRECTION('',(-1.04902962956707E-16,3.68253109545943E-16,1.0));
#310=DIRECTION('',(1.11022302462516E-16,1.0,-3.68253109545943E-16));
#311=DIRECTION('',(1.04902962956707E-16,-3.68253109545943E-16,-1.0));
#312=DIRECTION('',(1.0,-1.11022302462516E-16,1.04902962956708E-16));
#313=DIRECTION('',(1.11022302462516E-16,1.0,0.0));
#314=DIRECTION('',(0.0,0.0,1.0));
#315=DIRECTION('',(-0.707106781186548,-0.707106781186548,0.0));
#316=DIRECTION('',(-1.04902962956707E-16,3.68253109545943E-16,1.0));
#317=DIRECTION('',(-0.707106781186548,0.707106781186548,-3.34571867426218E-16));
#318=DIRECTION('',(-1.04902962956707E-16,3.68253109545943E-16,1.0));
#319=DIRECTION('',(-0.707106781186547,0.707106781186548,-3.34571867426218E-16));
#320=DIRECTION('',(-1.04902962956707E-16,3.68253109545943E-16,1.0));
#321=DIRECTION('',(-0.707106781186547,0.707106781186548,-3.34571867426217E-16));
#322=DIRECTION('',(-1.04902962956707E-16,3.68253109545943E-16,1.0));
#323=DIRECTION('',(-0.707106781186548,0.707106781186548,-3.34571867426218E-16));
#324=DIRECTION('',(-1.04902962956707E-16,3.68253109545943E-16,1.0));
#325=DIRECTION('',(-0.707106781186547,0.707106781186548,-3.34571867426218E-16));
#326=DIRECTION('',(-1.04902962956707E-16,3.68253109545943E-16,1.0));
#327=DIRECTION('',(-0.707106781186548,0.707106781186548,-3.34571867426218E-16));
#328=DIRECTION('',(-1.04902962956707E-16,3.68253109545943E-16,1.0));
#329=DIRECTION('',(-0.707106781186548,0.707106781186548,-3.34571867426218E-16));
#330=DIRECTION('',(-1.04902962956707E-16,3.68253109545943E-16,1.0));
#331=DIRECTION('',(-0.707106781186547,0.707106781186548,-3.34571867426218E-16));
#332=DIRECTION('',(-1.04902962956707E-16,3.68253109545943E-16,1.0));
#333=DIRECTION('',(-0.707106781186547,0.707106781186548,-3.34571867426218E-16));
#334=DIRECTION('',(0.0,0.0,1.0));
#335=DIRECTION('',(-0.707106781186548,-0.707106781186547,0.0));
#336=CARTESIAN_POINT('',(0.0,0.0,0.0));
#339=CARTESIAN_POINT('',(9.445625,-8.88178419700125E-16,0.0));
#340=CARTESIAN_POINT('',(11.5514699505675,-3.5527136788005E-15,4.42867243593186E-16));
#341=CARTESIAN_POINT('',(11.6356598517025,0.00372070312500039,4.50133696786756E-16));
#342=CARTESIAN_POINT('',(11.7711287545372,0.0212716956795642,4.56961002937863E-16));
#343=CARTESIAN_POINT('',(11.9488510725393,0.071623340505127,4.54421432536085E-16));
#344=CARTESIAN_POINT('',(12.1670296090496,0.182630121073258,4.30607945249732E-16));
#345=CARTESIAN_POINT('',(12.3603222264032,0.339677773596825,3.84814245101524E-16));
#346=CARTESIAN_POINT('',(12.5173698789268,0.532970390950394,3.19969917644898E-16));
#347=CARTESIAN_POINT('',(12.6283766594948,0.751148927461016,2.39826145861795E-16));
#348=CARTESIAN_POINT('',(12.6787283043204,0.928871245461868,1.70339587483301E-16));
#349=CARTESIAN_POINT('',(12.696279296875,1.06434014829746,1.1518834924115E-16));
#350=CARTESIAN_POINT('',(12.7,1.14853004943248,8.01595840978584E-17));
#351=CARTESIAN_POINT('',(12.7,3.254375,3.74700270810992E-17));
#352=CARTESIAN_POINT('',(12.7,5.318125,2.49800180540661E-17));
#353=CARTESIAN_POINT('',(12.7,7.381875,2.4980018054066E-17));
#354=CARTESIAN_POINT('',(12.7,9.445625,3.74700270810989E-17));
#355=CARTESIAN_POINT('',(12.7,11.5514699505675,4.915639121252E-17));
#356=CARTESIAN_POINT('',(12.696279296875,11.6356598517025,2.28638508328747E-17));
#357=CARTESIAN_POINT('',(12.6787283043204,11.7711287545372,-1.85269965647223E-17));
#358=CARTESIAN_POINT('',(12.6283766594949,11.9488510725393,-7.06629557768046E-17));
#359=CARTESIAN_POINT('',(12.5173698789267,12.1670296090496,-1.30769736943586E-16));
#360=CARTESIAN_POINT('',(12.3603222264032,12.3603222264032,-1.7936998107806E-16));
#361=CARTESIAN_POINT('',(12.1670296090496,12.5173698789268,-2.13652550010892E-16));
#362=CARTESIAN_POINT('',(11.948851072539,12.6283766594948,-2.31423784721248E-16));
#363=CARTESIAN_POINT('',(11.7711287545381,12.6787283043204,-2.33245115755105E-16));
#364=CARTESIAN_POINT('',(11.6356598517025,12.696279296875,-2.28055414715997E-16));
#365=CARTESIAN_POINT('',(11.5514699505675,12.7,-2.22560592457855E-16));
#366=CARTESIAN_POINT('',(9.445625,12.7,-1.31535407565941E-16));
#367=CARTESIAN_POINT('',(7.381875,12.7,-8.76902717106276E-17));
#368=CARTESIAN_POINT('',(5.318125,12.7,-8.76902717106276E-17));
#369=CARTESIAN_POINT('',(3.254375,12.7,-1.31535407565941E-16));
#370=CARTESIAN_POINT('',(1.14853004943249,12.7,-2.31392362537952E-16));
#371=CARTESIAN_POINT('',(1.06434014829746,12.696279296875,-2.54160412174191E-16));
#372=CARTESIAN_POINT('',(0.928871245462814,12.6787283043204,-2.85931140683115E-16));
#373=CARTESIAN_POINT('',(0.751148927460697,12.6283766594949,-3.16114968401338E-16));
#374=CARTESIAN_POINT('',(0.532970390950387,12.5173698789267,-3.32473943368025E-16));
#375=CARTESIAN_POINT('',(0.339677773596886,12.3603222264032,-3.22270546916192E-16));
#376=CARTESIAN_POINT('',(0.182630121073206,12.1670296090496,-2.86342862653909E-16));
#377=CARTESIAN_POINT('',(0.0716233405051501,11.948851072539,-2.26638386933254E-16));
#378=CARTESIAN_POINT('',(0.021271695679566,11.7711287545381,-1.66422903443642E-16));
#379=CARTESIAN_POINT('',(0.00372070312499595,11.6356598517025,-1.1450326899341E-16));
#380=CARTESIAN_POINT('',(-3.5527136788005E-15,11.5514699505675,-8.0159584097858E-17));
#381=CARTESIAN_POINT('',(-3.5527136788005E-15,9.445625,-3.7470027081099E-17));
#382=CARTESIAN_POINT('',(-3.5527136788005E-15,7.381875,-2.4980018054066E-17));
#383=CARTESIAN_POINT('',(-3.5527136788005E-15,5.318125,-2.4980018054066E-17));
#384=CARTESIAN_POINT('',(-3.5527136788005E-15,3.254375,-3.7470027081099E-17));
#385=CARTESIAN_POINT('',(-3.5527136788005E-15,1.14853004943249,-4.91563912125201E-17));
#386=CARTESIAN_POINT('',(0.0037207031249995,1.06434014829747,-2.28638508328748E-17));
#387=CARTESIAN_POINT('',(0.0212716956795642,0.928871245462815,1.85269965647222E-17));
#388=CARTESIAN_POINT('',(0.071623340505119,0.75114892746068,7.06629557768047E-17));
#389=CARTESIAN_POINT('',(0.182630121073263,0.532970390950418,1.30769736943586E-16));
#390=CARTESIAN_POINT('',(0.33967777359682,0.339677773596831,1.7936998107806E-16));
#391=CARTESIAN_POINT('',(0.5329703909504,0.182630121073236,2.13652550010892E-16));
#392=CARTESIAN_POINT('',(0.751148927461007,0.0716233405051376,2.31423784721248E-16));
#393=CARTESIAN_POINT('',(0.928871245461872,0.0212716956795713,2.33245115755105E-16));
#394=CARTESIAN_POINT('',(1.06434014829746,0.00372070312499684,2.28055414715997E-16));
#395=CARTESIAN_POINT('',(1.14853004943248,-1.77635683940025E-15,2.22560592457855E-16));
#396=CARTESIAN_POINT('',(3.254375,-1.77635683940025E-15,1.31535407565941E-16));
#397=CARTESIAN_POINT('',(5.318125,-1.77635683940025E-15,6.57677037829707E-17));
#398=CARTESIAN_POINT('',(7.381875,0.0,2.19225679276569E-17));
#399=CARTESIAN_POINT('',(9.445625,-8.88178419700125E-16,0.0));
#400=CARTESIAN_POINT('',(11.5514699505675,-3.5527136788005E-15,4.42867243593186E-16));
#401=CARTESIAN_POINT('',(0.0,0.0,0.0));
#402=CARTESIAN_POINT('',(6.35,6.35,0.0));
#403=CARTESIAN_POINT('',(6.35,6.35,-4.7625));
#404=CARTESIAN_POINT('',(4.52707871810108,4.52707871810108,-4.7625));
#405=CARTESIAN_POINT('',(6.35,12.7,-4.7625));
#406=CARTESIAN_POINT('',(1.190625,12.7,-4.7625));
#407=CARTESIAN_POINT('',(11.509375,12.7,-4.7625));
#408=CARTESIAN_POINT('',(11.509375,11.509375,-4.7625));
#409=CARTESIAN_POINT('',(12.7,11.509375,-4.7625));
#410=CARTESIAN_POINT('',(12.7,6.35,-4.7625));
#411=CARTESIAN_POINT('',(12.7,1.19062499999999,-4.7625));
#412=CARTESIAN_POINT('',(11.509375,1.19062499999999,-4.7625));
#413=CARTESIAN_POINT('',(11.509375,-3.46944695195361E-15,-4.7625));
#414=CARTESIAN_POINT('',(6.35,-3.46944695195361E-15,-4.7625));
#415=CARTESIAN_POINT('',(1.190625,-4.33680868994202E-15,-4.7625));
#416=CARTESIAN_POINT('',(1.190625,1.190625,-4.7625));
#417=CARTESIAN_POINT('',(-3.46944695195361E-15,1.190625,-4.7625));
#418=CARTESIAN_POINT('',(-3.46944695195361E-15,6.35,-4.7625));
#419=CARTESIAN_POINT('',(-1.73472347597681E-15,11.509375,-4.7625));
#420=CARTESIAN_POINT('',(1.190625,11.509375,-4.7625));
#421=CARTESIAN_POINT('',(6.35,5.81966991411009,-4.7625));
#422=CARTESIAN_POINT('',(6.35,12.7,-5.27182464349351E-15));
#423=CARTESIAN_POINT('',(11.509375,12.7,-4.73059091898875E-15));
#424=CARTESIAN_POINT('',(1.190625,12.7,-5.81305836799828E-15));
#425=CARTESIAN_POINT('',(11.509375,12.7,-4.33680868994202E-15));
#426=CARTESIAN_POINT('',(1.190625,12.7,-5.20417042793042E-15));
#427=CARTESIAN_POINT('',(6.35,12.7,-5.27182464349352E-15));
#428=CARTESIAN_POINT('',(-2.60208521396521E-15,1.190625,-1.73472347597681E-15));
#429=CARTESIAN_POINT('',(-2.60208521396521E-15,1.190625,-1.69959532558828E-15));
#430=CARTESIAN_POINT('',(-3.46944695195361E-15,6.35,-3.59955121265187E-15));
#431=CARTESIAN_POINT('',(-1.73472347597681E-15,11.509375,-5.49950709971547E-15));
#432=CARTESIAN_POINT('',(-1.73472347597681E-15,11.509375,-5.20417042793042E-15));
#433=CARTESIAN_POINT('',(-3.46944695195361E-15,6.35,-3.59955121265187E-15));
#434=CARTESIAN_POINT('',(11.509375,-1.73472347597681E-15,-4.81482486096809E-31));
#435=CARTESIAN_POINT('',(11.509375,-1.73472347597681E-15,-5.37764277552833E-17));
#436=CARTESIAN_POINT('',(6.35,-1.73472347597681E-15,-5.95010152260046E-16));
#437=CARTESIAN_POINT('',(1.190625,-1.73472347597681E-15,-1.13624387676481E-15));
#438=CARTESIAN_POINT('',(1.190625,-1.73472347597681E-15,-8.67361737988404E-16));
#439=CARTESIAN_POINT('',(6.35,-1.73472347597681E-15,-5.95010152260046E-16));
#440=CARTESIAN_POINT('',(12.7,11.509375,-3.46944695195361E-15));
#441=CARTESIAN_POINT('',(12.7,11.509375,-4.16723947016528E-15));
#442=CARTESIAN_POINT('',(12.7,6.35,-2.26728358310169E-15));
#443=CARTESIAN_POINT('',(12.7,1.190625,-3.6732769603809E-16));
#444=CARTESIAN_POINT('',(12.7,1.190625,7.70371977754894E-31));
#445=CARTESIAN_POINT('',(12.7,6.35,-2.26728358310169E-15));
#446=CARTESIAN_POINT('',(6.35,6.35,-6.93889390390723E-15));
#447=CARTESIAN_POINT('',(4.52707871810108,4.52707871810108,-6.93889390390723E-15));
#448=CARTESIAN_POINT('',(11.509375,11.509375,-4.29213956043561E-15));
#449=CARTESIAN_POINT('',(1.190625,11.509375,-5.37460700944514E-15));
#450=CARTESIAN_POINT('',(1.190625,1.190625,-1.57469523531795E-15));
#451=CARTESIAN_POINT('',(11.509375,1.190625,-4.9222778630842E-16));
#452=CARTESIAN_POINT('',(6.35,6.35,-2.93341739787678E-15));
#453=CARTESIAN_POINT('',(11.509375,11.509375,-4.33680868994202E-15));
#454=CARTESIAN_POINT('',(11.509375,1.190625,0.0));
#455=CARTESIAN_POINT('',(1.190625,1.190625,-8.67361737988404E-16));
#456=CARTESIAN_POINT('',(1.190625,11.509375,-5.20417042793042E-15));
#457=CARTESIAN_POINT('',(6.35,6.35,-33.3676978394524));
#458=MECHANICAL_DESIGN_GEOMETRIC_PRESENTATION_REPRESENTATION('',(#232,#233,#234,
     #235),#459);
#459=(GEOMETRIC_REPRESENTATION_CONTEXT(3)GLOBAL_UNCERTAINTY_ASSIGNED_CONTEXT((#460))
     GLOBAL_UNIT_ASSIGNED_CONTEXT((#466,#462,#461))REPRESENTATION_CONTEXT('SNMM120412',
     'TOP_LEVEL_ASSEMBLY_PART'));
#460=UNCERTAINTY_MEASURE_WITH_UNIT(LENGTH_MEASURE(2.0E-5),#466,'DISTANCE_ACCURACY_VALUE',
     'Maximum Tolerance applied to model');
#461=(NAMED_UNIT(*)SI_UNIT($,.STERADIAN.)SOLID_ANGLE_UNIT());
#462=(CONVERSION_BASED_UNIT('DEGREE',#464)NAMED_UNIT(#463)PLANE_ANGLE_UNIT());
#463=DIMENSIONAL_EXPONENTS(0.0,0.0,0.0,0.0,0.0,0.0,0.0);
#464=PLANE_ANGLE_MEASURE_WITH_UNIT(PLANE_ANGLE_MEASURE(0.0174532925),#465);
#465=(NAMED_UNIT(*)PLANE_ANGLE_UNIT()SI_UNIT($,.RADIAN.));
#466=(LENGTH_UNIT()NAMED_UNIT(*)SI_UNIT(.MILLI.,.METRE.));
#467=CONSTRUCTIVE_GEOMETRY_REPRESENTATION('supplemental geometry',(#249,#250),#459);
#468=CONSTRUCTIVE_GEOMETRY_REPRESENTATION_RELATIONSHIP('supplemental geometry','contains PCS and MCS coordinate systems',
     #24,#467);
ENDSEC;
END-ISO-10303-21;
