ISO-10303-21;
HEADER;
FILE_DESCRIPTION(
/* description */ (''),
/* implementation_level */ '2;1');
FILE_NAME(
/* name */ 'SNGN190724.stp',
/* time_stamp */ '2017-03-21T10:54:24',
/* author */ ('Sandvik Coromant R&D'),
/* organization */ ('Sandvik Machining Solutions'),
/* preprocessor_version */ 'ST-DEVELOPER v15',
/* originating_system */ 'SIEMENS PLM Software NX v8.5.3.3(64 bits)',
/* authorization */ '');
FILE_SCHEMA(('AUTOMOTIVE_DESIGN'));
ENDSEC;
DATA;
#10=GEOMETRICALLY_BOUNDED_WIREFRAME_SHAPE_REPRESENTATION('IsoTurningInsert-None',
     (#25),#457);
#11=SHAPE_REPRESENTATION_RELATIONSHIP('None','relationship between IsoTurningInsert-None and IsoTurningInsert-None',
     #24,#13);
#12=SHAPE_REPRESENTATION_RELATIONSHIP('None','relationship between IsoTurningInsert-None and IsoTurningInsert-None',
     #24,#10);
#13=ADVANCED_BREP_SHAPE_REPRESENTATION('IsoTurningInsert-None',(#31),#457);
#14=SHAPE_DEFINITION_REPRESENTATION(#15,#24);
#15=PRODUCT_DEFINITION_SHAPE('','',#16);
#16=PRODUCT_DEFINITION(' ','',#18,#17);
#17=PRODUCT_DEFINITION_CONTEXT('part definition',#23,'design');
#18=PRODUCT_DEFINITION_FORMATION_WITH_SPECIFIED_SOURCE(' ',' ',#20,.NOT_KNOWN.);
#19=PRODUCT_RELATED_PRODUCT_CATEGORY('part','',(#20));
#20=PRODUCT('IsoTurningInsert','IsoTurningInsert',' ',(#21));
#21=PRODUCT_CONTEXT(' ',#23,'mechanical');
#22=APPLICATION_PROTOCOL_DEFINITION('international standard','automotive_design',
     2010,#23);
#23=APPLICATION_CONTEXT('core data for automotive mechanical design processes');
#24=SHAPE_REPRESENTATION('IsoTurningInsert-None',(#228),#457);
#25=GEOMETRIC_CURVE_SET('geometric curve set',(#208));
#26=SURFACE_STYLE_USAGE(.BOTH.,#27);
#27=SURFACE_SIDE_STYLE('',(#28));
#28=SURFACE_STYLE_FILL_AREA(#29);
#29=FILL_AREA_STYLE('',(#30));
#30=FILL_AREA_STYLE_COLOUR('',#227);
#31=MANIFOLD_SOLID_BREP('CUT',#32);
#32=CLOSED_SHELL('',(#37,#38,#39,#40,#41,#42,#43,#44,#45,#46));
#33=CYLINDRICAL_SURFACE('',#245,2.38125);
#34=CYLINDRICAL_SURFACE('',#246,2.38125);
#35=CYLINDRICAL_SURFACE('',#247,2.38125);
#36=CYLINDRICAL_SURFACE('',#248,2.38125);
#37=ADVANCED_FACE('',(#53),#47,.F.);
#38=ADVANCED_FACE('',(#54),#48,.T.);
#39=ADVANCED_FACE('',(#55),#49,.T.);
#40=ADVANCED_FACE('',(#56),#50,.T.);
#41=ADVANCED_FACE('',(#57),#51,.T.);
#42=ADVANCED_FACE('',(#58),#52,.T.);
#43=ADVANCED_FACE('',(#59),#33,.T.);
#44=ADVANCED_FACE('',(#60),#34,.T.);
#45=ADVANCED_FACE('',(#61),#35,.T.);
#46=ADVANCED_FACE('',(#62),#36,.T.);
#47=PLANE('',#235);
#48=PLANE('',#236);
#49=PLANE('',#237);
#50=PLANE('',#238);
#51=PLANE('',#239);
#52=PLANE('',#244);
#53=FACE_OUTER_BOUND('',#63,.T.);
#54=FACE_OUTER_BOUND('',#64,.T.);
#55=FACE_OUTER_BOUND('',#65,.T.);
#56=FACE_OUTER_BOUND('',#66,.T.);
#57=FACE_OUTER_BOUND('',#67,.T.);
#58=FACE_OUTER_BOUND('',#68,.T.);
#59=FACE_OUTER_BOUND('',#69,.T.);
#60=FACE_OUTER_BOUND('',#70,.T.);
#61=FACE_OUTER_BOUND('',#71,.T.);
#62=FACE_OUTER_BOUND('',#72,.T.);
#63=EDGE_LOOP('',(#81,#82,#83,#84,#85,#86,#87,#88));
#64=EDGE_LOOP('',(#89,#90,#91,#92));
#65=EDGE_LOOP('',(#93,#94,#95,#96));
#66=EDGE_LOOP('',(#97,#98,#99,#100));
#67=EDGE_LOOP('',(#101,#102,#103,#104));
#68=EDGE_LOOP('',(#105,#106,#107,#108,#109,#110,#111,#112));
#69=EDGE_LOOP('',(#113,#114,#115,#116));
#70=EDGE_LOOP('',(#117,#118,#119,#120));
#71=EDGE_LOOP('',(#121,#122,#123,#124));
#72=EDGE_LOOP('',(#125,#126,#127,#128));
#73=CIRCLE('',#231,2.38125);
#74=CIRCLE('',#232,2.38125);
#75=CIRCLE('',#233,2.38125);
#76=CIRCLE('',#234,2.38125);
#77=CIRCLE('',#240,2.38125);
#78=CIRCLE('',#241,2.38125);
#79=CIRCLE('',#242,2.38125);
#80=CIRCLE('',#243,2.38125);
#81=ORIENTED_EDGE('',*,*,#145,.T.);
#82=ORIENTED_EDGE('',*,*,#146,.T.);
#83=ORIENTED_EDGE('',*,*,#147,.T.);
#84=ORIENTED_EDGE('',*,*,#148,.T.);
#85=ORIENTED_EDGE('',*,*,#149,.T.);
#86=ORIENTED_EDGE('',*,*,#150,.T.);
#87=ORIENTED_EDGE('',*,*,#151,.T.);
#88=ORIENTED_EDGE('',*,*,#152,.T.);
#89=ORIENTED_EDGE('',*,*,#153,.F.);
#90=ORIENTED_EDGE('',*,*,#154,.T.);
#91=ORIENTED_EDGE('',*,*,#145,.F.);
#92=ORIENTED_EDGE('',*,*,#155,.T.);
#93=ORIENTED_EDGE('',*,*,#151,.F.);
#94=ORIENTED_EDGE('',*,*,#156,.T.);
#95=ORIENTED_EDGE('',*,*,#157,.F.);
#96=ORIENTED_EDGE('',*,*,#158,.T.);
#97=ORIENTED_EDGE('',*,*,#149,.F.);
#98=ORIENTED_EDGE('',*,*,#159,.T.);
#99=ORIENTED_EDGE('',*,*,#160,.F.);
#100=ORIENTED_EDGE('',*,*,#161,.T.);
#101=ORIENTED_EDGE('',*,*,#147,.F.);
#102=ORIENTED_EDGE('',*,*,#162,.T.);
#103=ORIENTED_EDGE('',*,*,#163,.F.);
#104=ORIENTED_EDGE('',*,*,#164,.T.);
#105=ORIENTED_EDGE('',*,*,#163,.T.);
#106=ORIENTED_EDGE('',*,*,#165,.T.);
#107=ORIENTED_EDGE('',*,*,#153,.T.);
#108=ORIENTED_EDGE('',*,*,#166,.T.);
#109=ORIENTED_EDGE('',*,*,#157,.T.);
#110=ORIENTED_EDGE('',*,*,#167,.T.);
#111=ORIENTED_EDGE('',*,*,#160,.T.);
#112=ORIENTED_EDGE('',*,*,#168,.T.);
#113=ORIENTED_EDGE('',*,*,#146,.F.);
#114=ORIENTED_EDGE('',*,*,#154,.F.);
#115=ORIENTED_EDGE('',*,*,#165,.F.);
#116=ORIENTED_EDGE('',*,*,#162,.F.);
#117=ORIENTED_EDGE('',*,*,#148,.F.);
#118=ORIENTED_EDGE('',*,*,#164,.F.);
#119=ORIENTED_EDGE('',*,*,#168,.F.);
#120=ORIENTED_EDGE('',*,*,#159,.F.);
#121=ORIENTED_EDGE('',*,*,#150,.F.);
#122=ORIENTED_EDGE('',*,*,#161,.F.);
#123=ORIENTED_EDGE('',*,*,#167,.F.);
#124=ORIENTED_EDGE('',*,*,#156,.F.);
#125=ORIENTED_EDGE('',*,*,#152,.F.);
#126=ORIENTED_EDGE('',*,*,#158,.F.);
#127=ORIENTED_EDGE('',*,*,#166,.F.);
#128=ORIENTED_EDGE('',*,*,#155,.F.);
#129=VERTEX_POINT('',#407);
#130=VERTEX_POINT('',#408);
#131=VERTEX_POINT('',#410);
#132=VERTEX_POINT('',#412);
#133=VERTEX_POINT('',#414);
#134=VERTEX_POINT('',#416);
#135=VERTEX_POINT('',#418);
#136=VERTEX_POINT('',#420);
#137=VERTEX_POINT('',#424);
#138=VERTEX_POINT('',#425);
#139=VERTEX_POINT('',#430);
#140=VERTEX_POINT('',#432);
#141=VERTEX_POINT('',#436);
#142=VERTEX_POINT('',#438);
#143=VERTEX_POINT('',#442);
#144=VERTEX_POINT('',#444);
#145=EDGE_CURVE('',#129,#130,#169,.T.);
#146=EDGE_CURVE('',#130,#131,#73,.T.);
#147=EDGE_CURVE('',#131,#132,#170,.T.);
#148=EDGE_CURVE('',#132,#133,#74,.T.);
#149=EDGE_CURVE('',#133,#134,#171,.T.);
#150=EDGE_CURVE('',#134,#135,#75,.T.);
#151=EDGE_CURVE('',#135,#136,#172,.T.);
#152=EDGE_CURVE('',#136,#129,#76,.T.);
#153=EDGE_CURVE('',#137,#138,#173,.T.);
#154=EDGE_CURVE('',#137,#130,#174,.T.);
#155=EDGE_CURVE('',#129,#138,#175,.T.);
#156=EDGE_CURVE('',#135,#139,#176,.T.);
#157=EDGE_CURVE('',#140,#139,#177,.T.);
#158=EDGE_CURVE('',#140,#136,#178,.T.);
#159=EDGE_CURVE('',#133,#141,#179,.T.);
#160=EDGE_CURVE('',#142,#141,#180,.T.);
#161=EDGE_CURVE('',#142,#134,#181,.T.);
#162=EDGE_CURVE('',#131,#143,#182,.T.);
#163=EDGE_CURVE('',#144,#143,#183,.T.);
#164=EDGE_CURVE('',#144,#132,#184,.T.);
#165=EDGE_CURVE('',#143,#137,#77,.T.);
#166=EDGE_CURVE('',#138,#140,#78,.T.);
#167=EDGE_CURVE('',#139,#142,#79,.T.);
#168=EDGE_CURVE('',#141,#144,#80,.T.);
#169=LINE('',#406,#185);
#170=LINE('',#411,#186);
#171=LINE('',#415,#187);
#172=LINE('',#419,#188);
#173=LINE('',#423,#189);
#174=LINE('',#426,#190);
#175=LINE('',#427,#191);
#176=LINE('',#429,#192);
#177=LINE('',#431,#193);
#178=LINE('',#433,#194);
#179=LINE('',#435,#195);
#180=LINE('',#437,#196);
#181=LINE('',#439,#197);
#182=LINE('',#441,#198);
#183=LINE('',#443,#199);
#184=LINE('',#445,#200);
#185=VECTOR('',#255,1.0);
#186=VECTOR('',#258,1.0);
#187=VECTOR('',#261,1.0);
#188=VECTOR('',#264,1.0);
#189=VECTOR('',#269,1.0);
#190=VECTOR('',#270,1.0);
#191=VECTOR('',#271,1.0);
#192=VECTOR('',#274,1.0);
#193=VECTOR('',#275,1.0);
#194=VECTOR('',#276,1.0);
#195=VECTOR('',#279,1.0);
#196=VECTOR('',#280,1.0);
#197=VECTOR('',#281,1.0);
#198=VECTOR('',#284,1.0);
#199=VECTOR('',#285,1.0);
#200=VECTOR('',#286,1.0);
#201=CURVE_STYLE('',#205,POSITIVE_LENGTH_MEASURE(0.18),#204);
#202=CURVE_STYLE('',#206,POSITIVE_LENGTH_MEASURE(0.18),#226);
#203=CURVE_STYLE('',#207,POSITIVE_LENGTH_MEASURE(0.18),#226);
#204=DRAUGHTING_PRE_DEFINED_COLOUR('blue');
#205=DRAUGHTING_PRE_DEFINED_CURVE_FONT('continuous');
#206=DRAUGHTING_PRE_DEFINED_CURVE_FONT('continuous');
#207=DRAUGHTING_PRE_DEFINED_CURVE_FONT('continuous');
#208=B_SPLINE_CURVE_WITH_KNOTS('CUTTING EDGE LINE',5,(#310,#311,#312,#313,#314,#315,
     #316,#317,#318,#319,#320,#321,#322,#323,#324,#325,#326,#327,#328,#329,#330,
     #331,#332,#333,#334,#335,#336,#337,#338,#339,#340,#341,#342,#343,#344,#345,
     #346,#347,#348,#349,#350,#351,#352,#353,#354,#355,#356,#357,#358,#359,#360,
     #361,#362,#363,#364,#365,#366,#367,#368,#369,#370,#371,#372,#373,#374,#375,
     #376,#377,#378,#379,#380,#381,#382,#383,#384,#385,#386,#387,#388,#389,#390,
     #391,#392,#393,#394,#395,#396,#397,#398,#399,#400,#401,#402,#403),.UNSPECIFIED.,
     .T.,.F.,(1,1,4,4,1,1,1,1,1,1,1,1,1,1,1,1,1,1,1,4,4,1,1,1,1,1,1,1,1,1,1,1,1,
     1,1,1,4,4,1,1,1,1,1,1,1,1,1,1,1,1,1,1,1,4,4,1,1,1,1,1,1,1,1,1,1,1,1,1,1,1,4,
     2),(-0.00648378097500002,-0.00324189048750001,0.0,0.1981297522,0.2013716426875,
     0.204613533175,0.2078554236625,0.21109731415,0.2143392046375,0.217581095125,
     0.2208229856125,0.2240648761,0.2273067665875,0.230548657075,0.2337905475625,
     0.23703243805,0.2402743285375,0.243516219025,0.2467581095125,0.25,0.4481297522,
     0.4513716426875,0.454613533175,0.4578554236625,0.46109731415,0.4643392046375,
     0.467581095125,0.4708229856125,0.4740648761,0.4773067665875,0.480548657075,
     0.4837905475625,0.48703243805,0.4902743285375,0.493516219025,0.4967581095125,
     0.5,0.6981297522,0.7013716426875,0.704613533175,0.7078554236625,0.71109731415,
     0.7143392046375,0.717581095125,0.7208229856125,0.7240648761,0.7273067665875,
     0.730548657075,0.7337905475625,0.73703243805,0.7402743285375,0.743516219025,
     0.7467581095125,0.75,0.9481297522,0.9513716426875,0.954613533175,0.9578554236625,
     0.96109731415,0.9643392046375,0.967581095125,0.9708229856125,0.9740648761,0.9773067665875,
     0.980548657075,0.9837905475625,0.98703243805,0.9902743285375,0.993516219025,
     0.9967581095125,1.0,1.1981297522),.UNSPECIFIED.);
#209=PRESENTATION_LAYER_ASSIGNMENT('1','Layer 1',(#208,#229,#230,#31));
#212=STYLED_ITEM('',(#218),#208);
#213=STYLED_ITEM('',(#219),#229);
#214=STYLED_ITEM('',(#220),#230);
#215=STYLED_ITEM('',(#221),#31);
#216=PRESENTATION_STYLE_ASSIGNMENT((#222));
#217=PRESENTATION_STYLE_ASSIGNMENT((#223));
#218=PRESENTATION_STYLE_ASSIGNMENT((#201));
#219=PRESENTATION_STYLE_ASSIGNMENT((#202));
#220=PRESENTATION_STYLE_ASSIGNMENT((#203));
#221=PRESENTATION_STYLE_ASSIGNMENT((#26));
#222=POINT_STYLE('',#224,POSITIVE_LENGTH_MEASURE(3.0),#226);
#223=POINT_STYLE('',#225,POSITIVE_LENGTH_MEASURE(3.0),#226);
#224=PRE_DEFINED_POINT_MARKER_SYMBOL('plus');
#225=PRE_DEFINED_POINT_MARKER_SYMBOL('plus');
#226=COLOUR_RGB('Medium Maroon',0.6,0.4,0.4);
#227=COLOUR_RGB('IsoInsertColor',0.8,0.8,0.8);
#228=AXIS2_PLACEMENT_3D('',#307,#249,#250);
#229=AXIS2_PLACEMENT_3D('PCS',#404,#251,#252);
#230=AXIS2_PLACEMENT_3D('MCS',#405,#253,#254);
#231=AXIS2_PLACEMENT_3D('',#409,#256,#257);
#232=AXIS2_PLACEMENT_3D('',#413,#259,#260);
#233=AXIS2_PLACEMENT_3D('',#417,#262,#263);
#234=AXIS2_PLACEMENT_3D('',#421,#265,#266);
#235=AXIS2_PLACEMENT_3D('',#422,#267,#268);
#236=AXIS2_PLACEMENT_3D('',#428,#272,#273);
#237=AXIS2_PLACEMENT_3D('',#434,#277,#278);
#238=AXIS2_PLACEMENT_3D('',#440,#282,#283);
#239=AXIS2_PLACEMENT_3D('',#446,#287,#288);
#240=AXIS2_PLACEMENT_3D('',#447,#289,#290);
#241=AXIS2_PLACEMENT_3D('',#448,#291,#292);
#242=AXIS2_PLACEMENT_3D('',#449,#293,#294);
#243=AXIS2_PLACEMENT_3D('',#450,#295,#296);
#244=AXIS2_PLACEMENT_3D('',#451,#297,#298);
#245=AXIS2_PLACEMENT_3D('',#452,#299,#300);
#246=AXIS2_PLACEMENT_3D('',#453,#301,#302);
#247=AXIS2_PLACEMENT_3D('',#454,#303,#304);
#248=AXIS2_PLACEMENT_3D('',#455,#305,#306);
#249=DIRECTION('',(0.0,0.0,1.0));
#250=DIRECTION('',(1.0,0.0,0.0));
#251=DIRECTION('',(0.0,0.0,1.0));
#252=DIRECTION('',(1.0,0.0,0.0));
#253=DIRECTION('',(0.0,0.0,1.0));
#254=DIRECTION('',(1.0,0.0,0.0));
#255=DIRECTION('',(1.0,0.0,0.0));
#256=DIRECTION('',(0.0,0.0,-1.0));
#257=DIRECTION('',(-0.707106781186548,-0.707106781186548,0.0));
#258=DIRECTION('',(7.7715611723761E-16,-1.0,0.0));
#259=DIRECTION('',(0.0,0.0,-1.0));
#260=DIRECTION('',(-0.707106781186548,-0.707106781186548,0.0));
#261=DIRECTION('',(-1.0,0.0,0.0));
#262=DIRECTION('',(0.0,0.0,-1.0));
#263=DIRECTION('',(-0.707106781186547,-0.707106781186548,0.0));
#264=DIRECTION('',(-7.7715611723761E-16,1.0,0.0));
#265=DIRECTION('',(0.0,0.0,-1.0));
#266=DIRECTION('',(-0.707106781186547,-0.707106781186548,0.0));
#267=DIRECTION('',(0.0,0.0,1.0));
#268=DIRECTION('',(-0.707106781186547,-0.707106781186548,0.0));
#269=DIRECTION('',(-1.0,0.0,-6.99353086378051E-17));
#270=DIRECTION('',(6.99353086378051E-17,-2.45502073030628E-16,-1.0));
#271=DIRECTION('',(-6.99353086378051E-17,2.45502073030628E-16,1.0));
#272=DIRECTION('',(0.0,1.0,-2.45502073030628E-16));
#273=DIRECTION('',(-1.0,0.0,0.0));
#274=DIRECTION('',(-6.99353086378051E-17,2.45502073030628E-16,1.0));
#275=DIRECTION('',(7.7715611723761E-16,-1.0,2.45502073030628E-16));
#276=DIRECTION('',(6.99353086378051E-17,-2.45502073030628E-16,-1.0));
#277=DIRECTION('',(-1.0,-7.7715611723761E-16,-6.99353086378049E-17));
#278=DIRECTION('',(7.7715611723761E-16,-1.0,0.0));
#279=DIRECTION('',(-6.99353086378051E-17,2.45502073030628E-16,1.0));
#280=DIRECTION('',(1.0,0.0,6.99353086378051E-17));
#281=DIRECTION('',(6.99353086378051E-17,-2.45502073030628E-16,-1.0));
#282=DIRECTION('',(0.0,-1.0,2.45502073030628E-16));
#283=DIRECTION('',(1.0,0.0,0.0));
#284=DIRECTION('',(-6.99353086378051E-17,2.45502073030628E-16,1.0));
#285=DIRECTION('',(-7.7715611723761E-16,1.0,-2.45502073030628E-16));
#286=DIRECTION('',(6.99353086378051E-17,-2.45502073030628E-16,-1.0));
#287=DIRECTION('',(1.0,7.7715611723761E-16,6.99353086378049E-17));
#288=DIRECTION('',(-7.7715611723761E-16,1.0,0.0));
#289=DIRECTION('',(-6.99353086378051E-17,2.45502073030628E-16,1.0));
#290=DIRECTION('',(-0.707106781186548,0.707106781186548,-2.23047911617479E-16));
#291=DIRECTION('',(-6.99353086378051E-17,2.45502073030628E-16,1.0));
#292=DIRECTION('',(-0.707106781186548,0.707106781186548,-2.23047911617479E-16));
#293=DIRECTION('',(-6.99353086378051E-17,2.45502073030628E-16,1.0));
#294=DIRECTION('',(-0.707106781186548,0.707106781186547,-2.23047911617478E-16));
#295=DIRECTION('',(-6.99353086378051E-17,2.45502073030628E-16,1.0));
#296=DIRECTION('',(-0.707106781186548,0.707106781186547,-2.23047911617478E-16));
#297=DIRECTION('',(-6.99353086378051E-17,2.45502073030628E-16,1.0));
#298=DIRECTION('',(-0.707106781186548,0.707106781186547,-2.23047911617478E-16));
#299=DIRECTION('',(-6.99353086378051E-17,2.45502073030628E-16,1.0));
#300=DIRECTION('',(-0.707106781186548,0.707106781186548,-2.23047911617479E-16));
#301=DIRECTION('',(-6.99353086378051E-17,2.45502073030628E-16,1.0));
#302=DIRECTION('',(-0.707106781186548,0.707106781186547,-2.23047911617478E-16));
#303=DIRECTION('',(-6.99353086378051E-17,2.45502073030628E-16,1.0));
#304=DIRECTION('',(-0.707106781186548,0.707106781186547,-2.23047911617478E-16));
#305=DIRECTION('',(-6.99353086378051E-17,2.45502073030628E-16,1.0));
#306=DIRECTION('',(-0.707106781186548,0.707106781186548,-2.23047911617479E-16));
#307=CARTESIAN_POINT('',(0.0,0.0,0.0));
#310=CARTESIAN_POINT('',(16.7108449505675,-3.5527136788005E-15,5.87545734764216E-16));
#311=CARTESIAN_POINT('',(13.81125,-3.5527136788005E-15,0.0));
#312=CARTESIAN_POINT('',(10.95375,-1.77635683940025E-15,2.92300905702092E-17));
#313=CARTESIAN_POINT('',(8.09625,-3.5527136788005E-15,8.76902717106276E-17));
#314=CARTESIAN_POINT('',(5.23875,-5.32907051820075E-15,1.75380543421255E-16));
#315=CARTESIAN_POINT('',(2.33915504943249,-5.32907051820075E-15,2.94524181156283E-16));
#316=CARTESIAN_POINT('',(2.25496514829746,0.00186035156249353,2.98579064029855E-16));
#317=CARTESIAN_POINT('',(2.12393117138882,0.0104362455168978,3.03694198048343E-16));
#318=CARTESIAN_POINT('',(1.94894562427151,0.0342167959647561,3.07929562722208E-16));
#319=CARTESIAN_POINT('',(1.72578814651973,0.0861080301827677,3.08790896508651E-16));
#320=CARTESIAN_POINT('',(1.50373443800954,0.161262792671176,3.04696160517603E-16));
#321=CARTESIAN_POINT('',(1.28558696410323,0.260156891118248,2.9539716660603E-16));
#322=CARTESIAN_POINT('',(1.0753261047647,0.382544253278876,2.80735494785996E-16));
#323=CARTESIAN_POINT('',(0.876590181650201,0.527398142409918,2.60735147874359E-16));
#324=CARTESIAN_POINT('',(0.692919249883895,0.692919249883891,2.35587971678985E-16));
#325=CARTESIAN_POINT('',(0.527398142409922,0.876590181650197,2.05661036595652E-16));
#326=CARTESIAN_POINT('',(0.382544253278873,1.07532610476469,1.71470848135949E-16));
#327=CARTESIAN_POINT('',(0.260156891118257,1.28558696410326,1.33667677952799E-16));
#328=CARTESIAN_POINT('',(0.161262792671177,1.50373443800945,9.29632901327983E-17));
#329=CARTESIAN_POINT('',(0.0861080301827677,1.72578814652006,5.018269517302E-17));
#330=CARTESIAN_POINT('',(0.0342167959647561,1.94894562427051,5.94103861934114E-18));
#331=CARTESIAN_POINT('',(0.010436245516912,2.12393117139022,-2.96434547452291E-17));
#332=CARTESIAN_POINT('',(0.00186035156249531,2.25496514829745,-5.67776748234783E-17));
#333=CARTESIAN_POINT('',(-1.77635683940025E-15,2.33915504943248,-7.44042908984566E-17));
#334=CARTESIAN_POINT('',(-1.77635683940025E-15,5.23875,-4.99600361081319E-17));
#335=CARTESIAN_POINT('',(-3.5527136788005E-15,8.09625,-3.33066907387547E-17));
#336=CARTESIAN_POINT('',(-7.105427357601E-15,10.95375,-3.33066907387547E-17));
#337=CARTESIAN_POINT('',(-1.06581410364015E-14,13.81125,-4.99600361081321E-17));
#338=CARTESIAN_POINT('',(-1.4210854715202E-14,16.7108449505675,-9.50730861553489E-17));
#339=CARTESIAN_POINT('',(0.00186035156248465,16.7950348517025,-1.18327340428995E-16));
#340=CARTESIAN_POINT('',(0.0104362455168943,16.9260688286112,-1.53425946543588E-16));
#341=CARTESIAN_POINT('',(0.0342167959647455,17.1010543757285,-1.9792190788217E-16));
#342=CARTESIAN_POINT('',(0.086108030182757,17.3242118534803,-2.50512092556262E-16));
#343=CARTESIAN_POINT('',(0.161262792671165,17.5462655619905,-2.98310139134325E-16));
#344=CARTESIAN_POINT('',(0.260156891118243,17.7644130358968,-3.40438359275838E-16));
#345=CARTESIAN_POINT('',(0.382544253278851,17.9746738952353,-3.75827791659133E-16));
#346=CARTESIAN_POINT('',(0.527398142409922,18.1734098183498,-4.03655835351735E-16));
#347=CARTESIAN_POINT('',(0.692919249883872,18.3570807501161,-4.23276314261412E-16));
#348=CARTESIAN_POINT('',(0.876590181650194,18.5226018575901,-4.34309093592309E-16));
#349=CARTESIAN_POINT('',(1.07532610476467,18.6674557467211,-4.36642525706851E-16));
#350=CARTESIAN_POINT('',(1.28558696410325,18.7898431088817,-4.30454079288368E-16));
#351=CARTESIAN_POINT('',(1.50373443800944,18.8887372073288,-4.16156840664926E-16));
#352=CARTESIAN_POINT('',(1.72578814652005,18.9638919698172,-3.94448758888463E-16));
#353=CARTESIAN_POINT('',(1.94894562427051,19.0157832040352,-3.66003280420098E-16));
#354=CARTESIAN_POINT('',(2.1239311713902,19.0395637544831,-3.38955679391311E-16));
#355=CARTESIAN_POINT('',(2.25496514829745,19.0481396484375,-3.16112499929349E-16));
#356=CARTESIAN_POINT('',(2.33915504943247,19.05,-3.00412027876347E-16));
#357=CARTESIAN_POINT('',(5.23874999999999,19.05,-1.75380543421255E-16));
#358=CARTESIAN_POINT('',(8.09624999999999,19.05,-1.16920362280837E-16));
#359=CARTESIAN_POINT('',(10.95375,19.05,-1.16920362280837E-16));
#360=CARTESIAN_POINT('',(13.81125,19.05,-1.75380543421255E-16));
#361=CARTESIAN_POINT('',(16.7108449505675,19.05,-2.94524181156283E-16));
#362=CARTESIAN_POINT('',(16.7950348517025,19.0481396484375,-2.98579064029854E-16));
#363=CARTESIAN_POINT('',(16.9260688286112,19.0395637544831,-3.03694198048343E-16));
#364=CARTESIAN_POINT('',(17.1010543757285,19.0157832040352,-3.07929562722208E-16));
#365=CARTESIAN_POINT('',(17.3242118534803,18.9638919698172,-3.08790896508651E-16));
#366=CARTESIAN_POINT('',(17.5462655619904,18.8887372073288,-3.04696160517602E-16));
#367=CARTESIAN_POINT('',(17.7644130358968,18.7898431088817,-2.9539716660603E-16));
#368=CARTESIAN_POINT('',(17.9746738952353,18.6674557467211,-2.80735494785996E-16));
#369=CARTESIAN_POINT('',(18.1734098183498,18.5226018575901,-2.60735147874359E-16));
#370=CARTESIAN_POINT('',(18.3570807501161,18.3570807501161,-2.35587971678984E-16));
#371=CARTESIAN_POINT('',(18.5226018575901,18.1734098183498,-2.05661036595652E-16));
#372=CARTESIAN_POINT('',(18.6674557467211,17.9746738952353,-1.71470848135948E-16));
#373=CARTESIAN_POINT('',(18.7898431088817,17.7644130358967,-1.33667677952799E-16));
#374=CARTESIAN_POINT('',(18.8887372073288,17.5462655619906,-9.2963290132798E-17));
#375=CARTESIAN_POINT('',(18.9638919698172,17.3242118534799,-5.01826951730199E-17));
#376=CARTESIAN_POINT('',(19.0157832040352,17.1010543757295,-5.94103861934108E-18));
#377=CARTESIAN_POINT('',(19.0395637544831,16.9260688286098,2.96434547452292E-17));
#378=CARTESIAN_POINT('',(19.0481396484375,16.7950348517025,5.67776748234784E-17));
#379=CARTESIAN_POINT('',(19.05,16.7108449505675,7.44042908984567E-17));
#380=CARTESIAN_POINT('',(19.05,13.81125,4.99600361081319E-17));
#381=CARTESIAN_POINT('',(19.05,10.95375,3.33066907387546E-17));
#382=CARTESIAN_POINT('',(19.05,8.09625,3.33066907387547E-17));
#383=CARTESIAN_POINT('',(19.05,5.23875,4.99600361081321E-17));
#384=CARTESIAN_POINT('',(19.05,2.33915504943248,9.50730861553488E-17));
#385=CARTESIAN_POINT('',(19.0481396484375,2.25496514829746,1.18555700511575E-16));
#386=CARTESIAN_POINT('',(19.0395637544831,2.12393117138883,1.54707006498117E-16));
#387=CARTESIAN_POINT('',(19.0157832040353,1.9489456242715,2.02122055053076E-16));
#388=CARTESIAN_POINT('',(18.9638919698172,1.72578814651974,2.61081942513489E-16));
#389=CARTESIAN_POINT('',(18.8887372073288,1.50373443800954,3.18105314086066E-16));
#390=CARTESIAN_POINT('',(18.7898431088818,1.28558696410323,3.72372887317205E-16));
#391=CARTESIAN_POINT('',(18.6674557467211,1.0753261047647,4.22785495262091E-16));
#392=CARTESIAN_POINT('',(18.5226018575901,0.876590181650208,4.68394503988805E-16));
#393=CARTESIAN_POINT('',(18.3570807501161,0.692919249883882,5.08332870406074E-16));
#394=CARTESIAN_POINT('',(18.1734098183498,0.527398142409934,5.41911446989019E-16));
#395=CARTESIAN_POINT('',(17.9746738952353,0.382544253278871,5.68639919658693E-16));
#396=CARTESIAN_POINT('',(17.7644130358967,0.260156891118257,5.88261211662619E-16));
#397=CARTESIAN_POINT('',(17.5462655619906,0.161262792671172,6.0074180157436E-16));
#398=CARTESIAN_POINT('',(17.3242118534799,0.086108030182773,6.06291042679643E-16));
#399=CARTESIAN_POINT('',(17.1010543757295,0.034216795964749,6.05238375911291E-16));
#400=CARTESIAN_POINT('',(16.9260688286098,0.0104362455169067,5.99670432166646E-16));
#401=CARTESIAN_POINT('',(16.7950348517025,0.00186035156249531,5.92911809188772E-16));
#402=CARTESIAN_POINT('',(16.7108449505675,-3.5527136788005E-15,5.87545734764216E-16));
#403=CARTESIAN_POINT('',(13.81125,-3.5527136788005E-15,0.0));
#404=CARTESIAN_POINT('',(0.0,0.0,0.0));
#405=CARTESIAN_POINT('',(9.525,9.525,0.0));
#406=CARTESIAN_POINT('',(9.525,19.05,-7.9375));
#407=CARTESIAN_POINT('',(2.38124999999999,19.05,-7.9375));
#408=CARTESIAN_POINT('',(16.66875,19.05,-7.9375));
#409=CARTESIAN_POINT('',(16.66875,16.66875,-7.9375));
#410=CARTESIAN_POINT('',(19.05,16.66875,-7.9375));
#411=CARTESIAN_POINT('',(19.05,9.52500000000001,-7.9375));
#412=CARTESIAN_POINT('',(19.05,2.38125,-7.9375));
#413=CARTESIAN_POINT('',(16.66875,2.38125,-7.9375));
#414=CARTESIAN_POINT('',(16.66875,-1.73472347597681E-15,-7.9375));
#415=CARTESIAN_POINT('',(9.525,-3.46944695195361E-15,-7.9375));
#416=CARTESIAN_POINT('',(2.38125,-3.46944695195361E-15,-7.9375));
#417=CARTESIAN_POINT('',(2.38125,2.38124999999999,-7.9375));
#418=CARTESIAN_POINT('',(-1.73472347597681E-15,2.38124999999999,-7.9375));
#419=CARTESIAN_POINT('',(-6.93889390390723E-15,9.52499999999999,-7.9375));
#420=CARTESIAN_POINT('',(-1.21430643318377E-14,16.66875,-7.9375));
#421=CARTESIAN_POINT('',(2.38124999999999,16.66875,-7.9375));
#422=CARTESIAN_POINT('',(9.525,8.99466991411009,-7.9375));
#423=CARTESIAN_POINT('',(9.525,19.05,-5.27182464349352E-15));
#424=CARTESIAN_POINT('',(16.66875,19.05,-4.7722242824122E-15));
#425=CARTESIAN_POINT('',(2.38124999999998,19.05,-5.77142500457484E-15));
#426=CARTESIAN_POINT('',(16.66875,19.05,-5.20417042793042E-15));
#427=CARTESIAN_POINT('',(2.38124999999998,19.05,-6.93889390390723E-15));
#428=CARTESIAN_POINT('',(9.525,19.05,-5.27182464349352E-15));
#429=CARTESIAN_POINT('',(-3.46944695195361E-15,2.38124999999999,-1.73472347597681E-15));
#430=CARTESIAN_POINT('',(-3.46944695195361E-15,2.38124999999999,-1.84574577843932E-15));
#431=CARTESIAN_POINT('',(-6.93889390390723E-15,9.52499999999999,-3.59955121265187E-15));
#432=CARTESIAN_POINT('',(-1.38777878078145E-14,16.66875,-5.35335664686443E-15));
#433=CARTESIAN_POINT('',(-1.38777878078145E-14,16.66875,-5.20417042793042E-15));
#434=CARTESIAN_POINT('',(-6.93889390390723E-15,9.52499999999999,-3.59955121265187E-15));
#435=CARTESIAN_POINT('',(16.66875,-1.73472347597681E-15,-2.88889491658085E-31));
#436=CARTESIAN_POINT('',(16.66875,-1.73472347597681E-15,-9.54097911787234E-17));
#437=CARTESIAN_POINT('',(9.525,-1.73472347597681E-15,-5.95010152260044E-16));
#438=CARTESIAN_POINT('',(2.38125,-1.73472347597681E-15,-1.09461051334136E-15));
#439=CARTESIAN_POINT('',(2.38125,-1.73472347597681E-15,-1.73472347597681E-15));
#440=CARTESIAN_POINT('',(9.525,-1.73472347597681E-15,-5.95010152260044E-16));
#441=CARTESIAN_POINT('',(19.05,16.66875,-5.20417042793042E-15));
#442=CARTESIAN_POINT('',(19.05,16.66875,-4.02108901731424E-15));
#443=CARTESIAN_POINT('',(19.05,9.52500000000001,-2.26728358310169E-15));
#444=CARTESIAN_POINT('',(19.05,2.38125,-5.13478148889134E-16));
#445=CARTESIAN_POINT('',(19.05,2.38125,-1.73472347597681E-15));
#446=CARTESIAN_POINT('',(19.05,9.52500000000001,-2.26728358310169E-15));
#447=CARTESIAN_POINT('',(16.66875,16.66875,-4.18762247100801E-15));
#448=CARTESIAN_POINT('',(2.38124999999999,16.66875,-5.18682319317065E-15));
#449=CARTESIAN_POINT('',(2.38125,2.38125,-1.67921232474555E-15));
#450=CARTESIAN_POINT('',(16.66875,2.38125,-6.80011602582907E-16));
#451=CARTESIAN_POINT('',(9.525,9.525,-2.93341739787678E-15));
#452=CARTESIAN_POINT('',(16.66875,16.66875,-5.20417042793042E-15));
#453=CARTESIAN_POINT('',(16.66875,2.38125,-1.73472347597681E-15));
#454=CARTESIAN_POINT('',(2.38125,2.38125,-1.73472347597681E-15));
#455=CARTESIAN_POINT('',(2.38124999999999,16.66875,-5.20417042793042E-15));
#456=MECHANICAL_DESIGN_GEOMETRIC_PRESENTATION_REPRESENTATION('',(#212,#213,#214,
     #215),#457);
#457=(GEOMETRIC_REPRESENTATION_CONTEXT(3)GLOBAL_UNCERTAINTY_ASSIGNED_CONTEXT((#458))
     GLOBAL_UNIT_ASSIGNED_CONTEXT((#464,#460,#459))REPRESENTATION_CONTEXT('SNGN190724',
     'TOP_LEVEL_ASSEMBLY_PART'));
#458=UNCERTAINTY_MEASURE_WITH_UNIT(LENGTH_MEASURE(2.0E-5),#464,'DISTANCE_ACCURACY_VALUE',
     'Maximum Tolerance applied to model');
#459=(NAMED_UNIT(*)SI_UNIT($,.STERADIAN.)SOLID_ANGLE_UNIT());
#460=(CONVERSION_BASED_UNIT('DEGREE',#462)NAMED_UNIT(#461)PLANE_ANGLE_UNIT());
#461=DIMENSIONAL_EXPONENTS(0.0,0.0,0.0,0.0,0.0,0.0,0.0);
#462=PLANE_ANGLE_MEASURE_WITH_UNIT(PLANE_ANGLE_MEASURE(0.0174532925),#463);
#463=(NAMED_UNIT(*)PLANE_ANGLE_UNIT()SI_UNIT($,.RADIAN.));
#464=(LENGTH_UNIT()NAMED_UNIT(*)SI_UNIT(.MILLI.,.METRE.));
#465=CONSTRUCTIVE_GEOMETRY_REPRESENTATION('supplemental geometry',(#229,#230),#457);
#466=CONSTRUCTIVE_GEOMETRY_REPRESENTATION_RELATIONSHIP('supplemental geometry','contains PCS and MCS coordinate systems',
     #24,#465);
ENDSEC;
END-ISO-10303-21;
