ISO-10303-21;
HEADER;
FILE_DESCRIPTION(
/* description */ (''),
/* implementation_level */ '2;1');
FILE_NAME(
/* name */ 'SNGN090312.stp',
/* time_stamp */ '2017-03-21T10:54:18',
/* author */ ('Sandvik Coromant R&D'),
/* organization */ ('Sandvik Machining Solutions'),
/* preprocessor_version */ 'ST-DEVELOPER v15',
/* originating_system */ 'SIEMENS PLM Software NX v8.5.3.3(64 bits)',
/* authorization */ '');
FILE_SCHEMA(('AUTOMOTIVE_DESIGN'));
ENDSEC;
DATA;
#10=GEOMETRICALLY_BOUNDED_WIREFRAME_SHAPE_REPRESENTATION('IsoTurningInsert-None',
     (#25),#425);
#11=SHAPE_REPRESENTATION_RELATIONSHIP('None','relationship between IsoTurningInsert-None and IsoTurningInsert-None',
     #24,#13);
#12=SHAPE_REPRESENTATION_RELATIONSHIP('None','relationship between IsoTurningInsert-None and IsoTurningInsert-None',
     #24,#10);
#13=ADVANCED_BREP_SHAPE_REPRESENTATION('IsoTurningInsert-None',(#31),#425);
#14=SHAPE_DEFINITION_REPRESENTATION(#15,#24);
#15=PRODUCT_DEFINITION_SHAPE('','',#16);
#16=PRODUCT_DEFINITION(' ','',#18,#17);
#17=PRODUCT_DEFINITION_CONTEXT('part definition',#23,'design');
#18=PRODUCT_DEFINITION_FORMATION_WITH_SPECIFIED_SOURCE(' ',' ',#20,.NOT_KNOWN.);
#19=PRODUCT_RELATED_PRODUCT_CATEGORY('part','',(#20));
#20=PRODUCT('IsoTurningInsert','IsoTurningInsert',' ',(#21));
#21=PRODUCT_CONTEXT(' ',#23,'mechanical');
#22=APPLICATION_PROTOCOL_DEFINITION('international standard','automotive_design',
     2010,#23);
#23=APPLICATION_CONTEXT('core data for automotive mechanical design processes');
#24=SHAPE_REPRESENTATION('IsoTurningInsert-None',(#228),#425);
#25=GEOMETRIC_CURVE_SET('geometric curve set',(#208));
#26=SURFACE_STYLE_USAGE(.BOTH.,#27);
#27=SURFACE_SIDE_STYLE('',(#28));
#28=SURFACE_STYLE_FILL_AREA(#29);
#29=FILL_AREA_STYLE('',(#30));
#30=FILL_AREA_STYLE_COLOUR('',#227);
#31=MANIFOLD_SOLID_BREP('CUT',#32);
#32=CLOSED_SHELL('',(#37,#38,#39,#40,#41,#42,#43,#44,#45,#46));
#33=CYLINDRICAL_SURFACE('',#245,1.190625);
#34=CYLINDRICAL_SURFACE('',#246,1.190625);
#35=CYLINDRICAL_SURFACE('',#247,1.190625);
#36=CYLINDRICAL_SURFACE('',#248,1.190625);
#37=ADVANCED_FACE('',(#53),#47,.F.);
#38=ADVANCED_FACE('',(#54),#48,.T.);
#39=ADVANCED_FACE('',(#55),#49,.T.);
#40=ADVANCED_FACE('',(#56),#50,.T.);
#41=ADVANCED_FACE('',(#57),#51,.T.);
#42=ADVANCED_FACE('',(#58),#52,.T.);
#43=ADVANCED_FACE('',(#59),#33,.T.);
#44=ADVANCED_FACE('',(#60),#34,.T.);
#45=ADVANCED_FACE('',(#61),#35,.T.);
#46=ADVANCED_FACE('',(#62),#36,.T.);
#47=PLANE('',#235);
#48=PLANE('',#236);
#49=PLANE('',#237);
#50=PLANE('',#238);
#51=PLANE('',#239);
#52=PLANE('',#244);
#53=FACE_OUTER_BOUND('',#63,.T.);
#54=FACE_OUTER_BOUND('',#64,.T.);
#55=FACE_OUTER_BOUND('',#65,.T.);
#56=FACE_OUTER_BOUND('',#66,.T.);
#57=FACE_OUTER_BOUND('',#67,.T.);
#58=FACE_OUTER_BOUND('',#68,.T.);
#59=FACE_OUTER_BOUND('',#69,.T.);
#60=FACE_OUTER_BOUND('',#70,.T.);
#61=FACE_OUTER_BOUND('',#71,.T.);
#62=FACE_OUTER_BOUND('',#72,.T.);
#63=EDGE_LOOP('',(#81,#82,#83,#84,#85,#86,#87,#88));
#64=EDGE_LOOP('',(#89,#90,#91,#92));
#65=EDGE_LOOP('',(#93,#94,#95,#96));
#66=EDGE_LOOP('',(#97,#98,#99,#100));
#67=EDGE_LOOP('',(#101,#102,#103,#104));
#68=EDGE_LOOP('',(#105,#106,#107,#108,#109,#110,#111,#112));
#69=EDGE_LOOP('',(#113,#114,#115,#116));
#70=EDGE_LOOP('',(#117,#118,#119,#120));
#71=EDGE_LOOP('',(#121,#122,#123,#124));
#72=EDGE_LOOP('',(#125,#126,#127,#128));
#73=CIRCLE('',#231,1.190625);
#74=CIRCLE('',#232,1.190625);
#75=CIRCLE('',#233,1.190625);
#76=CIRCLE('',#234,1.190625);
#77=CIRCLE('',#240,1.190625);
#78=CIRCLE('',#241,1.190625);
#79=CIRCLE('',#242,1.190625);
#80=CIRCLE('',#243,1.190625);
#81=ORIENTED_EDGE('',*,*,#145,.T.);
#82=ORIENTED_EDGE('',*,*,#146,.T.);
#83=ORIENTED_EDGE('',*,*,#147,.T.);
#84=ORIENTED_EDGE('',*,*,#148,.T.);
#85=ORIENTED_EDGE('',*,*,#149,.T.);
#86=ORIENTED_EDGE('',*,*,#150,.T.);
#87=ORIENTED_EDGE('',*,*,#151,.T.);
#88=ORIENTED_EDGE('',*,*,#152,.T.);
#89=ORIENTED_EDGE('',*,*,#153,.F.);
#90=ORIENTED_EDGE('',*,*,#154,.T.);
#91=ORIENTED_EDGE('',*,*,#145,.F.);
#92=ORIENTED_EDGE('',*,*,#155,.T.);
#93=ORIENTED_EDGE('',*,*,#151,.F.);
#94=ORIENTED_EDGE('',*,*,#156,.T.);
#95=ORIENTED_EDGE('',*,*,#157,.F.);
#96=ORIENTED_EDGE('',*,*,#158,.T.);
#97=ORIENTED_EDGE('',*,*,#149,.F.);
#98=ORIENTED_EDGE('',*,*,#159,.T.);
#99=ORIENTED_EDGE('',*,*,#160,.F.);
#100=ORIENTED_EDGE('',*,*,#161,.T.);
#101=ORIENTED_EDGE('',*,*,#147,.F.);
#102=ORIENTED_EDGE('',*,*,#162,.T.);
#103=ORIENTED_EDGE('',*,*,#163,.F.);
#104=ORIENTED_EDGE('',*,*,#164,.T.);
#105=ORIENTED_EDGE('',*,*,#163,.T.);
#106=ORIENTED_EDGE('',*,*,#165,.T.);
#107=ORIENTED_EDGE('',*,*,#153,.T.);
#108=ORIENTED_EDGE('',*,*,#166,.T.);
#109=ORIENTED_EDGE('',*,*,#157,.T.);
#110=ORIENTED_EDGE('',*,*,#167,.T.);
#111=ORIENTED_EDGE('',*,*,#160,.T.);
#112=ORIENTED_EDGE('',*,*,#168,.T.);
#113=ORIENTED_EDGE('',*,*,#146,.F.);
#114=ORIENTED_EDGE('',*,*,#154,.F.);
#115=ORIENTED_EDGE('',*,*,#165,.F.);
#116=ORIENTED_EDGE('',*,*,#162,.F.);
#117=ORIENTED_EDGE('',*,*,#148,.F.);
#118=ORIENTED_EDGE('',*,*,#164,.F.);
#119=ORIENTED_EDGE('',*,*,#168,.F.);
#120=ORIENTED_EDGE('',*,*,#159,.F.);
#121=ORIENTED_EDGE('',*,*,#150,.F.);
#122=ORIENTED_EDGE('',*,*,#161,.F.);
#123=ORIENTED_EDGE('',*,*,#167,.F.);
#124=ORIENTED_EDGE('',*,*,#156,.F.);
#125=ORIENTED_EDGE('',*,*,#152,.F.);
#126=ORIENTED_EDGE('',*,*,#158,.F.);
#127=ORIENTED_EDGE('',*,*,#166,.F.);
#128=ORIENTED_EDGE('',*,*,#155,.F.);
#129=VERTEX_POINT('',#375);
#130=VERTEX_POINT('',#376);
#131=VERTEX_POINT('',#378);
#132=VERTEX_POINT('',#380);
#133=VERTEX_POINT('',#382);
#134=VERTEX_POINT('',#384);
#135=VERTEX_POINT('',#386);
#136=VERTEX_POINT('',#388);
#137=VERTEX_POINT('',#392);
#138=VERTEX_POINT('',#393);
#139=VERTEX_POINT('',#398);
#140=VERTEX_POINT('',#400);
#141=VERTEX_POINT('',#404);
#142=VERTEX_POINT('',#406);
#143=VERTEX_POINT('',#410);
#144=VERTEX_POINT('',#412);
#145=EDGE_CURVE('',#129,#130,#169,.T.);
#146=EDGE_CURVE('',#130,#131,#73,.T.);
#147=EDGE_CURVE('',#131,#132,#170,.T.);
#148=EDGE_CURVE('',#132,#133,#74,.T.);
#149=EDGE_CURVE('',#133,#134,#171,.T.);
#150=EDGE_CURVE('',#134,#135,#75,.T.);
#151=EDGE_CURVE('',#135,#136,#172,.T.);
#152=EDGE_CURVE('',#136,#129,#76,.T.);
#153=EDGE_CURVE('',#137,#138,#173,.T.);
#154=EDGE_CURVE('',#137,#130,#174,.T.);
#155=EDGE_CURVE('',#129,#138,#175,.T.);
#156=EDGE_CURVE('',#135,#139,#176,.T.);
#157=EDGE_CURVE('',#140,#139,#177,.T.);
#158=EDGE_CURVE('',#140,#136,#178,.T.);
#159=EDGE_CURVE('',#133,#141,#179,.T.);
#160=EDGE_CURVE('',#142,#141,#180,.T.);
#161=EDGE_CURVE('',#142,#134,#181,.T.);
#162=EDGE_CURVE('',#131,#143,#182,.T.);
#163=EDGE_CURVE('',#144,#143,#183,.T.);
#164=EDGE_CURVE('',#144,#132,#184,.T.);
#165=EDGE_CURVE('',#143,#137,#77,.T.);
#166=EDGE_CURVE('',#138,#140,#78,.T.);
#167=EDGE_CURVE('',#139,#142,#79,.T.);
#168=EDGE_CURVE('',#141,#144,#80,.T.);
#169=LINE('',#374,#185);
#170=LINE('',#379,#186);
#171=LINE('',#383,#187);
#172=LINE('',#387,#188);
#173=LINE('',#391,#189);
#174=LINE('',#394,#190);
#175=LINE('',#395,#191);
#176=LINE('',#397,#192);
#177=LINE('',#399,#193);
#178=LINE('',#401,#194);
#179=LINE('',#403,#195);
#180=LINE('',#405,#196);
#181=LINE('',#407,#197);
#182=LINE('',#409,#198);
#183=LINE('',#411,#199);
#184=LINE('',#413,#200);
#185=VECTOR('',#255,1.0);
#186=VECTOR('',#258,1.0);
#187=VECTOR('',#261,1.0);
#188=VECTOR('',#264,1.0);
#189=VECTOR('',#269,1.0);
#190=VECTOR('',#270,1.0);
#191=VECTOR('',#271,1.0);
#192=VECTOR('',#274,1.0);
#193=VECTOR('',#275,1.0);
#194=VECTOR('',#276,1.0);
#195=VECTOR('',#279,1.0);
#196=VECTOR('',#280,1.0);
#197=VECTOR('',#281,1.0);
#198=VECTOR('',#284,1.0);
#199=VECTOR('',#285,1.0);
#200=VECTOR('',#286,1.0);
#201=CURVE_STYLE('',#205,POSITIVE_LENGTH_MEASURE(0.18),#204);
#202=CURVE_STYLE('',#206,POSITIVE_LENGTH_MEASURE(0.18),#226);
#203=CURVE_STYLE('',#207,POSITIVE_LENGTH_MEASURE(0.18),#226);
#204=DRAUGHTING_PRE_DEFINED_COLOUR('blue');
#205=DRAUGHTING_PRE_DEFINED_CURVE_FONT('continuous');
#206=DRAUGHTING_PRE_DEFINED_CURVE_FONT('continuous');
#207=DRAUGHTING_PRE_DEFINED_CURVE_FONT('continuous');
#208=B_SPLINE_CURVE_WITH_KNOTS('CUTTING EDGE LINE',5,(#310,#311,#312,#313,#314,#315,
     #316,#317,#318,#319,#320,#321,#322,#323,#324,#325,#326,#327,#328,#329,#330,
     #331,#332,#333,#334,#335,#336,#337,#338,#339,#340,#341,#342,#343,#344,#345,
     #346,#347,#348,#349,#350,#351,#352,#353,#354,#355,#356,#357,#358,#359,#360,
     #361,#362,#363,#364,#365,#366,#367,#368,#369,#370,#371),.UNSPECIFIED.,.T.,.F.,
     (1,1,4,4,1,1,1,1,1,1,1,4,4,1,1,1,1,1,1,1,4,4,1,1,1,1,1,1,1,4,4,1,1,1,1,1,1,
     1,4,2),(-0.01296756195,-0.00648378097500002,0.0,0.1981297522,0.204613533175,
     0.21109731415,0.217581095125,0.2240648761,0.230548657075,0.23703243805,0.243516219025,
     0.25,0.4481297522,0.454613533175,0.46109731415,0.467581095125,0.4740648761,
     0.480548657075,0.48703243805,0.493516219025,0.5,0.6981297522,0.704613533175,
     0.71109731415,0.717581095125,0.7240648761,0.730548657075,0.73703243805,0.743516219025,
     0.75,0.9481297522,0.954613533175,0.96109731415,0.967581095125,0.9740648761,
     0.980548657075,0.98703243805,0.993516219025,1.0,1.1981297522),.UNSPECIFIED.);
#209=PRESENTATION_LAYER_ASSIGNMENT('1','Layer 1',(#208,#229,#230,#31));
#212=STYLED_ITEM('',(#218),#208);
#213=STYLED_ITEM('',(#219),#229);
#214=STYLED_ITEM('',(#220),#230);
#215=STYLED_ITEM('',(#221),#31);
#216=PRESENTATION_STYLE_ASSIGNMENT((#222));
#217=PRESENTATION_STYLE_ASSIGNMENT((#223));
#218=PRESENTATION_STYLE_ASSIGNMENT((#201));
#219=PRESENTATION_STYLE_ASSIGNMENT((#202));
#220=PRESENTATION_STYLE_ASSIGNMENT((#203));
#221=PRESENTATION_STYLE_ASSIGNMENT((#26));
#222=POINT_STYLE('',#224,POSITIVE_LENGTH_MEASURE(3.0),#226);
#223=POINT_STYLE('',#225,POSITIVE_LENGTH_MEASURE(3.0),#226);
#224=PRE_DEFINED_POINT_MARKER_SYMBOL('plus');
#225=PRE_DEFINED_POINT_MARKER_SYMBOL('plus');
#226=COLOUR_RGB('Medium Maroon',0.6,0.4,0.4);
#227=COLOUR_RGB('IsoInsertColor',0.8,0.8,0.8);
#228=AXIS2_PLACEMENT_3D('',#307,#249,#250);
#229=AXIS2_PLACEMENT_3D('PCS',#372,#251,#252);
#230=AXIS2_PLACEMENT_3D('MCS',#373,#253,#254);
#231=AXIS2_PLACEMENT_3D('',#377,#256,#257);
#232=AXIS2_PLACEMENT_3D('',#381,#259,#260);
#233=AXIS2_PLACEMENT_3D('',#385,#262,#263);
#234=AXIS2_PLACEMENT_3D('',#389,#265,#266);
#235=AXIS2_PLACEMENT_3D('',#390,#267,#268);
#236=AXIS2_PLACEMENT_3D('',#396,#272,#273);
#237=AXIS2_PLACEMENT_3D('',#402,#277,#278);
#238=AXIS2_PLACEMENT_3D('',#408,#282,#283);
#239=AXIS2_PLACEMENT_3D('',#414,#287,#288);
#240=AXIS2_PLACEMENT_3D('',#415,#289,#290);
#241=AXIS2_PLACEMENT_3D('',#416,#291,#292);
#242=AXIS2_PLACEMENT_3D('',#417,#293,#294);
#243=AXIS2_PLACEMENT_3D('',#418,#295,#296);
#244=AXIS2_PLACEMENT_3D('',#419,#297,#298);
#245=AXIS2_PLACEMENT_3D('',#420,#299,#300);
#246=AXIS2_PLACEMENT_3D('',#421,#301,#302);
#247=AXIS2_PLACEMENT_3D('',#422,#303,#304);
#248=AXIS2_PLACEMENT_3D('',#423,#305,#306);
#249=DIRECTION('',(0.0,0.0,1.0));
#250=DIRECTION('',(1.0,0.0,0.0));
#251=DIRECTION('',(0.0,0.0,1.0));
#252=DIRECTION('',(1.0,0.0,0.0));
#253=DIRECTION('',(0.0,0.0,1.0));
#254=DIRECTION('',(1.0,0.0,0.0));
#255=DIRECTION('',(1.0,0.0,0.0));
#256=DIRECTION('',(0.0,0.0,-1.0));
#257=DIRECTION('',(-0.707106781186547,-0.707106781186547,0.0));
#258=DIRECTION('',(-2.22044604925031E-16,-1.0,0.0));
#259=DIRECTION('',(0.0,0.0,-1.0));
#260=DIRECTION('',(-0.707106781186547,-0.707106781186548,0.0));
#261=DIRECTION('',(-1.0,-2.22044604925031E-16,0.0));
#262=DIRECTION('',(0.0,0.0,-1.0));
#263=DIRECTION('',(-0.707106781186548,-0.707106781186548,0.0));
#264=DIRECTION('',(0.0,1.0,0.0));
#265=DIRECTION('',(0.0,0.0,-1.0));
#266=DIRECTION('',(-0.707106781186548,-0.707106781186547,0.0));
#267=DIRECTION('',(0.0,0.0,1.0));
#268=DIRECTION('',(-0.707106781186548,-0.707106781186548,0.0));
#269=DIRECTION('',(-1.0,0.0,-1.3987061727561E-16));
#270=DIRECTION('',(1.3987061727561E-16,-4.91004146061257E-16,-1.0));
#271=DIRECTION('',(-1.3987061727561E-16,4.91004146061257E-16,1.0));
#272=DIRECTION('',(0.0,1.0,-4.91004146061257E-16));
#273=DIRECTION('',(-1.0,0.0,0.0));
#274=DIRECTION('',(-1.3987061727561E-16,4.91004146061257E-16,1.0));
#275=DIRECTION('',(0.0,-1.0,4.91004146061257E-16));
#276=DIRECTION('',(1.3987061727561E-16,-4.91004146061257E-16,-1.0));
#277=DIRECTION('',(-1.0,0.0,-1.3987061727561E-16));
#278=DIRECTION('',(0.0,-1.0,0.0));
#279=DIRECTION('',(-1.3987061727561E-16,4.91004146061257E-16,1.0));
#280=DIRECTION('',(1.0,2.22044604925031E-16,1.3987061727561E-16));
#281=DIRECTION('',(1.3987061727561E-16,-4.91004146061257E-16,-1.0));
#282=DIRECTION('',(2.22044604925031E-16,-1.0,4.91004146061257E-16));
#283=DIRECTION('',(1.0,2.22044604925031E-16,0.0));
#284=DIRECTION('',(-1.3987061727561E-16,4.91004146061257E-16,1.0));
#285=DIRECTION('',(2.22044604925031E-16,1.0,-4.91004146061257E-16));
#286=DIRECTION('',(1.3987061727561E-16,-4.91004146061257E-16,-1.0));
#287=DIRECTION('',(1.0,-2.22044604925031E-16,1.3987061727561E-16));
#288=DIRECTION('',(2.22044604925031E-16,1.0,0.0));
#289=DIRECTION('',(-1.3987061727561E-16,4.91004146061257E-16,1.0));
#290=DIRECTION('',(-0.707106781186547,0.707106781186547,-4.46095823234957E-16));
#291=DIRECTION('',(-1.3987061727561E-16,4.91004146061257E-16,1.0));
#292=DIRECTION('',(-0.707106781186548,0.707106781186547,-4.46095823234957E-16));
#293=DIRECTION('',(-1.3987061727561E-16,4.91004146061257E-16,1.0));
#294=DIRECTION('',(-0.707106781186548,0.707106781186548,-4.46095823234957E-16));
#295=DIRECTION('',(-1.3987061727561E-16,4.91004146061257E-16,1.0));
#296=DIRECTION('',(-0.707106781186547,0.707106781186548,-4.46095823234957E-16));
#297=DIRECTION('',(-1.3987061727561E-16,4.91004146061257E-16,1.0));
#298=DIRECTION('',(-0.707106781186548,0.707106781186548,-4.46095823234957E-16));
#299=DIRECTION('',(-1.3987061727561E-16,4.91004146061257E-16,1.0));
#300=DIRECTION('',(-0.707106781186547,0.707106781186547,-4.46095823234957E-16));
#301=DIRECTION('',(-1.3987061727561E-16,4.91004146061257E-16,1.0));
#302=DIRECTION('',(-0.707106781186547,0.707106781186548,-4.46095823234957E-16));
#303=DIRECTION('',(-1.3987061727561E-16,4.91004146061257E-16,1.0));
#304=DIRECTION('',(-0.707106781186548,0.707106781186548,-4.46095823234957E-16));
#305=DIRECTION('',(-1.3987061727561E-16,4.91004146061257E-16,1.0));
#306=DIRECTION('',(-0.707106781186548,0.707106781186547,-4.46095823234957E-16));
#307=CARTESIAN_POINT('',(0.0,0.0,0.0));
#310=CARTESIAN_POINT('',(8.37646995056751,-8.88178419700125E-16,5.90489658124247E-16));
#311=CARTESIAN_POINT('',(6.905625,0.0,0.0));
#312=CARTESIAN_POINT('',(5.476875,0.0,2.92300905702092E-17));
#313=CARTESIAN_POINT('',(4.048125,-8.88178419700125E-16,8.76902717106275E-17));
#314=CARTESIAN_POINT('',(2.619375,-8.88178419700125E-16,1.75380543421255E-16));
#315=CARTESIAN_POINT('',(1.14853004943248,-8.88178419700125E-16,2.96747456610473E-16));
#316=CARTESIAN_POINT('',(1.06434014829746,0.0037207031249995,3.04073886287995E-16));
#317=CARTESIAN_POINT('',(0.92887124546187,0.0212716956795704,3.10993487673473E-16));
#318=CARTESIAN_POINT('',(0.751148927461015,0.0716233405051483,3.08565046294997E-16));
#319=CARTESIAN_POINT('',(0.532970390950394,0.182630121073229,2.84870066681189E-16));
#320=CARTESIAN_POINT('',(0.339677773596825,0.339677773596835,2.39159974770746E-16));
#321=CARTESIAN_POINT('',(0.182630121073258,0.53297039095041,1.74359649258114E-16));
#322=CARTESIAN_POINT('',(0.0716233405051243,0.751148927460682,9.42172743690726E-17));
#323=CARTESIAN_POINT('',(0.0212716956795704,0.928871245462818,2.47026620862964E-17));
#324=CARTESIAN_POINT('',(0.0037207031249995,1.06434014829746,-3.0485134443833E-17));
#325=CARTESIAN_POINT('',(-1.77635683940025E-15,1.14853004943249,-6.55418549500266E-17));
#326=CARTESIAN_POINT('',(-1.77635683940025E-15,2.619375,-4.99600361081318E-17));
#327=CARTESIAN_POINT('',(-1.77635683940025E-15,4.048125,-3.33066907387546E-17));
#328=CARTESIAN_POINT('',(-2.66453525910038E-15,5.476875,-3.33066907387547E-17));
#329=CARTESIAN_POINT('',(-3.5527136788005E-15,6.905625,-4.9960036108132E-17));
#330=CARTESIAN_POINT('',(-3.5527136788005E-15,8.37646995056751,-1.06879445463811E-16));
#331=CARTESIAN_POINT('',(0.00372070312499773,8.46065985170254,-1.52671025324546E-16));
#332=CARTESIAN_POINT('',(0.0212716956795669,8.59612875453813,-2.21897204591522E-16));
#333=CARTESIAN_POINT('',(0.0716233405051421,8.77385107253899,-3.02184515911002E-16));
#334=CARTESIAN_POINT('',(0.182630121073227,8.99202960904961,-3.81790483538549E-16));
#335=CARTESIAN_POINT('',(0.339677773596835,9.18532222640317,-4.29694062554912E-16));
#336=CARTESIAN_POINT('',(0.532970390950406,9.34236987892674,-4.43298591157371E-16));
#337=CARTESIAN_POINT('',(0.751148927460681,9.45337665949487,-4.21486624535114E-16));
#338=CARTESIAN_POINT('',(0.928871245462813,9.50372830432043,-3.81241520910819E-16));
#339=CARTESIAN_POINT('',(1.06434014829746,9.521279296875,-3.38880549565587E-16));
#340=CARTESIAN_POINT('',(1.14853004943248,9.525,-3.08523150050602E-16));
#341=CARTESIAN_POINT('',(2.619375,9.525,-1.75380543421255E-16));
#342=CARTESIAN_POINT('',(4.048125,9.525,-1.16920362280837E-16));
#343=CARTESIAN_POINT('',(5.476875,9.525,-1.16920362280837E-16));
#344=CARTESIAN_POINT('',(6.905625,9.525,-1.75380543421255E-16));
#345=CARTESIAN_POINT('',(8.37646995056751,9.525,-2.96747456610473E-16));
#346=CARTESIAN_POINT('',(8.46065985170254,9.521279296875,-3.04073886287995E-16));
#347=CARTESIAN_POINT('',(8.59612875453813,9.50372830432043,-3.10993487673473E-16));
#348=CARTESIAN_POINT('',(8.77385107253898,9.45337665949485,-3.08565046294996E-16));
#349=CARTESIAN_POINT('',(8.99202960904961,9.34236987892677,-2.84870066681188E-16));
#350=CARTESIAN_POINT('',(9.18532222640317,9.18532222640316,-2.39159974770745E-16));
#351=CARTESIAN_POINT('',(9.34236987892674,8.99202960904959,-1.74359649258113E-16));
#352=CARTESIAN_POINT('',(9.45337665949488,8.77385107253932,-9.42172743690719E-17));
#353=CARTESIAN_POINT('',(9.50372830432042,8.59612875453718,-2.47026620862957E-17));
#354=CARTESIAN_POINT('',(9.521279296875,8.46065985170254,3.04851344438336E-17));
#355=CARTESIAN_POINT('',(9.525,8.37646995056751,6.55418549500272E-17));
#356=CARTESIAN_POINT('',(9.525,6.905625,4.99600361081322E-17));
#357=CARTESIAN_POINT('',(9.525,5.476875,3.33066907387547E-17));
#358=CARTESIAN_POINT('',(9.525,4.048125,3.33066907387547E-17));
#359=CARTESIAN_POINT('',(9.525,2.619375,4.9960036108132E-17));
#360=CARTESIAN_POINT('',(9.525,1.14853004943249,1.06879445463811E-16));
#361=CARTESIAN_POINT('',(9.521279296875,1.06434014829746,1.53584465654865E-16));
#362=CARTESIAN_POINT('',(9.50372830432043,0.928871245461872,2.27119449977734E-16));
#363=CARTESIAN_POINT('',(9.45337665949486,0.751148927461009,3.19768194482394E-16));
#364=CARTESIAN_POINT('',(9.34236987892676,0.532970390950404,4.26626556859862E-16));
#365=CARTESIAN_POINT('',(9.18532222640317,0.339677773596821,5.13085660135365E-16));
#366=CARTESIAN_POINT('',(8.99202960904958,0.182630121073263,5.74143926999641E-16));
#367=CARTESIAN_POINT('',(8.77385107253932,0.0716233405051234,6.05895243381446E-16));
#368=CARTESIAN_POINT('',(8.59612875453718,0.0212716956795722,6.09281337250483E-16));
#369=CARTESIAN_POINT('',(8.46065985170254,0.00372070312499861,6.00178262382341E-16));
#370=CARTESIAN_POINT('',(8.37646995056751,-8.88178419700125E-16,5.90489658124247E-16));
#371=CARTESIAN_POINT('',(6.905625,0.0,0.0));
#372=CARTESIAN_POINT('',(0.0,0.0,0.0));
#373=CARTESIAN_POINT('',(4.7625,4.7625,0.0));
#374=CARTESIAN_POINT('',(4.7625,9.525,-3.175));
#375=CARTESIAN_POINT('',(1.19062499999999,9.525,-3.175));
#376=CARTESIAN_POINT('',(8.334375,9.525,-3.175));
#377=CARTESIAN_POINT('',(8.334375,8.334375,-3.175));
#378=CARTESIAN_POINT('',(9.525,8.334375,-3.175));
#379=CARTESIAN_POINT('',(9.525,4.7625,-3.175));
#380=CARTESIAN_POINT('',(9.525,1.190625,-3.175));
#381=CARTESIAN_POINT('',(8.334375,1.190625,-3.175));
#382=CARTESIAN_POINT('',(8.334375,-8.67361737988404E-16,-3.175));
#383=CARTESIAN_POINT('',(4.7625,-1.73472347597681E-15,-3.175));
#384=CARTESIAN_POINT('',(1.190625,-2.60208521396521E-15,-3.175));
#385=CARTESIAN_POINT('',(1.190625,1.190625,-3.175));
#386=CARTESIAN_POINT('',(-2.60208521396521E-15,1.19062499999999,-3.175));
#387=CARTESIAN_POINT('',(-1.73472347597681E-15,4.7625,-3.175));
#388=CARTESIAN_POINT('',(-1.73472347597681E-15,8.334375,-3.175));
#389=CARTESIAN_POINT('',(1.190625,8.334375,-3.175));
#390=CARTESIAN_POINT('',(4.7625,4.23216991411009,-3.175));
#391=CARTESIAN_POINT('',(4.7625,9.525,-5.27182464349352E-15));
#392=CARTESIAN_POINT('',(8.334375,9.525,-4.7722242824122E-15));
#393=CARTESIAN_POINT('',(1.19062499999999,9.525,-5.77142500457484E-15));
#394=CARTESIAN_POINT('',(8.334375,9.525,-4.77048955893622E-15));
#395=CARTESIAN_POINT('',(1.19062499999999,9.525,-6.07153216591883E-15));
#396=CARTESIAN_POINT('',(4.7625,9.525,-5.27182464349352E-15));
#397=CARTESIAN_POINT('',(-2.60208521396521E-15,1.190625,-1.73472347597681E-15));
#398=CARTESIAN_POINT('',(-2.60208521396521E-15,1.190625,-1.84574577843932E-15));
#399=CARTESIAN_POINT('',(-2.60208521396521E-15,4.7625,-3.59955121265187E-15));
#400=CARTESIAN_POINT('',(-1.73472347597681E-15,8.334375,-5.35335664686443E-15));
#401=CARTESIAN_POINT('',(-1.73472347597681E-15,8.334375,-5.63785129692462E-15));
#402=CARTESIAN_POINT('',(-2.60208521396521E-15,4.7625,-3.59955121265188E-15));
#403=CARTESIAN_POINT('',(8.334375,0.0,-3.85185988877447E-31));
#404=CARTESIAN_POINT('',(8.334375,0.0,-9.54097911787258E-17));
#405=CARTESIAN_POINT('',(4.7625,0.0,-5.95010152260046E-16));
#406=CARTESIAN_POINT('',(1.190625,-8.67361737988404E-16,-1.09461051334137E-15));
#407=CARTESIAN_POINT('',(1.190625,-8.67361737988404E-16,-1.30104260698261E-15));
#408=CARTESIAN_POINT('',(4.7625,0.0,-5.95010152260046E-16));
#409=CARTESIAN_POINT('',(9.525,8.334375,-4.33680868994202E-15));
#410=CARTESIAN_POINT('',(9.525,8.334375,-4.02108901731424E-15));
#411=CARTESIAN_POINT('',(9.525,4.7625,-2.26728358310169E-15));
#412=CARTESIAN_POINT('',(9.525,1.190625,-5.13478148889135E-16));
#413=CARTESIAN_POINT('',(9.525,1.190625,-4.33680868994202E-16));
#414=CARTESIAN_POINT('',(9.525,4.7625,-2.26728358310169E-15));
#415=CARTESIAN_POINT('',(8.334375,8.334375,-4.18762247100801E-15));
#416=CARTESIAN_POINT('',(1.19062499999999,8.334375,-5.18682319317065E-15));
#417=CARTESIAN_POINT('',(1.190625,1.190625,-1.67921232474555E-15));
#418=CARTESIAN_POINT('',(8.334375,1.190625,-6.80011602582908E-16));
#419=CARTESIAN_POINT('',(4.7625,4.7625,-2.93341739787678E-15));
#420=CARTESIAN_POINT('',(8.334375,8.334375,-4.33680868994202E-15));
#421=CARTESIAN_POINT('',(8.334375,1.190625,-8.67361737988404E-16));
#422=CARTESIAN_POINT('',(1.190625,1.190625,-1.73472347597681E-15));
#423=CARTESIAN_POINT('',(1.19062499999999,8.334375,-5.20417042793042E-15));
#424=MECHANICAL_DESIGN_GEOMETRIC_PRESENTATION_REPRESENTATION('',(#212,#213,#214,
     #215),#425);
#425=(GEOMETRIC_REPRESENTATION_CONTEXT(3)GLOBAL_UNCERTAINTY_ASSIGNED_CONTEXT((#426))
     GLOBAL_UNIT_ASSIGNED_CONTEXT((#432,#428,#427))REPRESENTATION_CONTEXT('SNGN090312',
     'TOP_LEVEL_ASSEMBLY_PART'));
#426=UNCERTAINTY_MEASURE_WITH_UNIT(LENGTH_MEASURE(2.0E-5),#432,'DISTANCE_ACCURACY_VALUE',
     'Maximum Tolerance applied to model');
#427=(NAMED_UNIT(*)SI_UNIT($,.STERADIAN.)SOLID_ANGLE_UNIT());
#428=(CONVERSION_BASED_UNIT('DEGREE',#430)NAMED_UNIT(#429)PLANE_ANGLE_UNIT());
#429=DIMENSIONAL_EXPONENTS(0.0,0.0,0.0,0.0,0.0,0.0,0.0);
#430=PLANE_ANGLE_MEASURE_WITH_UNIT(PLANE_ANGLE_MEASURE(0.0174532925),#431);
#431=(NAMED_UNIT(*)PLANE_ANGLE_UNIT()SI_UNIT($,.RADIAN.));
#432=(LENGTH_UNIT()NAMED_UNIT(*)SI_UNIT(.MILLI.,.METRE.));
#433=CONSTRUCTIVE_GEOMETRY_REPRESENTATION('supplemental geometry',(#229,#230),#425);
#434=CONSTRUCTIVE_GEOMETRY_REPRESENTATION_RELATIONSHIP('supplemental geometry','contains PCS and MCS coordinate systems',
     #24,#433);
ENDSEC;
END-ISO-10303-21;
