ISO-10303-21;
HEADER;
FILE_DESCRIPTION(
/* description */ (''),
/* implementation_level */ '2;1');
FILE_NAME(
/* name */ 'SCMW09T308.stp',
/* time_stamp */ '2017-03-21T10:54:17',
/* author */ ('Sandvik Coromant R&D'),
/* organization */ ('Sandvik Machining Solutions'),
/* preprocessor_version */ 'ST-DEVELOPER v15',
/* originating_system */ 'SIEMENS PLM Software NX v8.5.3.3(64 bits)',
/* authorization */ '');
FILE_SCHEMA(('AUTOMOTIVE_DESIGN'));
ENDSEC;
DATA;
#10=GEOMETRICALLY_BOUNDED_WIREFRAME_SHAPE_REPRESENTATION('IsoTurningInsert-None',
     (#25),#519);
#11=SHAPE_REPRESENTATION_RELATIONSHIP('None','relationship between IsoTurningInsert-None and IsoTurningInsert-None',
     #24,#13);
#12=SHAPE_REPRESENTATION_RELATIONSHIP('None','relationship between IsoTurningInsert-None and IsoTurningInsert-None',
     #24,#10);
#13=ADVANCED_BREP_SHAPE_REPRESENTATION('IsoTurningInsert-None',(#31),#519);
#14=SHAPE_DEFINITION_REPRESENTATION(#15,#24);
#15=PRODUCT_DEFINITION_SHAPE('','',#16);
#16=PRODUCT_DEFINITION(' ','',#18,#17);
#17=PRODUCT_DEFINITION_CONTEXT('part definition',#23,'design');
#18=PRODUCT_DEFINITION_FORMATION_WITH_SPECIFIED_SOURCE(' ',' ',#20,.NOT_KNOWN.);
#19=PRODUCT_RELATED_PRODUCT_CATEGORY('part','',(#20));
#20=PRODUCT('IsoTurningInsert','IsoTurningInsert',' ',(#21));
#21=PRODUCT_CONTEXT(' ',#23,'mechanical');
#22=APPLICATION_PROTOCOL_DEFINITION('international standard','automotive_design',
     2010,#23);
#23=APPLICATION_CONTEXT('core data for automotive mechanical design processes');
#24=SHAPE_REPRESENTATION('IsoTurningInsert-None',(#281),#519);
#25=GEOMETRIC_CURVE_SET('geometric curve set',(#261));
#26=SURFACE_STYLE_USAGE(.BOTH.,#27);
#27=SURFACE_SIDE_STYLE('',(#28));
#28=SURFACE_STYLE_FILL_AREA(#29);
#29=FILL_AREA_STYLE('',(#30));
#30=FILL_AREA_STYLE_COLOUR('',#280);
#31=MANIFOLD_SOLID_BREP('CUT',#32);
#32=CLOSED_SHELL('',(#49,#50,#51,#52,#53,#54,#55,#56,#57,#58,#59,#60,#61,#62));
#33=CYLINDRICAL_SURFACE('',#309,2.2);
#34=TOROIDAL_SURFACE('',#308,6.19999999999999,4.0);
#35=TOROIDAL_SURFACE('',#310,2.51117873496443,0.5);
#36=CONICAL_SURFACE('',#300,0.793749999999998,7.0);
#37=CONICAL_SURFACE('',#301,0.793749999999998,7.0);
#38=CONICAL_SURFACE('',#302,0.793749999999998,7.0);
#39=CONICAL_SURFACE('',#303,0.793749999999998,7.0);
#40=CONICAL_SURFACE('',#305,2.99999999999613,4.00000000019636);
#41=FACE_OUTER_BOUND('',#115,.T.);
#42=FACE_OUTER_BOUND('',#116,.T.);
#43=FACE_OUTER_BOUND('',#117,.T.);
#44=FACE_OUTER_BOUND('',#118,.T.);
#45=FACE_OUTER_BOUND('',#121,.T.);
#46=FACE_OUTER_BOUND('',#122,.T.);
#47=FACE_OUTER_BOUND('',#123,.T.);
#48=FACE_OUTER_BOUND('',#124,.T.);
#49=ADVANCED_FACE('',(#101,#102),#63,.F.);
#50=ADVANCED_FACE('',(#41),#64,.F.);
#51=ADVANCED_FACE('',(#42),#65,.F.);
#52=ADVANCED_FACE('',(#43),#66,.F.);
#53=ADVANCED_FACE('',(#44),#67,.F.);
#54=ADVANCED_FACE('',(#103,#104),#68,.T.);
#55=ADVANCED_FACE('',(#45),#36,.T.);
#56=ADVANCED_FACE('',(#46),#37,.T.);
#57=ADVANCED_FACE('',(#47),#38,.T.);
#58=ADVANCED_FACE('',(#48),#39,.T.);
#59=ADVANCED_FACE('',(#105,#106),#40,.F.);
#60=ADVANCED_FACE('',(#107,#108),#34,.T.);
#61=ADVANCED_FACE('',(#109,#110),#33,.F.);
#62=ADVANCED_FACE('',(#111,#112),#35,.F.);
#63=PLANE('',#289);
#64=PLANE('',#290);
#65=PLANE('',#291);
#66=PLANE('',#292);
#67=PLANE('',#293);
#68=PLANE('',#299);
#69=LINE('',#456,#85);
#70=LINE('',#461,#86);
#71=LINE('',#465,#87);
#72=LINE('',#469,#88);
#73=LINE('',#473,#89);
#74=LINE('',#476,#90);
#75=LINE('',#477,#91);
#76=LINE('',#479,#92);
#77=LINE('',#481,#93);
#78=LINE('',#483,#94);
#79=LINE('',#485,#95);
#80=LINE('',#487,#96);
#81=LINE('',#489,#97);
#82=LINE('',#491,#98);
#83=LINE('',#493,#99);
#84=LINE('',#495,#100);
#85=VECTOR('',#319,1.0);
#86=VECTOR('',#322,1.0);
#87=VECTOR('',#325,1.0);
#88=VECTOR('',#328,1.0);
#89=VECTOR('',#333,1.0);
#90=VECTOR('',#334,1.0);
#91=VECTOR('',#335,1.0);
#92=VECTOR('',#338,1.0);
#93=VECTOR('',#339,1.0);
#94=VECTOR('',#340,1.0);
#95=VECTOR('',#343,1.0);
#96=VECTOR('',#344,1.0);
#97=VECTOR('',#345,1.0);
#98=VECTOR('',#348,1.0);
#99=VECTOR('',#349,1.0);
#100=VECTOR('',#350,1.0);
#101=FACE_BOUND('',#113,.T.);
#102=FACE_BOUND('',#114,.T.);
#103=FACE_BOUND('',#119,.T.);
#104=FACE_BOUND('',#120,.T.);
#105=FACE_BOUND('',#125,.T.);
#106=FACE_BOUND('',#126,.T.);
#107=FACE_BOUND('',#127,.T.);
#108=FACE_BOUND('',#128,.T.);
#109=FACE_BOUND('',#129,.T.);
#110=FACE_BOUND('',#130,.T.);
#111=FACE_BOUND('',#131,.T.);
#112=FACE_BOUND('',#132,.T.);
#113=EDGE_LOOP('',(#133));
#114=EDGE_LOOP('',(#134,#135,#136,#137,#138,#139,#140,#141));
#115=EDGE_LOOP('',(#142,#143,#144,#145));
#116=EDGE_LOOP('',(#146,#147,#148,#149));
#117=EDGE_LOOP('',(#150,#151,#152,#153));
#118=EDGE_LOOP('',(#154,#155,#156,#157));
#119=EDGE_LOOP('',(#158));
#120=EDGE_LOOP('',(#159,#160,#161,#162,#163,#164,#165,#166));
#121=EDGE_LOOP('',(#167,#168,#169,#170));
#122=EDGE_LOOP('',(#171,#172,#173,#174));
#123=EDGE_LOOP('',(#175,#176,#177,#178));
#124=EDGE_LOOP('',(#179,#180,#181,#182));
#125=EDGE_LOOP('',(#183));
#126=EDGE_LOOP('',(#184));
#127=EDGE_LOOP('',(#185));
#128=EDGE_LOOP('',(#186));
#129=EDGE_LOOP('',(#187));
#130=EDGE_LOOP('',(#188));
#131=EDGE_LOOP('',(#189));
#132=EDGE_LOOP('',(#190));
#133=ORIENTED_EDGE('',*,*,#212,.T.);
#134=ORIENTED_EDGE('',*,*,#213,.T.);
#135=ORIENTED_EDGE('',*,*,#214,.T.);
#136=ORIENTED_EDGE('',*,*,#215,.T.);
#137=ORIENTED_EDGE('',*,*,#216,.T.);
#138=ORIENTED_EDGE('',*,*,#217,.T.);
#139=ORIENTED_EDGE('',*,*,#218,.T.);
#140=ORIENTED_EDGE('',*,*,#219,.T.);
#141=ORIENTED_EDGE('',*,*,#220,.T.);
#142=ORIENTED_EDGE('',*,*,#221,.F.);
#143=ORIENTED_EDGE('',*,*,#222,.T.);
#144=ORIENTED_EDGE('',*,*,#213,.F.);
#145=ORIENTED_EDGE('',*,*,#223,.T.);
#146=ORIENTED_EDGE('',*,*,#219,.F.);
#147=ORIENTED_EDGE('',*,*,#224,.T.);
#148=ORIENTED_EDGE('',*,*,#225,.F.);
#149=ORIENTED_EDGE('',*,*,#226,.T.);
#150=ORIENTED_EDGE('',*,*,#217,.F.);
#151=ORIENTED_EDGE('',*,*,#227,.T.);
#152=ORIENTED_EDGE('',*,*,#228,.F.);
#153=ORIENTED_EDGE('',*,*,#229,.T.);
#154=ORIENTED_EDGE('',*,*,#215,.F.);
#155=ORIENTED_EDGE('',*,*,#230,.T.);
#156=ORIENTED_EDGE('',*,*,#231,.F.);
#157=ORIENTED_EDGE('',*,*,#232,.T.);
#158=ORIENTED_EDGE('',*,*,#233,.F.);
#159=ORIENTED_EDGE('',*,*,#231,.T.);
#160=ORIENTED_EDGE('',*,*,#234,.T.);
#161=ORIENTED_EDGE('',*,*,#221,.T.);
#162=ORIENTED_EDGE('',*,*,#235,.T.);
#163=ORIENTED_EDGE('',*,*,#225,.T.);
#164=ORIENTED_EDGE('',*,*,#236,.T.);
#165=ORIENTED_EDGE('',*,*,#228,.T.);
#166=ORIENTED_EDGE('',*,*,#237,.T.);
#167=ORIENTED_EDGE('',*,*,#214,.F.);
#168=ORIENTED_EDGE('',*,*,#222,.F.);
#169=ORIENTED_EDGE('',*,*,#234,.F.);
#170=ORIENTED_EDGE('',*,*,#230,.F.);
#171=ORIENTED_EDGE('',*,*,#216,.F.);
#172=ORIENTED_EDGE('',*,*,#232,.F.);
#173=ORIENTED_EDGE('',*,*,#237,.F.);
#174=ORIENTED_EDGE('',*,*,#227,.F.);
#175=ORIENTED_EDGE('',*,*,#218,.F.);
#176=ORIENTED_EDGE('',*,*,#229,.F.);
#177=ORIENTED_EDGE('',*,*,#236,.F.);
#178=ORIENTED_EDGE('',*,*,#224,.F.);
#179=ORIENTED_EDGE('',*,*,#220,.F.);
#180=ORIENTED_EDGE('',*,*,#226,.F.);
#181=ORIENTED_EDGE('',*,*,#235,.F.);
#182=ORIENTED_EDGE('',*,*,#223,.F.);
#183=ORIENTED_EDGE('',*,*,#238,.T.);
#184=ORIENTED_EDGE('',*,*,#233,.T.);
#185=ORIENTED_EDGE('',*,*,#239,.T.);
#186=ORIENTED_EDGE('',*,*,#240,.T.);
#187=ORIENTED_EDGE('',*,*,#240,.F.);
#188=ORIENTED_EDGE('',*,*,#212,.F.);
#189=ORIENTED_EDGE('',*,*,#239,.F.);
#190=ORIENTED_EDGE('',*,*,#238,.F.);
#191=VERTEX_POINT('',#455);
#192=VERTEX_POINT('',#457);
#193=VERTEX_POINT('',#458);
#194=VERTEX_POINT('',#460);
#195=VERTEX_POINT('',#462);
#196=VERTEX_POINT('',#464);
#197=VERTEX_POINT('',#466);
#198=VERTEX_POINT('',#468);
#199=VERTEX_POINT('',#470);
#200=VERTEX_POINT('',#474);
#201=VERTEX_POINT('',#475);
#202=VERTEX_POINT('',#480);
#203=VERTEX_POINT('',#482);
#204=VERTEX_POINT('',#486);
#205=VERTEX_POINT('',#488);
#206=VERTEX_POINT('',#492);
#207=VERTEX_POINT('',#494);
#208=VERTEX_POINT('',#498);
#209=VERTEX_POINT('',#509);
#210=VERTEX_POINT('',#512);
#211=VERTEX_POINT('',#514);
#212=EDGE_CURVE('',#191,#191,#241,.T.);
#213=EDGE_CURVE('',#192,#193,#69,.T.);
#214=EDGE_CURVE('',#193,#194,#242,.T.);
#215=EDGE_CURVE('',#194,#195,#70,.T.);
#216=EDGE_CURVE('',#195,#196,#243,.T.);
#217=EDGE_CURVE('',#196,#197,#71,.T.);
#218=EDGE_CURVE('',#197,#198,#244,.T.);
#219=EDGE_CURVE('',#198,#199,#72,.T.);
#220=EDGE_CURVE('',#199,#192,#245,.T.);
#221=EDGE_CURVE('',#200,#201,#73,.T.);
#222=EDGE_CURVE('',#200,#193,#74,.T.);
#223=EDGE_CURVE('',#192,#201,#75,.T.);
#224=EDGE_CURVE('',#198,#202,#76,.T.);
#225=EDGE_CURVE('',#203,#202,#77,.T.);
#226=EDGE_CURVE('',#203,#199,#78,.T.);
#227=EDGE_CURVE('',#196,#204,#79,.T.);
#228=EDGE_CURVE('',#205,#204,#80,.T.);
#229=EDGE_CURVE('',#205,#197,#81,.T.);
#230=EDGE_CURVE('',#194,#206,#82,.T.);
#231=EDGE_CURVE('',#207,#206,#83,.T.);
#232=EDGE_CURVE('',#207,#195,#84,.T.);
#233=EDGE_CURVE('',#208,#208,#246,.T.);
#234=EDGE_CURVE('',#206,#200,#247,.T.);
#235=EDGE_CURVE('',#201,#203,#248,.T.);
#236=EDGE_CURVE('',#202,#205,#249,.T.);
#237=EDGE_CURVE('',#204,#207,#250,.T.);
#238=EDGE_CURVE('',#209,#209,#251,.T.);
#239=EDGE_CURVE('',#210,#210,#252,.T.);
#240=EDGE_CURVE('',#211,#211,#253,.T.);
#241=CIRCLE('',#284,2.2);
#242=CIRCLE('',#285,0.306448773916596);
#243=CIRCLE('',#286,0.306448773916596);
#244=CIRCLE('',#287,0.306448773916596);
#245=CIRCLE('',#288,0.306448773916597);
#246=CIRCLE('',#294,3.07132534818238);
#247=CIRCLE('',#295,0.793749999999998);
#248=CIRCLE('',#296,0.793749999999998);
#249=CIRCLE('',#297,0.793749999999998);
#250=CIRCLE('',#298,0.793749999999998);
#251=CIRCLE('',#304,3.00996076009422);
#252=CIRCLE('',#306,2.92104776441283);
#253=CIRCLE('',#307,2.2);
#254=CURVE_STYLE('',#258,POSITIVE_LENGTH_MEASURE(0.18),#257);
#255=CURVE_STYLE('',#259,POSITIVE_LENGTH_MEASURE(0.18),#279);
#256=CURVE_STYLE('',#260,POSITIVE_LENGTH_MEASURE(0.18),#279);
#257=DRAUGHTING_PRE_DEFINED_COLOUR('blue');
#258=DRAUGHTING_PRE_DEFINED_CURVE_FONT('continuous');
#259=DRAUGHTING_PRE_DEFINED_CURVE_FONT('continuous');
#260=DRAUGHTING_PRE_DEFINED_CURVE_FONT('continuous');
#261=B_SPLINE_CURVE_WITH_KNOTS('CUTTING EDGE LINE',5,(#390,#391,#392,#393,#394,#395,
     #396,#397,#398,#399,#400,#401,#402,#403,#404,#405,#406,#407,#408,#409,#410,
     #411,#412,#413,#414,#415,#416,#417,#418,#419,#420,#421,#422,#423,#424,#425,
     #426,#427,#428,#429,#430,#431,#432,#433,#434,#435,#436,#437,#438,#439,#440,
     #441,#442,#443,#444,#445,#446,#447,#448,#449,#450,#451),.UNSPECIFIED.,.T.,.F.,
     (1,1,4,4,1,1,1,1,1,1,1,4,4,1,1,1,1,1,1,1,4,4,1,1,1,1,1,1,1,4,4,1,1,1,1,1,1,
     1,4,2),(-0.00848470299999993,-0.00424235150000007,0.0,0.216061188,0.2203035395,
     0.224545891,0.2287882425,0.233030594,0.2372729455,0.241515297,0.2457576485,
     0.25,0.466061188,0.4703035395,0.474545891,0.4787882425,0.483030594,0.4872729455,
     0.491515297,0.4957576485,0.5,0.716061188,0.7203035395,0.724545891,0.7287882425,
     0.733030594,0.7372729455,0.741515297,0.7457576485,0.75,0.966061188,0.9703035395,
     0.974545891,0.9787882425,0.983030594,0.9872729455,0.991515297,0.9957576485,
     1.0,1.216061188),.UNSPECIFIED.);
#262=PRESENTATION_LAYER_ASSIGNMENT('1','Layer 1',(#261,#282,#283,#31));
#265=STYLED_ITEM('',(#271),#261);
#266=STYLED_ITEM('',(#272),#282);
#267=STYLED_ITEM('',(#273),#283);
#268=STYLED_ITEM('',(#274),#31);
#269=PRESENTATION_STYLE_ASSIGNMENT((#275));
#270=PRESENTATION_STYLE_ASSIGNMENT((#276));
#271=PRESENTATION_STYLE_ASSIGNMENT((#254));
#272=PRESENTATION_STYLE_ASSIGNMENT((#255));
#273=PRESENTATION_STYLE_ASSIGNMENT((#256));
#274=PRESENTATION_STYLE_ASSIGNMENT((#26));
#275=POINT_STYLE('',#277,POSITIVE_LENGTH_MEASURE(3.0),#279);
#276=POINT_STYLE('',#278,POSITIVE_LENGTH_MEASURE(3.0),#279);
#277=PRE_DEFINED_POINT_MARKER_SYMBOL('plus');
#278=PRE_DEFINED_POINT_MARKER_SYMBOL('plus');
#279=COLOUR_RGB('Medium Maroon',0.6,0.4,0.4);
#280=COLOUR_RGB('IsoInsertColor',0.8,0.8,0.8);
#281=AXIS2_PLACEMENT_3D('',#387,#311,#312);
#282=AXIS2_PLACEMENT_3D('PCS',#452,#313,#314);
#283=AXIS2_PLACEMENT_3D('MCS',#453,#315,#316);
#284=AXIS2_PLACEMENT_3D('',#454,#317,#318);
#285=AXIS2_PLACEMENT_3D('',#459,#320,#321);
#286=AXIS2_PLACEMENT_3D('',#463,#323,#324);
#287=AXIS2_PLACEMENT_3D('',#467,#326,#327);
#288=AXIS2_PLACEMENT_3D('',#471,#329,#330);
#289=AXIS2_PLACEMENT_3D('',#472,#331,#332);
#290=AXIS2_PLACEMENT_3D('',#478,#336,#337);
#291=AXIS2_PLACEMENT_3D('',#484,#341,#342);
#292=AXIS2_PLACEMENT_3D('',#490,#346,#347);
#293=AXIS2_PLACEMENT_3D('',#496,#351,#352);
#294=AXIS2_PLACEMENT_3D('',#497,#353,#354);
#295=AXIS2_PLACEMENT_3D('',#499,#355,#356);
#296=AXIS2_PLACEMENT_3D('',#500,#357,#358);
#297=AXIS2_PLACEMENT_3D('',#501,#359,#360);
#298=AXIS2_PLACEMENT_3D('',#502,#361,#362);
#299=AXIS2_PLACEMENT_3D('',#503,#363,#364);
#300=AXIS2_PLACEMENT_3D('',#504,#365,#366);
#301=AXIS2_PLACEMENT_3D('',#505,#367,#368);
#302=AXIS2_PLACEMENT_3D('',#506,#369,#370);
#303=AXIS2_PLACEMENT_3D('',#507,#371,#372);
#304=AXIS2_PLACEMENT_3D('',#508,#373,#374);
#305=AXIS2_PLACEMENT_3D('',#510,#375,#376);
#306=AXIS2_PLACEMENT_3D('',#511,#377,#378);
#307=AXIS2_PLACEMENT_3D('',#513,#379,#380);
#308=AXIS2_PLACEMENT_3D('',#515,#381,#382);
#309=AXIS2_PLACEMENT_3D('',#516,#383,#384);
#310=AXIS2_PLACEMENT_3D('',#517,#385,#386);
#311=DIRECTION('',(0.0,0.0,1.0));
#312=DIRECTION('',(1.0,0.0,0.0));
#313=DIRECTION('',(0.0,0.0,1.0));
#314=DIRECTION('',(1.0,0.0,0.0));
#315=DIRECTION('',(0.0,0.0,1.0));
#316=DIRECTION('',(1.0,0.0,0.0));
#317=DIRECTION('',(0.0,0.0,1.0));
#318=DIRECTION('',(-0.707106781186547,-0.707106781186547,0.0));
#319=DIRECTION('',(1.0,-2.22044604925031E-16,0.0));
#320=DIRECTION('',(0.0,0.0,-1.0));
#321=DIRECTION('',(-0.707106781186547,-0.707106781186547,0.0));
#322=DIRECTION('',(3.88578058618805E-16,-1.0,0.0));
#323=DIRECTION('',(0.0,0.0,-1.0));
#324=DIRECTION('',(-0.707106781186548,-0.707106781186548,0.0));
#325=DIRECTION('',(-1.0,0.0,0.0));
#326=DIRECTION('',(0.0,0.0,-1.0));
#327=DIRECTION('',(-0.707106781186548,-0.707106781186548,0.0));
#328=DIRECTION('',(-2.22044604925031E-16,1.0,0.0));
#329=DIRECTION('',(0.0,0.0,-1.0));
#330=DIRECTION('',(-0.707106781186548,-0.707106781186547,0.0));
#331=DIRECTION('',(0.0,0.0,1.0));
#332=DIRECTION('',(-0.707106781186548,-0.707106781186548,0.0));
#333=DIRECTION('',(-1.0,2.22044604925031E-16,-1.3779323972486E-16));
#334=DIRECTION('',(1.31838984174237E-16,-0.121869343405148,-0.992546151641322));
#335=DIRECTION('',(-1.31838984174237E-16,0.121869343405148,0.992546151641322));
#336=DIRECTION('',(-1.66533453693773E-16,-0.992546151641322,0.121869343405148));
#337=DIRECTION('',(1.0,-2.22044604925031E-16,0.0));
#338=DIRECTION('',(-0.121869343405148,4.71844785465692E-16,0.992546151641322));
#339=DIRECTION('',(2.22044604925031E-16,-1.0,4.83711685284145E-16));
#340=DIRECTION('',(0.121869343405148,-4.71844785465692E-16,-0.992546151641322));
#341=DIRECTION('',(0.992546151641322,1.66533453693773E-16,0.121869343405148));
#342=DIRECTION('',(-2.22044604925031E-16,1.0,0.0));
#343=DIRECTION('',(-1.38777878078145E-16,-0.121869343405147,0.992546151641322));
#344=DIRECTION('',(1.0,0.0,1.3779323972486E-16));
#345=DIRECTION('',(1.38777878078145E-16,0.121869343405147,-0.992546151641322));
#346=DIRECTION('',(0.0,0.992546151641322,0.121869343405147));
#347=DIRECTION('',(-1.0,0.0,0.0));
#348=DIRECTION('',(0.121869343405147,5.34294830600857E-16,0.992546151641322));
#349=DIRECTION('',(-3.88578058618805E-16,1.0,-4.83711685284145E-16));
#350=DIRECTION('',(-0.121869343405147,-5.34294830600857E-16,-0.992546151641322));
#351=DIRECTION('',(-0.992546151641322,-3.88578058618805E-16,0.121869343405147));
#352=DIRECTION('',(3.88578058618805E-16,-1.0,0.0));
#353=DIRECTION('',(0.0,0.0,1.0));
#354=DIRECTION('',(-0.707106781186548,-0.707106781186548,0.0));
#355=DIRECTION('',(-1.3987061727561E-16,4.91004146061257E-16,1.0));
#356=DIRECTION('',(-0.707106781186548,0.707106781186548,-4.46095823234957E-16));
#357=DIRECTION('',(-1.3987061727561E-16,4.91004146061257E-16,1.0));
#358=DIRECTION('',(-0.707106781186548,0.707106781186548,-4.46095823234957E-16));
#359=DIRECTION('',(-1.3987061727561E-16,4.91004146061257E-16,1.0));
#360=DIRECTION('',(-0.707106781186547,0.707106781186547,-4.46095823234957E-16));
#361=DIRECTION('',(-1.3987061727561E-16,4.91004146061257E-16,1.0));
#362=DIRECTION('',(-0.707106781186548,0.707106781186548,-4.46095823234957E-16));
#363=DIRECTION('',(-1.3987061727561E-16,4.91004146061257E-16,1.0));
#364=DIRECTION('',(-0.707106781186548,0.707106781186548,-4.46095823234957E-16));
#365=DIRECTION('',(-1.3987061727561E-16,4.91004146061257E-16,1.0));
#366=DIRECTION('',(-0.707106781186548,0.707106781186548,3.50936071083659E-17));
#367=DIRECTION('',(-1.3987061727561E-16,4.91004146061257E-16,1.0));
#368=DIRECTION('',(-0.707106781186548,0.707106781186548,0.0));
#369=DIRECTION('',(-1.3987061727561E-16,4.91004146061257E-16,1.0));
#370=DIRECTION('',(-0.707106781186548,0.707106781186548,7.01872142167317E-18));
#371=DIRECTION('',(-1.3987061727561E-16,4.91004146061257E-16,1.0));
#372=DIRECTION('',(-0.707106781186548,0.707106781186548,4.2112328530039E-17));
#373=DIRECTION('',(0.0,0.0,-1.0));
#374=DIRECTION('',(0.707106781186547,0.707106781186547,0.0));
#375=DIRECTION('',(0.0,0.0,1.0));
#376=DIRECTION('',(-0.707106781186548,-0.707106781186548,3.80594939976525E-16));
#377=DIRECTION('',(0.0,0.0,1.0));
#378=DIRECTION('',(0.707106781186548,0.707106781186548,0.0));
#379=DIRECTION('',(0.0,0.0,-1.0));
#380=DIRECTION('',(-0.707106781186547,-0.707106781186547,0.0));
#381=DIRECTION('',(0.0,0.0,1.0));
#382=DIRECTION('',(-0.707106781186548,-0.707106781186548,0.0));
#383=DIRECTION('',(0.0,0.0,1.0));
#384=DIRECTION('',(-0.707106781186547,-0.707106781186547,0.0));
#385=DIRECTION('',(0.0,0.0,-1.0));
#386=DIRECTION('',(0.707106781186548,0.707106781186548,0.0));
#387=CARTESIAN_POINT('',(0.0,0.0,0.0));
#390=CARTESIAN_POINT('',(8.75931330037834,-1.77635683940025E-15,3.93659772082831E-16));
#391=CARTESIAN_POINT('',(7.14375,-1.77635683940025E-15,-1.97215226305253E-32));
#392=CARTESIAN_POINT('',(5.55625,-2.66453525910038E-15,1.94867270468061E-17));
#393=CARTESIAN_POINT('',(3.96875,-1.77635683940025E-15,5.84601811404182E-17));
#394=CARTESIAN_POINT('',(2.38125,-1.77635683940025E-15,1.16920362280836E-16));
#395=CARTESIAN_POINT('',(0.765686699621659,-1.77635683940025E-15,1.97831637740315E-16));
#396=CARTESIAN_POINT('',(0.709560098864977,0.00248046874999819,2.02715924191997E-16));
#397=CARTESIAN_POINT('',(0.619406969102031,0.0141768147473362,2.07313963718527E-16));
#398=CARTESIAN_POINT('',(0.500645099579535,0.047760068091006,2.05718091442057E-16));
#399=CARTESIAN_POINT('',(0.355368738983629,0.121736333467781,1.8991474483947E-16));
#400=CARTESIAN_POINT('',(0.226426072614514,0.226482170298371,1.59429938657767E-16));
#401=CARTESIAN_POINT('',(0.12176868707143,0.355249621017709,1.16265089875825E-16));
#402=CARTESIAN_POINT('',(0.0477401224125806,0.500860967574765,6.27724345177512E-17));
#403=CARTESIAN_POINT('',(0.0141836652852945,0.619174184923349,1.64990430532894E-17));
#404=CARTESIAN_POINT('',(0.00248046875000263,0.709560098864973,-2.03234229625549E-17));
#405=CARTESIAN_POINT('',(1.77635683940025E-15,0.765686699621654,-4.3694569966684E-17));
#406=CARTESIAN_POINT('',(1.77635683940025E-15,2.38124999999999,-3.33066907387543E-17));
#407=CARTESIAN_POINT('',(0.0,3.96875,-2.22044604925029E-17));
#408=CARTESIAN_POINT('',(1.77635683940025E-15,5.55625,-2.22044604925028E-17));
#409=CARTESIAN_POINT('',(1.77635683940025E-15,7.14375,-3.33066907387543E-17));
#410=CARTESIAN_POINT('',(8.88178419700125E-16,8.75931330037834,-7.12529636425397E-17));
#411=CARTESIAN_POINT('',(0.00248046875000085,8.81543990113502,-1.01780683549697E-16));
#412=CARTESIAN_POINT('',(0.0141768147473318,8.90559303089797,-1.47843678674592E-16));
#413=CARTESIAN_POINT('',(0.04776006809103,9.02435490042047,-2.0151982831329E-16));
#414=CARTESIAN_POINT('',(0.121736333467748,9.16963126101636,-2.54502638399577E-16));
#415=CARTESIAN_POINT('',(0.226482170298429,9.29857392738551,-2.86465482422318E-16));
#416=CARTESIAN_POINT('',(0.355249621017689,9.40323131292856,-2.95548480291505E-16));
#417=CARTESIAN_POINT('',(0.500860967574784,9.47725987758742,-2.80959386621585E-16));
#418=CARTESIAN_POINT('',(0.619174184923351,9.51081633471471,-2.54187844515785E-16));
#419=CARTESIAN_POINT('',(0.70956009886498,9.52251953125,-2.25920366377058E-16));
#420=CARTESIAN_POINT('',(0.765686699621661,9.525,-2.05682100033734E-16));
#421=CARTESIAN_POINT('',(2.38125,9.525,-1.16920362280837E-16));
#422=CARTESIAN_POINT('',(3.96875,9.525,-7.79469081872244E-17));
#423=CARTESIAN_POINT('',(5.55625,9.525,-7.79469081872244E-17));
#424=CARTESIAN_POINT('',(7.14375,9.525,-1.16920362280837E-16));
#425=CARTESIAN_POINT('',(8.75931330037834,9.525,-1.97831637740316E-16));
#426=CARTESIAN_POINT('',(8.81543990113502,9.52251953125,-2.02715924191997E-16));
#427=CARTESIAN_POINT('',(8.90559303089796,9.51082318525266,-2.07313963718527E-16));
#428=CARTESIAN_POINT('',(9.02435490042046,9.47723993190899,-2.05718091442057E-16));
#429=CARTESIAN_POINT('',(9.16963126101637,9.40326366653222,-1.89914744839471E-16));
#430=CARTESIAN_POINT('',(9.29857392738549,9.29851782970163,-1.59429938657767E-16));
#431=CARTESIAN_POINT('',(9.40323131292857,9.16975037898228,-1.16265089875825E-16));
#432=CARTESIAN_POINT('',(9.47725987758741,9.02413903242523,-6.2772434517751E-17));
#433=CARTESIAN_POINT('',(9.5108163347147,8.90582581507665,-1.64990430532894E-17));
#434=CARTESIAN_POINT('',(9.52251953124999,8.81543990113502,2.03234229625551E-17));
#435=CARTESIAN_POINT('',(9.525,8.75931330037834,4.36945699666842E-17));
#436=CARTESIAN_POINT('',(9.525,7.14375,3.33066907387544E-17));
#437=CARTESIAN_POINT('',(9.525,5.55625,2.2204460492503E-17));
#438=CARTESIAN_POINT('',(9.525,3.96875,2.2204460492503E-17));
#439=CARTESIAN_POINT('',(9.525,2.38125,3.33066907387545E-17));
#440=CARTESIAN_POINT('',(9.525,0.765686699621657,7.12529636425402E-17));
#441=CARTESIAN_POINT('',(9.52251953125,0.709560098864976,1.0238964376991E-16));
#442=CARTESIAN_POINT('',(9.51082318525266,0.619406969102025,1.51324116084035E-16));
#443=CARTESIAN_POINT('',(9.47723993190899,0.500645099579534,2.13245024037719E-16));
#444=CARTESIAN_POINT('',(9.40326366653222,0.355368738983623,2.84389160629063E-16));
#445=CARTESIAN_POINT('',(9.29851782970163,0.22642607261451,3.42067324735049E-16));
#446=CARTESIAN_POINT('',(9.16975037898229,0.121768687071425,3.82762998694697E-16));
#447=CARTESIAN_POINT('',(9.02413903242523,0.0477401224125735,4.03921792461318E-16));
#448=CARTESIAN_POINT('',(8.90582581507664,0.0141836652852945,4.06196390481518E-16));
#449=CARTESIAN_POINT('',(8.81543990113502,0.00248046874999996,4.00118841588227E-16));
#450=CARTESIAN_POINT('',(8.75931330037834,-1.77635683940025E-15,3.93659772082831E-16));
#451=CARTESIAN_POINT('',(7.14375,-1.77635683940025E-15,-1.97215226305253E-32));
#452=CARTESIAN_POINT('',(0.0,0.0,0.0));
#453=CARTESIAN_POINT('',(4.7625,4.7625,0.0));
#454=CARTESIAN_POINT('',(4.7625,4.7625,-3.96875));
#455=CARTESIAN_POINT('',(3.20686508138959,3.20686508138959,-3.96875));
#456=CARTESIAN_POINT('',(4.7625,9.03769877391659,-3.96875));
#457=CARTESIAN_POINT('',(0.793750000000002,9.03769877391659,-3.96875));
#458=CARTESIAN_POINT('',(8.73125,9.03769877391659,-3.96875));
#459=CARTESIAN_POINT('',(8.73125,8.73125,-3.96875));
#460=CARTESIAN_POINT('',(9.03769877391659,8.73125,-3.96875));
#461=CARTESIAN_POINT('',(9.03769877391659,4.7625,-3.96875));
#462=CARTESIAN_POINT('',(9.0376987739166,0.793749999999995,-3.96875));
#463=CARTESIAN_POINT('',(8.73125,0.793749999999999,-3.96875));
#464=CARTESIAN_POINT('',(8.73125,0.487301226083401,-3.96875));
#465=CARTESIAN_POINT('',(4.7625,0.4873012260834,-3.96875));
#466=CARTESIAN_POINT('',(0.793750000000001,0.487301226083399,-3.96875));
#467=CARTESIAN_POINT('',(0.793750000000002,0.793749999999997,-3.96875));
#468=CARTESIAN_POINT('',(0.487301226083404,0.793749999999992,-3.96875));
#469=CARTESIAN_POINT('',(0.487301226083404,4.7625,-3.96875));
#470=CARTESIAN_POINT('',(0.487301226083404,8.73125,-3.96875));
#471=CARTESIAN_POINT('',(0.793750000000001,8.73125,-3.96875));
#472=CARTESIAN_POINT('',(4.7625,4.23216991411009,-3.96875));
#473=CARTESIAN_POINT('',(4.7625,9.525,-5.27182464349352E-15));
#474=CARTESIAN_POINT('',(8.73125,9.525,-4.71671313118094E-15));
#475=CARTESIAN_POINT('',(0.793750000000001,9.525,-5.8269361558061E-15));
#476=CARTESIAN_POINT('',(8.73125,9.525,-4.41470523693214E-15));
#477=CARTESIAN_POINT('',(0.793750000000001,9.525,-5.25823255532991E-15));
#478=CARTESIAN_POINT('',(4.7625,9.525,-5.27182464349352E-15));
#479=CARTESIAN_POINT('',(1.73472347597681E-15,0.793749999999994,-1.76106385427104E-15));
#480=CARTESIAN_POINT('',(1.73472347597681E-15,0.793749999999994,-1.65087850797126E-15));
#481=CARTESIAN_POINT('',(8.67361737988404E-16,4.7625,-3.59955121265187E-15));
#482=CARTESIAN_POINT('',(8.67361737988404E-16,8.73125,-5.54822391733249E-15));
#483=CARTESIAN_POINT('',(8.67361737988404E-16,8.73125,-5.1837633533696E-15));
#484=CARTESIAN_POINT('',(8.67361737988404E-16,4.7625,-3.59955121265187E-15));
#485=CARTESIAN_POINT('',(8.73125,0.0,5.96887523774715E-17));
#486=CARTESIAN_POINT('',(8.73125,0.0,-3.98986399474675E-17));
#487=CARTESIAN_POINT('',(4.7625,-8.67361737988404E-16,-5.95010152260045E-16));
#488=CARTESIAN_POINT('',(0.79375,-8.67361737988404E-16,-1.15012166457262E-15));
#489=CARTESIAN_POINT('',(0.79375,-8.67361737988404E-16,-7.80361359895224E-16));
#490=CARTESIAN_POINT('',(4.7625,0.0,-5.95010152260045E-16));
#491=CARTESIAN_POINT('',(9.525,8.73125,-3.38019670786124E-15));
#492=CARTESIAN_POINT('',(9.525,8.73125,-4.2159562877823E-15));
#493=CARTESIAN_POINT('',(9.525,4.7625,-2.26728358310169E-15));
#494=CARTESIAN_POINT('',(9.525,0.793749999999998,-3.18610878421074E-16));
#495=CARTESIAN_POINT('',(9.525,0.793749999999998,1.21225677647024E-17));
#496=CARTESIAN_POINT('',(9.525,4.7625,-2.26728358310169E-15));
#497=CARTESIAN_POINT('',(4.7625,4.7625,0.0));
#498=CARTESIAN_POINT('',(2.5907450190701,2.5907450190701,0.0));
#499=CARTESIAN_POINT('',(8.73125,8.73125,-4.32697859024482E-15));
#500=CARTESIAN_POINT('',(0.793749999999999,8.73125,-5.43720161486997E-15));
#501=CARTESIAN_POINT('',(0.793750000000001,0.793749999999996,-1.53985620550874E-15));
#502=CARTESIAN_POINT('',(8.73125,0.793749999999998,-4.29633180883589E-16));
#503=CARTESIAN_POINT('',(4.7625,4.7625,-2.93341739787678E-15));
#504=CARTESIAN_POINT('',(8.73125,8.73125,-4.33680868994202E-15));
#505=CARTESIAN_POINT('',(8.73125,0.793749999999998,0.0));
#506=CARTESIAN_POINT('',(0.793750000000001,0.793749999999996,-8.67361737988404E-16));
#507=CARTESIAN_POINT('',(0.793749999999999,8.73125,-5.20417042793042E-15));
#508=CARTESIAN_POINT('',(4.7625,4.7625,-0.877554494186118));
#509=CARTESIAN_POINT('',(6.89086366456804,6.89086366456804,-0.877554494186118));
#510=CARTESIAN_POINT('',(4.7625,4.7625,-1.02000000000516));
#511=CARTESIAN_POINT('',(4.7625,4.7625,-1.12904556205543));
#512=CARTESIAN_POINT('',(6.82799268238612,6.82799268238612,-1.12904556205543));
#513=CARTESIAN_POINT('',(4.7625,4.7625,-3.42));
#514=CARTESIAN_POINT('',(3.20686508138959,3.20686508138959,-3.42));
#515=CARTESIAN_POINT('',(4.7625,4.7625,-3.42));
#516=CARTESIAN_POINT('',(4.7625,4.7625,-33.3676978394524));
#517=CARTESIAN_POINT('',(4.7625,4.7625,-0.842676257312353));
#518=MECHANICAL_DESIGN_GEOMETRIC_PRESENTATION_REPRESENTATION('',(#265,#266,#267,
     #268),#519);
#519=(GEOMETRIC_REPRESENTATION_CONTEXT(3)GLOBAL_UNCERTAINTY_ASSIGNED_CONTEXT((#520))
     GLOBAL_UNIT_ASSIGNED_CONTEXT((#526,#522,#521))REPRESENTATION_CONTEXT('SCMW09T308',
     'TOP_LEVEL_ASSEMBLY_PART'));
#520=UNCERTAINTY_MEASURE_WITH_UNIT(LENGTH_MEASURE(2.0E-5),#526,'DISTANCE_ACCURACY_VALUE',
     'Maximum Tolerance applied to model');
#521=(NAMED_UNIT(*)SI_UNIT($,.STERADIAN.)SOLID_ANGLE_UNIT());
#522=(CONVERSION_BASED_UNIT('DEGREE',#524)NAMED_UNIT(#523)PLANE_ANGLE_UNIT());
#523=DIMENSIONAL_EXPONENTS(0.0,0.0,0.0,0.0,0.0,0.0,0.0);
#524=PLANE_ANGLE_MEASURE_WITH_UNIT(PLANE_ANGLE_MEASURE(0.0174532925),#525);
#525=(NAMED_UNIT(*)PLANE_ANGLE_UNIT()SI_UNIT($,.RADIAN.));
#526=(LENGTH_UNIT()NAMED_UNIT(*)SI_UNIT(.MILLI.,.METRE.));
#527=CONSTRUCTIVE_GEOMETRY_REPRESENTATION('supplemental geometry',(#282,#283),#519);
#528=CONSTRUCTIVE_GEOMETRY_REPRESENTATION_RELATIONSHIP('supplemental geometry','contains PCS and MCS coordinate systems',
     #24,#527);
ENDSEC;
END-ISO-10303-21;
