ISO-10303-21;
HEADER;
FILE_DESCRIPTION(
/* description */ (''),
/* implementation_level */ '2;1');
FILE_NAME(
/* name */ 'RCMX200600.stp',
/* time_stamp */ '2017-03-21T10:54:13',
/* author */ ('Sandvik Coromant R&D'),
/* organization */ ('Sandvik Machining Solutions'),
/* preprocessor_version */ 'ST-DEVELOPER v15',
/* originating_system */ 'SIEMENS PLM Software NX v8.5.3.3(64 bits)',
/* authorization */ '');
FILE_SCHEMA(('AUTOMOTIVE_DESIGN'));
ENDSEC;
DATA;
#10=GEOMETRICALLY_BOUNDED_WIREFRAME_SHAPE_REPRESENTATION('IsoTurningInsert-None',
     (#25),#244);
#11=SHAPE_REPRESENTATION_RELATIONSHIP('None','relationship between IsoTurningInsert-None and IsoTurningInsert-None',
     #24,#13);
#12=SHAPE_REPRESENTATION_RELATIONSHIP('None','relationship between IsoTurningInsert-None and IsoTurningInsert-None',
     #24,#10);
#13=ADVANCED_BREP_SHAPE_REPRESENTATION('IsoTurningInsert-None',(#31),#244);
#14=SHAPE_DEFINITION_REPRESENTATION(#15,#24);
#15=PRODUCT_DEFINITION_SHAPE('','',#16);
#16=PRODUCT_DEFINITION(' ','',#18,#17);
#17=PRODUCT_DEFINITION_CONTEXT('part definition',#23,'design');
#18=PRODUCT_DEFINITION_FORMATION_WITH_SPECIFIED_SOURCE(' ',' ',#20,.NOT_KNOWN.);
#19=PRODUCT_RELATED_PRODUCT_CATEGORY('part','',(#20));
#20=PRODUCT('IsoTurningInsert','IsoTurningInsert',' ',(#21));
#21=PRODUCT_CONTEXT(' ',#23,'mechanical');
#22=APPLICATION_PROTOCOL_DEFINITION('international standard','automotive_design',
     2010,#23);
#23=APPLICATION_CONTEXT('core data for automotive mechanical design processes');
#24=SHAPE_REPRESENTATION('IsoTurningInsert-None',(#115),#244);
#25=GEOMETRIC_CURVE_SET('geometric curve set',(#95));
#26=SURFACE_STYLE_USAGE(.BOTH.,#27);
#27=SURFACE_SIDE_STYLE('',(#28));
#28=SURFACE_STYLE_FILL_AREA(#29);
#29=FILL_AREA_STYLE('',(#30));
#30=FILL_AREA_STYLE_COLOUR('',#114);
#31=MANIFOLD_SOLID_BREP('CUT',#32);
#32=CLOSED_SHELL('',(#36,#37,#38,#39,#40));
#33=CYLINDRICAL_SURFACE('',#126,3.25);
#34=CONICAL_SURFACE('',#124,9.99999999999998,6.99999999999999);
#35=CONICAL_SURFACE('',#127,3.25,9.98940742623674);
#36=ADVANCED_FACE('',(#43,#44),#41,.F.);
#37=ADVANCED_FACE('',(#45,#46),#42,.F.);
#38=ADVANCED_FACE('',(#47,#48),#34,.T.);
#39=ADVANCED_FACE('',(#49,#50),#33,.F.);
#40=ADVANCED_FACE('',(#51,#52),#35,.F.);
#41=PLANE('',#120);
#42=PLANE('',#123);
#43=FACE_BOUND('',#53,.T.);
#44=FACE_BOUND('',#54,.T.);
#45=FACE_BOUND('',#55,.T.);
#46=FACE_BOUND('',#56,.T.);
#47=FACE_BOUND('',#57,.T.);
#48=FACE_BOUND('',#58,.T.);
#49=FACE_BOUND('',#59,.T.);
#50=FACE_BOUND('',#60,.T.);
#51=FACE_BOUND('',#61,.T.);
#52=FACE_BOUND('',#62,.T.);
#53=EDGE_LOOP('',(#63));
#54=EDGE_LOOP('',(#64));
#55=EDGE_LOOP('',(#65));
#56=EDGE_LOOP('',(#66));
#57=EDGE_LOOP('',(#67));
#58=EDGE_LOOP('',(#68));
#59=EDGE_LOOP('',(#69));
#60=EDGE_LOOP('',(#70));
#61=EDGE_LOOP('',(#71));
#62=EDGE_LOOP('',(#72));
#63=ORIENTED_EDGE('',*,*,#78,.F.);
#64=ORIENTED_EDGE('',*,*,#79,.F.);
#65=ORIENTED_EDGE('',*,*,#80,.T.);
#66=ORIENTED_EDGE('',*,*,#81,.F.);
#67=ORIENTED_EDGE('',*,*,#78,.T.);
#68=ORIENTED_EDGE('',*,*,#81,.T.);
#69=ORIENTED_EDGE('',*,*,#82,.T.);
#70=ORIENTED_EDGE('',*,*,#79,.T.);
#71=ORIENTED_EDGE('',*,*,#80,.F.);
#72=ORIENTED_EDGE('',*,*,#82,.F.);
#73=VERTEX_POINT('',#229);
#74=VERTEX_POINT('',#231);
#75=VERTEX_POINT('',#234);
#76=VERTEX_POINT('',#236);
#77=VERTEX_POINT('',#240);
#78=EDGE_CURVE('',#73,#73,#83,.T.);
#79=EDGE_CURVE('',#74,#74,#84,.T.);
#80=EDGE_CURVE('',#75,#75,#85,.T.);
#81=EDGE_CURVE('',#76,#76,#86,.T.);
#82=EDGE_CURVE('',#77,#77,#87,.T.);
#83=CIRCLE('',#118,9.22031803826654);
#84=CIRCLE('',#119,3.25);
#85=CIRCLE('',#121,4.025);
#86=CIRCLE('',#122,9.99999999999998);
#87=CIRCLE('',#125,3.25);
#88=CURVE_STYLE('',#92,POSITIVE_LENGTH_MEASURE(0.18),#91);
#89=CURVE_STYLE('',#93,POSITIVE_LENGTH_MEASURE(0.18),#113);
#90=CURVE_STYLE('',#94,POSITIVE_LENGTH_MEASURE(0.18),#113);
#91=DRAUGHTING_PRE_DEFINED_COLOUR('blue');
#92=DRAUGHTING_PRE_DEFINED_CURVE_FONT('continuous');
#93=DRAUGHTING_PRE_DEFINED_CURVE_FONT('continuous');
#94=DRAUGHTING_PRE_DEFINED_CURVE_FONT('continuous');
#95=B_SPLINE_CURVE_WITH_KNOTS('CUTTING EDGE LINE',5,(#157,#158,#159,#160,#161,#162,
     #163,#164,#165,#166,#167,#168,#169,#170,#171,#172,#173,#174,#175,#176,#177,
     #178,#179,#180,#181,#182,#183,#184,#185,#186,#187,#188,#189,#190,#191,#192,
     #193,#194,#195,#196,#197,#198,#199,#200,#201,#202,#203,#204,#205,#206,#207,
     #208,#209,#210,#211,#212,#213,#214,#215,#216,#217,#218,#219,#220,#221,#222,
     #223,#224,#225),.UNSPECIFIED.,.T.,.F.,(1,1,1,1,1,1,1,1,1,1,1,1,1,1,1,1,1,1,
     1,1,1,1,1,1,1,1,1,1,1,1,1,1,1,1,1,1,1,1,1,1,1,1,1,1,1,1,1,1,1,1,1,1,1,1,1,1,
     1,1,1,1,1,1,1,1,1,1,1,1,1,1,1,1,1,1,1),(-0.078125,-0.0625,-0.046875,-0.03125,
     -0.015625,0.0,0.015625,0.03125,0.046875,0.0625,0.078125,0.09375,0.109375,0.125,
     0.140625,0.15625,0.171875,0.1875,0.203125,0.21875,0.234375,0.25,0.265625,0.28125,
     0.296875,0.3125,0.328125,0.34375,0.359375,0.375,0.390625,0.40625,0.421875,0.4375,
     0.453125,0.46875,0.484375,0.5,0.515625,0.53125,0.546875,0.5625,0.578125,0.59375,
     0.609375,0.625,0.640625,0.65625,0.671875,0.6875,0.703125,0.71875,0.734375,0.75,
     0.765625,0.78125,0.796875,0.8125,0.828125,0.84375,0.859375,0.875,0.890625,0.90625,
     0.921875,0.9375,0.953125,0.96875,0.984375,1.0,1.015625,1.03125,1.046875,1.0625,
     1.078125),.UNSPECIFIED.);
#96=PRESENTATION_LAYER_ASSIGNMENT('1','Layer 1',(#95,#116,#117,#31));
#99=STYLED_ITEM('',(#105),#95);
#100=STYLED_ITEM('',(#106),#116);
#101=STYLED_ITEM('',(#107),#117);
#102=STYLED_ITEM('',(#108),#31);
#103=PRESENTATION_STYLE_ASSIGNMENT((#109));
#104=PRESENTATION_STYLE_ASSIGNMENT((#110));
#105=PRESENTATION_STYLE_ASSIGNMENT((#88));
#106=PRESENTATION_STYLE_ASSIGNMENT((#89));
#107=PRESENTATION_STYLE_ASSIGNMENT((#90));
#108=PRESENTATION_STYLE_ASSIGNMENT((#26));
#109=POINT_STYLE('',#111,POSITIVE_LENGTH_MEASURE(3.0),#113);
#110=POINT_STYLE('',#112,POSITIVE_LENGTH_MEASURE(3.0),#113);
#111=PRE_DEFINED_POINT_MARKER_SYMBOL('plus');
#112=PRE_DEFINED_POINT_MARKER_SYMBOL('plus');
#113=COLOUR_RGB('Medium Maroon',0.6,0.4,0.4);
#114=COLOUR_RGB('IsoInsertColor',0.8,0.8,0.8);
#115=AXIS2_PLACEMENT_3D('',#154,#128,#129);
#116=AXIS2_PLACEMENT_3D('PCS',#226,#130,#131);
#117=AXIS2_PLACEMENT_3D('MCS',#227,#132,#133);
#118=AXIS2_PLACEMENT_3D('',#228,#134,#135);
#119=AXIS2_PLACEMENT_3D('',#230,#136,#137);
#120=AXIS2_PLACEMENT_3D('',#232,#138,#139);
#121=AXIS2_PLACEMENT_3D('',#233,#140,#141);
#122=AXIS2_PLACEMENT_3D('',#235,#142,#143);
#123=AXIS2_PLACEMENT_3D('',#237,#144,#145);
#124=AXIS2_PLACEMENT_3D('',#238,#146,#147);
#125=AXIS2_PLACEMENT_3D('',#239,#148,#149);
#126=AXIS2_PLACEMENT_3D('',#241,#150,#151);
#127=AXIS2_PLACEMENT_3D('',#242,#152,#153);
#128=DIRECTION('',(0.0,0.0,1.0));
#129=DIRECTION('',(1.0,0.0,0.0));
#130=DIRECTION('',(0.0,0.0,1.0));
#131=DIRECTION('',(1.0,0.0,0.0));
#132=DIRECTION('',(0.0,0.0,1.0));
#133=DIRECTION('',(1.0,0.0,0.0));
#134=DIRECTION('',(0.0,0.0,1.0));
#135=DIRECTION('',(-0.707106781186548,-0.707106781186548,0.0));
#136=DIRECTION('',(0.0,0.0,-1.0));
#137=DIRECTION('',(0.707106781186548,0.707106781186548,0.0));
#138=DIRECTION('',(0.0,0.0,1.0));
#139=DIRECTION('',(-0.707106781186548,-0.707106781186548,0.0));
#140=DIRECTION('',(0.0,0.0,-1.0));
#141=DIRECTION('',(0.707106781186548,0.707106781186548,0.0));
#142=DIRECTION('',(0.0,0.0,-1.0));
#143=DIRECTION('',(-0.882015164970351,-0.471221019015837,0.0));
#144=DIRECTION('',(0.0,0.0,-1.0));
#145=DIRECTION('',(0.707106781186548,0.707106781186548,0.0));
#146=DIRECTION('',(0.0,0.0,1.0));
#147=DIRECTION('',(-0.707106781186548,-0.707106781186547,-3.26604889939969E-17));
#148=DIRECTION('',(0.0,0.0,1.0));
#149=DIRECTION('',(0.707106781186548,0.707106781186548,0.0));
#150=DIRECTION('',(0.0,0.0,-1.0));
#151=DIRECTION('',(0.707106781186548,0.707106781186548,0.0));
#152=DIRECTION('',(0.0,0.0,1.0));
#153=DIRECTION('',(-0.707106781186548,-0.707106781186548,2.32087671434372E-16));
#154=CARTESIAN_POINT('',(0.0,0.0,0.0));
#157=CARTESIAN_POINT('',(2.16323828577437,3.75217046638566,0.0));
#158=CARTESIAN_POINT('',(1.61560479419391,4.51182198251116,0.0));
#159=CARTESIAN_POINT('',(1.1630171969714,5.27879768189921,0.0));
#160=CARTESIAN_POINT('',(0.777064176008942,6.08137323730561,0.0));
#161=CARTESIAN_POINT('',(0.450035524417356,6.95888399402552,0.0));
#162=CARTESIAN_POINT('',(0.202058559009847,7.88533098237607,0.0));
#163=CARTESIAN_POINT('',(0.0405532259058603,8.85745271454706,0.0));
#164=CARTESIAN_POINT('',(-0.0246775149365916,9.86086924254341,0.0));
#165=CARTESIAN_POINT('',(0.0125092090959686,10.8819699855577,0.0));
#166=CARTESIAN_POINT('',(0.155796805598392,11.9046989372541,0.0));
#167=CARTESIAN_POINT('',(0.405408941213103,12.9125749713304,0.0));
#168=CARTESIAN_POINT('',(0.758199112013632,13.8891298411152,0.0));
#169=CARTESIAN_POINT('',(1.20762812055871,14.8189252004407,0.0));
#170=CARTESIAN_POINT('',(1.74434816149686,15.6883854798642,0.0));
#171=CARTESIAN_POINT('',(2.35637185093411,16.4862117653064,0.0));
#172=CARTESIAN_POINT('',(3.03102679500818,17.2045051185439,0.0));
#173=CARTESIAN_POINT('',(3.75217046647187,17.8367617142785,0.0));
#174=CARTESIAN_POINT('',(4.51182198278532,18.3843952059708,0.0));
#175=CARTESIAN_POINT('',(5.27879768183797,18.8369828029875,0.0));
#176=CARTESIAN_POINT('',(6.08137323733179,19.2229358240078,0.0));
#177=CARTESIAN_POINT('',(6.95888399401667,19.549964475577,0.0));
#178=CARTESIAN_POINT('',(7.88533098237895,19.7979414409919,0.0));
#179=CARTESIAN_POINT('',(8.85745271454608,19.9594467740936,0.0));
#180=CARTESIAN_POINT('',(9.86086924254379,20.0246775149367,0.0));
#181=CARTESIAN_POINT('',(10.8819699855575,19.9874907909041,0.0));
#182=CARTESIAN_POINT('',(11.9046989372543,19.8442031944014,0.0));
#183=CARTESIAN_POINT('',(12.9125749713301,19.5945910587874,0.0));
#184=CARTESIAN_POINT('',(13.8891298411159,19.2418008879852,0.0));
#185=CARTESIAN_POINT('',(14.8189252004389,18.7923718794442,0.0));
#186=CARTESIAN_POINT('',(15.6883854798691,18.2556518384951,0.0));
#187=CARTESIAN_POINT('',(16.486211765292,17.6436281490891,0.0));
#188=CARTESIAN_POINT('',(17.2045051185864,16.968973204923,0.0));
#189=CARTESIAN_POINT('',(17.8367617142024,16.2478295336495,0.0));
#190=CARTESIAN_POINT('',(18.3843952056042,15.4881780178297,0.0));
#191=CARTESIAN_POINT('',(18.8369828031428,14.7212023179046,0.0));
#192=CARTESIAN_POINT('',(19.2229358239534,13.9186267627571,0.0));
#193=CARTESIAN_POINT('',(19.5499644755951,13.0411160059537,0.0));
#194=CARTESIAN_POINT('',(19.7979414409861,12.1146690176306,0.0));
#195=CARTESIAN_POINT('',(19.9594467740954,11.1425472854508,0.0));
#196=CARTESIAN_POINT('',(20.0246775149361,10.1391307574573,0.0));
#197=CARTESIAN_POINT('',(19.9874907909042,9.11803001444206,0.0));
#198=CARTESIAN_POINT('',(19.8442031944014,8.09530106274591,0.0));
#199=CARTESIAN_POINT('',(19.5945910587872,7.0874250286697,0.0));
#200=CARTESIAN_POINT('',(19.2418008879856,6.1108701588844,0.0));
#201=CARTESIAN_POINT('',(18.7923718794431,5.18107479956035,0.0));
#202=CARTESIAN_POINT('',(18.2556518384981,4.31161452013279,0.0));
#203=CARTESIAN_POINT('',(17.6436281490804,3.51378823470252,0.0));
#204=CARTESIAN_POINT('',(16.9689732049448,2.79549488142744,0.0));
#205=CARTESIAN_POINT('',(16.2478295337715,2.16323828586977,0.0));
#206=CARTESIAN_POINT('',(15.4881780173732,1.61560479412369,0.0));
#207=CARTESIAN_POINT('',(14.7212023181324,1.16301719699161,0.0));
#208=CARTESIAN_POINT('',(13.9186267626688,0.777064175994962,0.0));
#209=CARTESIAN_POINT('',(13.0411160059833,0.450035524422191,0.0));
#210=CARTESIAN_POINT('',(12.114669017621,0.202058559008249,0.0));
#211=CARTESIAN_POINT('',(11.1425472854539,0.0405532259064216,0.0));
#212=CARTESIAN_POINT('',(10.1391307574562,-0.0246775149368137,0.0));
#213=CARTESIAN_POINT('',(9.11803001444237,0.0125092090961072,0.0));
#214=CARTESIAN_POINT('',(8.09530106274594,0.155796805598239,0.0));
#215=CARTESIAN_POINT('',(7.08742502866941,0.405408941213373,0.0));
#216=CARTESIAN_POINT('',(6.11087015888519,0.758199112013024,0.0));
#217=CARTESIAN_POINT('',(5.18107479955834,1.20762812056024,0.0));
#218=CARTESIAN_POINT('',(4.3116145201383,1.74434816149273,0.0));
#219=CARTESIAN_POINT('',(3.51378823468646,2.356371850946,0.0));
#220=CARTESIAN_POINT('',(2.79549488147523,3.03102679497642,0.0));
#221=CARTESIAN_POINT('',(2.16323828577437,3.75217046638566,0.0));
#222=CARTESIAN_POINT('',(1.61560479419391,4.51182198251116,0.0));
#223=CARTESIAN_POINT('',(1.1630171969714,5.27879768189921,0.0));
#224=CARTESIAN_POINT('',(0.777064176008942,6.08137323730561,0.0));
#225=CARTESIAN_POINT('',(0.450035524417356,6.95888399402552,0.0));
#226=CARTESIAN_POINT('',(0.0,0.0,0.0));
#227=CARTESIAN_POINT('',(10.0,10.0,0.0));
#228=CARTESIAN_POINT('',(9.99999999999999,9.99999999999999,-6.35));
#229=CARTESIAN_POINT('',(3.48025059044507,3.48025059044507,-6.35));
#230=CARTESIAN_POINT('',(10.0,10.0,-6.35));
#231=CARTESIAN_POINT('',(12.2980970388563,12.2980970388563,-6.35));
#232=CARTESIAN_POINT('',(10.0,9.46966991411009,-6.35));
#233=CARTESIAN_POINT('',(10.0,10.0,0.0));
#234=CARTESIAN_POINT('',(12.8461047942759,12.8461047942759,0.0));
#235=CARTESIAN_POINT('',(9.99999999999999,9.99999999999999,4.26685108753951E-15));
#236=CARTESIAN_POINT('',(1.17984835029649,5.28778980984162,4.26685108753951E-15));
#237=CARTESIAN_POINT('',(9.99999999999999,9.99999999999999,4.26685108753951E-15));
#238=CARTESIAN_POINT('',(9.99999999999999,9.99999999999999,4.33680868994202E-15));
#239=CARTESIAN_POINT('',(10.0,10.0,-4.4));
#240=CARTESIAN_POINT('',(12.2980970388563,12.2980970388563,-4.4));
#241=CARTESIAN_POINT('',(10.0,10.0,-29.1328042564319));
#242=CARTESIAN_POINT('',(10.0,10.0,-4.4));
#243=MECHANICAL_DESIGN_GEOMETRIC_PRESENTATION_REPRESENTATION('',(#99,#100,#101,#102),
     #244);
#244=(GEOMETRIC_REPRESENTATION_CONTEXT(3)GLOBAL_UNCERTAINTY_ASSIGNED_CONTEXT((#245))
     GLOBAL_UNIT_ASSIGNED_CONTEXT((#251,#247,#246))REPRESENTATION_CONTEXT('RCMX200600',
     'TOP_LEVEL_ASSEMBLY_PART'));
#245=UNCERTAINTY_MEASURE_WITH_UNIT(LENGTH_MEASURE(2.0E-5),#251,'DISTANCE_ACCURACY_VALUE',
     'Maximum Tolerance applied to model');
#246=(NAMED_UNIT(*)SI_UNIT($,.STERADIAN.)SOLID_ANGLE_UNIT());
#247=(CONVERSION_BASED_UNIT('DEGREE',#249)NAMED_UNIT(#248)PLANE_ANGLE_UNIT());
#248=DIMENSIONAL_EXPONENTS(0.0,0.0,0.0,0.0,0.0,0.0,0.0);
#249=PLANE_ANGLE_MEASURE_WITH_UNIT(PLANE_ANGLE_MEASURE(0.0174532925),#250);
#250=(NAMED_UNIT(*)PLANE_ANGLE_UNIT()SI_UNIT($,.RADIAN.));
#251=(LENGTH_UNIT()NAMED_UNIT(*)SI_UNIT(.MILLI.,.METRE.));
#252=CONSTRUCTIVE_GEOMETRY_REPRESENTATION('supplemental geometry',(#116,#117),#244);
#253=CONSTRUCTIVE_GEOMETRY_REPRESENTATION_RELATIONSHIP('supplemental geometry','contains PCS and MCS coordinate systems',
     #24,#252);
ENDSEC;
END-ISO-10303-21;
