ISO-10303-21;
HEADER;
FILE_DESCRIPTION(
/* description */ (''),
/* implementation_level */ '2;1');
FILE_NAME(
/* name */ 'RCMT2006M0.stp',
/* time_stamp */ '2017-03-21T10:54:12',
/* author */ ('Sandvik Coromant R&D'),
/* organization */ ('Sandvik Machining Solutions'),
/* preprocessor_version */ 'ST-DEVELOPER v15',
/* originating_system */ 'SIEMENS PLM Software NX v8.5.3.3(64 bits)',
/* authorization */ '');
FILE_SCHEMA(('AUTOMOTIVE_DESIGN'));
ENDSEC;
DATA;
#10=GEOMETRICALLY_BOUNDED_WIREFRAME_SHAPE_REPRESENTATION('IsoTurningInsert-None',
     (#25),#284);
#11=SHAPE_REPRESENTATION_RELATIONSHIP('None','relationship between IsoTurningInsert-None and IsoTurningInsert-None',
     #24,#13);
#12=SHAPE_REPRESENTATION_RELATIONSHIP('None','relationship between IsoTurningInsert-None and IsoTurningInsert-None',
     #24,#10);
#13=ADVANCED_BREP_SHAPE_REPRESENTATION('IsoTurningInsert-None',(#31),#284);
#14=SHAPE_DEFINITION_REPRESENTATION(#15,#24);
#15=PRODUCT_DEFINITION_SHAPE('','',#16);
#16=PRODUCT_DEFINITION(' ','',#18,#17);
#17=PRODUCT_DEFINITION_CONTEXT('part definition',#23,'design');
#18=PRODUCT_DEFINITION_FORMATION_WITH_SPECIFIED_SOURCE(' ',' ',#20,.NOT_KNOWN.);
#19=PRODUCT_RELATED_PRODUCT_CATEGORY('part','',(#20));
#20=PRODUCT('IsoTurningInsert','IsoTurningInsert',' ',(#21));
#21=PRODUCT_CONTEXT(' ',#23,'mechanical');
#22=APPLICATION_PROTOCOL_DEFINITION('international standard','automotive_design',
     2010,#23);
#23=APPLICATION_CONTEXT('core data for automotive mechanical design processes');
#24=SHAPE_REPRESENTATION('IsoTurningInsert-None',(#137),#284);
#25=GEOMETRIC_CURVE_SET('geometric curve set',(#117));
#26=SURFACE_STYLE_USAGE(.BOTH.,#27);
#27=SURFACE_SIDE_STYLE('',(#28));
#28=SURFACE_STYLE_FILL_AREA(#29);
#29=FILL_AREA_STYLE('',(#30));
#30=FILL_AREA_STYLE_COLOUR('',#136);
#31=MANIFOLD_SOLID_BREP('CUT',#32);
#32=CLOSED_SHELL('',(#38,#39,#40,#41,#42,#43,#44));
#33=CYLINDRICAL_SURFACE('',#152,3.25);
#34=TOROIDAL_SURFACE('',#151,9.24999999999999,6.0);
#35=TOROIDAL_SURFACE('',#153,4.45445951000317,0.3);
#36=CONICAL_SURFACE('',#146,9.99999999999998,6.99999999999999);
#37=CONICAL_SURFACE('',#148,4.74999999999993,2.30000000000436);
#38=ADVANCED_FACE('',(#47,#48),#45,.F.);
#39=ADVANCED_FACE('',(#49,#50),#46,.F.);
#40=ADVANCED_FACE('',(#51,#52),#36,.T.);
#41=ADVANCED_FACE('',(#53,#54),#37,.F.);
#42=ADVANCED_FACE('',(#55,#56),#34,.T.);
#43=ADVANCED_FACE('',(#57,#58),#33,.F.);
#44=ADVANCED_FACE('',(#59,#60),#35,.F.);
#45=PLANE('',#142);
#46=PLANE('',#145);
#47=FACE_BOUND('',#61,.T.);
#48=FACE_BOUND('',#62,.T.);
#49=FACE_BOUND('',#63,.T.);
#50=FACE_BOUND('',#64,.T.);
#51=FACE_BOUND('',#65,.T.);
#52=FACE_BOUND('',#66,.T.);
#53=FACE_BOUND('',#67,.T.);
#54=FACE_BOUND('',#68,.T.);
#55=FACE_BOUND('',#69,.T.);
#56=FACE_BOUND('',#70,.T.);
#57=FACE_BOUND('',#71,.T.);
#58=FACE_BOUND('',#72,.T.);
#59=FACE_BOUND('',#73,.T.);
#60=FACE_BOUND('',#74,.T.);
#61=EDGE_LOOP('',(#75));
#62=EDGE_LOOP('',(#76));
#63=EDGE_LOOP('',(#77));
#64=EDGE_LOOP('',(#78));
#65=EDGE_LOOP('',(#79));
#66=EDGE_LOOP('',(#80));
#67=EDGE_LOOP('',(#81));
#68=EDGE_LOOP('',(#82));
#69=EDGE_LOOP('',(#83));
#70=EDGE_LOOP('',(#84));
#71=EDGE_LOOP('',(#85));
#72=EDGE_LOOP('',(#86));
#73=EDGE_LOOP('',(#87));
#74=EDGE_LOOP('',(#88));
#75=ORIENTED_EDGE('',*,*,#96,.F.);
#76=ORIENTED_EDGE('',*,*,#97,.F.);
#77=ORIENTED_EDGE('',*,*,#98,.T.);
#78=ORIENTED_EDGE('',*,*,#99,.F.);
#79=ORIENTED_EDGE('',*,*,#99,.T.);
#80=ORIENTED_EDGE('',*,*,#96,.T.);
#81=ORIENTED_EDGE('',*,*,#100,.T.);
#82=ORIENTED_EDGE('',*,*,#97,.T.);
#83=ORIENTED_EDGE('',*,*,#101,.T.);
#84=ORIENTED_EDGE('',*,*,#102,.T.);
#85=ORIENTED_EDGE('',*,*,#102,.F.);
#86=ORIENTED_EDGE('',*,*,#98,.F.);
#87=ORIENTED_EDGE('',*,*,#101,.F.);
#88=ORIENTED_EDGE('',*,*,#100,.F.);
#89=VERTEX_POINT('',#263);
#90=VERTEX_POINT('',#265);
#91=VERTEX_POINT('',#268);
#92=VERTEX_POINT('',#270);
#93=VERTEX_POINT('',#274);
#94=VERTEX_POINT('',#277);
#95=VERTEX_POINT('',#279);
#96=EDGE_CURVE('',#89,#89,#103,.T.);
#97=EDGE_CURVE('',#90,#90,#104,.T.);
#98=EDGE_CURVE('',#91,#91,#105,.T.);
#99=EDGE_CURVE('',#92,#92,#106,.T.);
#100=EDGE_CURVE('',#93,#93,#107,.T.);
#101=EDGE_CURVE('',#94,#94,#108,.T.);
#102=EDGE_CURVE('',#95,#95,#109,.T.);
#103=CIRCLE('',#140,9.99999999999998);
#104=CIRCLE('',#141,4.78413952662211);
#105=CIRCLE('',#143,3.25);
#106=CIRCLE('',#144,9.22031803826654);
#107=CIRCLE('',#147,4.75421782853751);
#108=CIRCLE('',#149,4.6828185809554);
#109=CIRCLE('',#150,3.25);
#110=CURVE_STYLE('',#114,POSITIVE_LENGTH_MEASURE(0.18),#113);
#111=CURVE_STYLE('',#115,POSITIVE_LENGTH_MEASURE(0.18),#135);
#112=CURVE_STYLE('',#116,POSITIVE_LENGTH_MEASURE(0.18),#135);
#113=DRAUGHTING_PRE_DEFINED_COLOUR('blue');
#114=DRAUGHTING_PRE_DEFINED_CURVE_FONT('continuous');
#115=DRAUGHTING_PRE_DEFINED_CURVE_FONT('continuous');
#116=DRAUGHTING_PRE_DEFINED_CURVE_FONT('continuous');
#117=B_SPLINE_CURVE_WITH_KNOTS('CUTTING EDGE LINE',5,(#191,#192,#193,#194,#195,#196,
     #197,#198,#199,#200,#201,#202,#203,#204,#205,#206,#207,#208,#209,#210,#211,
     #212,#213,#214,#215,#216,#217,#218,#219,#220,#221,#222,#223,#224,#225,#226,
     #227,#228,#229,#230,#231,#232,#233,#234,#235,#236,#237,#238,#239,#240,#241,
     #242,#243,#244,#245,#246,#247,#248,#249,#250,#251,#252,#253,#254,#255,#256,
     #257,#258,#259),.UNSPECIFIED.,.T.,.F.,(1,1,1,1,1,1,1,1,1,1,1,1,1,1,1,1,1,1,
     1,1,1,1,1,1,1,1,1,1,1,1,1,1,1,1,1,1,1,1,1,1,1,1,1,1,1,1,1,1,1,1,1,1,1,1,1,1,
     1,1,1,1,1,1,1,1,1,1,1,1,1,1,1,1,1,1,1),(-0.078125,-0.0625,-0.046875,-0.03125,
     -0.015625,0.0,0.015625,0.03125,0.046875,0.0625,0.078125,0.09375,0.109375,0.125,
     0.140625,0.15625,0.171875,0.1875,0.203125,0.21875,0.234375,0.25,0.265625,0.28125,
     0.296875,0.3125,0.328125,0.34375,0.359375,0.375,0.390625,0.40625,0.421875,0.4375,
     0.453125,0.46875,0.484375,0.5,0.515625,0.53125,0.546875,0.5625,0.578125,0.59375,
     0.609375,0.625,0.640625,0.65625,0.671875,0.6875,0.703125,0.71875,0.734375,0.75,
     0.765625,0.78125,0.796875,0.8125,0.828125,0.84375,0.859375,0.875,0.890625,0.90625,
     0.921875,0.9375,0.953125,0.96875,0.984375,1.0,1.015625,1.03125,1.046875,1.0625,
     1.078125),.UNSPECIFIED.);
#118=PRESENTATION_LAYER_ASSIGNMENT('1','Layer 1',(#117,#138,#139,#31));
#121=STYLED_ITEM('',(#127),#117);
#122=STYLED_ITEM('',(#128),#138);
#123=STYLED_ITEM('',(#129),#139);
#124=STYLED_ITEM('',(#130),#31);
#125=PRESENTATION_STYLE_ASSIGNMENT((#131));
#126=PRESENTATION_STYLE_ASSIGNMENT((#132));
#127=PRESENTATION_STYLE_ASSIGNMENT((#110));
#128=PRESENTATION_STYLE_ASSIGNMENT((#111));
#129=PRESENTATION_STYLE_ASSIGNMENT((#112));
#130=PRESENTATION_STYLE_ASSIGNMENT((#26));
#131=POINT_STYLE('',#133,POSITIVE_LENGTH_MEASURE(3.0),#135);
#132=POINT_STYLE('',#134,POSITIVE_LENGTH_MEASURE(3.0),#135);
#133=PRE_DEFINED_POINT_MARKER_SYMBOL('plus');
#134=PRE_DEFINED_POINT_MARKER_SYMBOL('plus');
#135=COLOUR_RGB('Medium Maroon',0.6,0.4,0.4);
#136=COLOUR_RGB('IsoInsertColor',0.8,0.8,0.8);
#137=AXIS2_PLACEMENT_3D('',#188,#154,#155);
#138=AXIS2_PLACEMENT_3D('PCS',#260,#156,#157);
#139=AXIS2_PLACEMENT_3D('MCS',#261,#158,#159);
#140=AXIS2_PLACEMENT_3D('',#262,#160,#161);
#141=AXIS2_PLACEMENT_3D('',#264,#162,#163);
#142=AXIS2_PLACEMENT_3D('',#266,#164,#165);
#143=AXIS2_PLACEMENT_3D('',#267,#166,#167);
#144=AXIS2_PLACEMENT_3D('',#269,#168,#169);
#145=AXIS2_PLACEMENT_3D('',#271,#170,#171);
#146=AXIS2_PLACEMENT_3D('',#272,#172,#173);
#147=AXIS2_PLACEMENT_3D('',#273,#174,#175);
#148=AXIS2_PLACEMENT_3D('',#275,#176,#177);
#149=AXIS2_PLACEMENT_3D('',#276,#178,#179);
#150=AXIS2_PLACEMENT_3D('',#278,#180,#181);
#151=AXIS2_PLACEMENT_3D('',#280,#182,#183);
#152=AXIS2_PLACEMENT_3D('',#281,#184,#185);
#153=AXIS2_PLACEMENT_3D('',#282,#186,#187);
#154=DIRECTION('',(0.0,0.0,1.0));
#155=DIRECTION('',(1.0,0.0,0.0));
#156=DIRECTION('',(0.0,0.0,1.0));
#157=DIRECTION('',(1.0,0.0,0.0));
#158=DIRECTION('',(0.0,0.0,1.0));
#159=DIRECTION('',(1.0,0.0,0.0));
#160=DIRECTION('',(0.0,0.0,-1.0));
#161=DIRECTION('',(-0.882015164970351,-0.471221019015837,0.0));
#162=DIRECTION('',(0.0,0.0,1.0));
#163=DIRECTION('',(-0.707106781186548,-0.707106781186548,0.0));
#164=DIRECTION('',(0.0,0.0,-1.0));
#165=DIRECTION('',(0.707106781186548,0.707106781186548,0.0));
#166=DIRECTION('',(0.0,0.0,1.0));
#167=DIRECTION('',(-0.707106781186547,-0.707106781186547,0.0));
#168=DIRECTION('',(0.0,0.0,1.0));
#169=DIRECTION('',(-0.707106781186548,-0.707106781186548,0.0));
#170=DIRECTION('',(0.0,0.0,1.0));
#171=DIRECTION('',(-0.707106781186548,-0.707106781186548,0.0));
#172=DIRECTION('',(0.0,0.0,1.0));
#173=DIRECTION('',(-0.707106781186548,-0.707106781186547,-3.26604889939969E-17));
#174=DIRECTION('',(0.0,0.0,-1.0));
#175=DIRECTION('',(0.707106781186547,0.707106781186547,0.0));
#176=DIRECTION('',(0.0,0.0,1.0));
#177=DIRECTION('',(-0.707106781186548,-0.707106781186548,1.15869287242269E-15));
#178=DIRECTION('',(0.0,0.0,1.0));
#179=DIRECTION('',(0.707106781186548,0.707106781186548,0.0));
#180=DIRECTION('',(0.0,0.0,-1.0));
#181=DIRECTION('',(-0.707106781186547,-0.707106781186547,0.0));
#182=DIRECTION('',(0.0,0.0,1.0));
#183=DIRECTION('',(-0.707106781186548,-0.707106781186548,0.0));
#184=DIRECTION('',(0.0,0.0,1.0));
#185=DIRECTION('',(-0.707106781186547,-0.707106781186547,0.0));
#186=DIRECTION('',(0.0,0.0,-1.0));
#187=DIRECTION('',(0.707106781186547,0.707106781186547,0.0));
#188=CARTESIAN_POINT('',(0.0,0.0,0.0));
#191=CARTESIAN_POINT('',(2.16323828577437,3.75217046638566,0.0));
#192=CARTESIAN_POINT('',(1.61560479419391,4.51182198251116,0.0));
#193=CARTESIAN_POINT('',(1.1630171969714,5.27879768189921,0.0));
#194=CARTESIAN_POINT('',(0.777064176008942,6.08137323730561,0.0));
#195=CARTESIAN_POINT('',(0.450035524417356,6.95888399402552,0.0));
#196=CARTESIAN_POINT('',(0.202058559009847,7.88533098237607,0.0));
#197=CARTESIAN_POINT('',(0.0405532259058603,8.85745271454706,0.0));
#198=CARTESIAN_POINT('',(-0.0246775149365916,9.86086924254341,0.0));
#199=CARTESIAN_POINT('',(0.0125092090959686,10.8819699855577,0.0));
#200=CARTESIAN_POINT('',(0.155796805598392,11.9046989372541,0.0));
#201=CARTESIAN_POINT('',(0.405408941213103,12.9125749713304,0.0));
#202=CARTESIAN_POINT('',(0.758199112013632,13.8891298411152,0.0));
#203=CARTESIAN_POINT('',(1.20762812055871,14.8189252004407,0.0));
#204=CARTESIAN_POINT('',(1.74434816149686,15.6883854798642,0.0));
#205=CARTESIAN_POINT('',(2.35637185093411,16.4862117653064,0.0));
#206=CARTESIAN_POINT('',(3.03102679500818,17.2045051185439,0.0));
#207=CARTESIAN_POINT('',(3.75217046647187,17.8367617142785,0.0));
#208=CARTESIAN_POINT('',(4.51182198278532,18.3843952059708,0.0));
#209=CARTESIAN_POINT('',(5.27879768183797,18.8369828029875,0.0));
#210=CARTESIAN_POINT('',(6.08137323733179,19.2229358240078,0.0));
#211=CARTESIAN_POINT('',(6.95888399401667,19.549964475577,0.0));
#212=CARTESIAN_POINT('',(7.88533098237895,19.7979414409919,0.0));
#213=CARTESIAN_POINT('',(8.85745271454608,19.9594467740936,0.0));
#214=CARTESIAN_POINT('',(9.86086924254379,20.0246775149367,0.0));
#215=CARTESIAN_POINT('',(10.8819699855575,19.9874907909041,0.0));
#216=CARTESIAN_POINT('',(11.9046989372543,19.8442031944014,0.0));
#217=CARTESIAN_POINT('',(12.9125749713301,19.5945910587874,0.0));
#218=CARTESIAN_POINT('',(13.8891298411159,19.2418008879852,0.0));
#219=CARTESIAN_POINT('',(14.8189252004389,18.7923718794442,0.0));
#220=CARTESIAN_POINT('',(15.6883854798691,18.2556518384951,0.0));
#221=CARTESIAN_POINT('',(16.486211765292,17.6436281490891,0.0));
#222=CARTESIAN_POINT('',(17.2045051185864,16.968973204923,0.0));
#223=CARTESIAN_POINT('',(17.8367617142024,16.2478295336495,0.0));
#224=CARTESIAN_POINT('',(18.3843952056042,15.4881780178297,0.0));
#225=CARTESIAN_POINT('',(18.8369828031428,14.7212023179046,0.0));
#226=CARTESIAN_POINT('',(19.2229358239534,13.9186267627571,0.0));
#227=CARTESIAN_POINT('',(19.5499644755951,13.0411160059537,0.0));
#228=CARTESIAN_POINT('',(19.7979414409861,12.1146690176306,0.0));
#229=CARTESIAN_POINT('',(19.9594467740954,11.1425472854508,0.0));
#230=CARTESIAN_POINT('',(20.0246775149361,10.1391307574573,0.0));
#231=CARTESIAN_POINT('',(19.9874907909042,9.11803001444206,0.0));
#232=CARTESIAN_POINT('',(19.8442031944014,8.09530106274591,0.0));
#233=CARTESIAN_POINT('',(19.5945910587872,7.0874250286697,0.0));
#234=CARTESIAN_POINT('',(19.2418008879856,6.1108701588844,0.0));
#235=CARTESIAN_POINT('',(18.7923718794431,5.18107479956035,0.0));
#236=CARTESIAN_POINT('',(18.2556518384981,4.31161452013279,0.0));
#237=CARTESIAN_POINT('',(17.6436281490804,3.51378823470252,0.0));
#238=CARTESIAN_POINT('',(16.9689732049448,2.79549488142744,0.0));
#239=CARTESIAN_POINT('',(16.2478295337715,2.16323828586977,0.0));
#240=CARTESIAN_POINT('',(15.4881780173732,1.61560479412369,0.0));
#241=CARTESIAN_POINT('',(14.7212023181324,1.16301719699161,0.0));
#242=CARTESIAN_POINT('',(13.9186267626688,0.777064175994962,0.0));
#243=CARTESIAN_POINT('',(13.0411160059833,0.450035524422191,0.0));
#244=CARTESIAN_POINT('',(12.114669017621,0.202058559008249,0.0));
#245=CARTESIAN_POINT('',(11.1425472854539,0.0405532259064216,0.0));
#246=CARTESIAN_POINT('',(10.1391307574562,-0.0246775149368137,0.0));
#247=CARTESIAN_POINT('',(9.11803001444237,0.0125092090961072,0.0));
#248=CARTESIAN_POINT('',(8.09530106274594,0.155796805598239,0.0));
#249=CARTESIAN_POINT('',(7.08742502866941,0.405408941213373,0.0));
#250=CARTESIAN_POINT('',(6.11087015888519,0.758199112013024,0.0));
#251=CARTESIAN_POINT('',(5.18107479955834,1.20762812056024,0.0));
#252=CARTESIAN_POINT('',(4.3116145201383,1.74434816149273,0.0));
#253=CARTESIAN_POINT('',(3.51378823468646,2.356371850946,0.0));
#254=CARTESIAN_POINT('',(2.79549488147523,3.03102679497642,0.0));
#255=CARTESIAN_POINT('',(2.16323828577437,3.75217046638566,0.0));
#256=CARTESIAN_POINT('',(1.61560479419391,4.51182198251116,0.0));
#257=CARTESIAN_POINT('',(1.1630171969714,5.27879768189921,0.0));
#258=CARTESIAN_POINT('',(0.777064176008942,6.08137323730561,0.0));
#259=CARTESIAN_POINT('',(0.450035524417356,6.95888399402552,0.0));
#260=CARTESIAN_POINT('',(0.0,0.0,0.0));
#261=CARTESIAN_POINT('',(10.0,10.0,0.0));
#262=CARTESIAN_POINT('',(9.99999999999999,9.99999999999999,4.26685108753951E-15));
#263=CARTESIAN_POINT('',(1.17984835029649,5.28778980984162,4.26685108753951E-15));
#264=CARTESIAN_POINT('',(10.0,10.0,0.0));
#265=CARTESIAN_POINT('',(6.6171024985829,6.6171024985829,0.0));
#266=CARTESIAN_POINT('',(9.99999999999999,9.99999999999999,4.26685108753951E-15));
#267=CARTESIAN_POINT('',(10.0,10.0,-6.35));
#268=CARTESIAN_POINT('',(7.70190296114372,7.70190296114372,-6.35));
#269=CARTESIAN_POINT('',(9.99999999999999,9.99999999999999,-6.35));
#270=CARTESIAN_POINT('',(3.48025059044507,3.48025059044507,-6.35));
#271=CARTESIAN_POINT('',(10.0,9.46966991411009,-6.35));
#272=CARTESIAN_POINT('',(9.99999999999999,9.99999999999999,4.33680868994202E-15));
#273=CARTESIAN_POINT('',(10.0,10.0,-0.744985238178286));
#274=CARTESIAN_POINT('',(13.3617396657969,13.3617396657969,-0.744985238178286));
#275=CARTESIAN_POINT('',(10.0,10.0,-0.850000000000069));
#276=CARTESIAN_POINT('',(10.0,10.0,-0.927501951188897));
#277=CARTESIAN_POINT('',(13.3112527736599,13.3112527736599,-0.927501951188897));
#278=CARTESIAN_POINT('',(10.0,10.0,-4.81862696659689));
#279=CARTESIAN_POINT('',(7.70190296114372,7.70190296114372,-4.81862696659689));
#280=CARTESIAN_POINT('',(10.0,10.0,-4.81862696659688));
#281=CARTESIAN_POINT('',(10.0,10.0,-29.1328042564319));
#282=CARTESIAN_POINT('',(10.0,10.0,-0.7329457004185));
#283=MECHANICAL_DESIGN_GEOMETRIC_PRESENTATION_REPRESENTATION('',(#121,#122,#123,
     #124),#284);
#284=(GEOMETRIC_REPRESENTATION_CONTEXT(3)GLOBAL_UNCERTAINTY_ASSIGNED_CONTEXT((#285))
     GLOBAL_UNIT_ASSIGNED_CONTEXT((#291,#287,#286))REPRESENTATION_CONTEXT('RCMT2006M0',
     'TOP_LEVEL_ASSEMBLY_PART'));
#285=UNCERTAINTY_MEASURE_WITH_UNIT(LENGTH_MEASURE(2.0E-5),#291,'DISTANCE_ACCURACY_VALUE',
     'Maximum Tolerance applied to model');
#286=(NAMED_UNIT(*)SI_UNIT($,.STERADIAN.)SOLID_ANGLE_UNIT());
#287=(CONVERSION_BASED_UNIT('DEGREE',#289)NAMED_UNIT(#288)PLANE_ANGLE_UNIT());
#288=DIMENSIONAL_EXPONENTS(0.0,0.0,0.0,0.0,0.0,0.0,0.0);
#289=PLANE_ANGLE_MEASURE_WITH_UNIT(PLANE_ANGLE_MEASURE(0.0174532925),#290);
#290=(NAMED_UNIT(*)PLANE_ANGLE_UNIT()SI_UNIT($,.RADIAN.));
#291=(LENGTH_UNIT()NAMED_UNIT(*)SI_UNIT(.MILLI.,.METRE.));
#292=CONSTRUCTIVE_GEOMETRY_REPRESENTATION('supplemental geometry',(#138,#139),#284);
#293=CONSTRUCTIVE_GEOMETRY_REPRESENTATION_RELATIONSHIP('supplemental geometry','contains PCS and MCS coordinate systems',
     #24,#292);
ENDSEC;
END-ISO-10303-21;
