ISO-10303-21;
HEADER;
FILE_DESCRIPTION(
/* description */ (''),
/* implementation_level */ '2;1');
FILE_NAME(
/* name */ 'RCMT1606M0.stp',
/* time_stamp */ '2017-03-21T10:54:12',
/* author */ ('Sandvik Coromant R&D'),
/* organization */ ('Sandvik Machining Solutions'),
/* preprocessor_version */ 'ST-DEVELOPER v15',
/* originating_system */ 'SIEMENS PLM Software NX v8.5.3.3(64 bits)',
/* authorization */ '');
FILE_SCHEMA(('AUTOMOTIVE_DESIGN'));
ENDSEC;
DATA;
#10=GEOMETRICALLY_BOUNDED_WIREFRAME_SHAPE_REPRESENTATION('IsoTurningInsert-None',
     (#25),#284);
#11=SHAPE_REPRESENTATION_RELATIONSHIP('None','relationship between IsoTurningInsert-None and IsoTurningInsert-None',
     #24,#13);
#12=SHAPE_REPRESENTATION_RELATIONSHIP('None','relationship between IsoTurningInsert-None and IsoTurningInsert-None',
     #24,#10);
#13=ADVANCED_BREP_SHAPE_REPRESENTATION('IsoTurningInsert-None',(#31),#284);
#14=SHAPE_DEFINITION_REPRESENTATION(#15,#24);
#15=PRODUCT_DEFINITION_SHAPE('','',#16);
#16=PRODUCT_DEFINITION(' ','',#18,#17);
#17=PRODUCT_DEFINITION_CONTEXT('part definition',#23,'design');
#18=PRODUCT_DEFINITION_FORMATION_WITH_SPECIFIED_SOURCE(' ',' ',#20,.NOT_KNOWN.);
#19=PRODUCT_RELATED_PRODUCT_CATEGORY('part','',(#20));
#20=PRODUCT('IsoTurningInsert','IsoTurningInsert',' ',(#21));
#21=PRODUCT_CONTEXT(' ',#23,'mechanical');
#22=APPLICATION_PROTOCOL_DEFINITION('international standard','automotive_design',
     2010,#23);
#23=APPLICATION_CONTEXT('core data for automotive mechanical design processes');
#24=SHAPE_REPRESENTATION('IsoTurningInsert-None',(#137),#284);
#25=GEOMETRIC_CURVE_SET('geometric curve set',(#117));
#26=SURFACE_STYLE_USAGE(.BOTH.,#27);
#27=SURFACE_SIDE_STYLE('',(#28));
#28=SURFACE_STYLE_FILL_AREA(#29);
#29=FILL_AREA_STYLE('',(#30));
#30=FILL_AREA_STYLE_COLOUR('',#136);
#31=MANIFOLD_SOLID_BREP('CUT',#32);
#32=CLOSED_SHELL('',(#38,#39,#40,#41,#42,#43,#44));
#33=CYLINDRICAL_SURFACE('',#152,2.75);
#34=TOROIDAL_SURFACE('',#151,7.75,5.0);
#35=TOROIDAL_SURFACE('',#153,3.45392842109241,0.3);
#36=CONICAL_SURFACE('',#146,7.99999999999999,6.99999999999999);
#37=CONICAL_SURFACE('',#148,3.74999999999569,2.30000000027458);
#38=ADVANCED_FACE('',(#47,#48),#45,.F.);
#39=ADVANCED_FACE('',(#49,#50),#46,.F.);
#40=ADVANCED_FACE('',(#51,#52),#36,.T.);
#41=ADVANCED_FACE('',(#53,#54),#37,.F.);
#42=ADVANCED_FACE('',(#55,#56),#34,.T.);
#43=ADVANCED_FACE('',(#57,#58),#33,.F.);
#44=ADVANCED_FACE('',(#59,#60),#35,.F.);
#45=PLANE('',#142);
#46=PLANE('',#145);
#47=FACE_BOUND('',#61,.T.);
#48=FACE_BOUND('',#62,.T.);
#49=FACE_BOUND('',#63,.T.);
#50=FACE_BOUND('',#64,.T.);
#51=FACE_BOUND('',#65,.T.);
#52=FACE_BOUND('',#66,.T.);
#53=FACE_BOUND('',#67,.T.);
#54=FACE_BOUND('',#68,.T.);
#55=FACE_BOUND('',#69,.T.);
#56=FACE_BOUND('',#70,.T.);
#57=FACE_BOUND('',#71,.T.);
#58=FACE_BOUND('',#72,.T.);
#59=FACE_BOUND('',#73,.T.);
#60=FACE_BOUND('',#74,.T.);
#61=EDGE_LOOP('',(#75));
#62=EDGE_LOOP('',(#76));
#63=EDGE_LOOP('',(#77));
#64=EDGE_LOOP('',(#78));
#65=EDGE_LOOP('',(#79));
#66=EDGE_LOOP('',(#80));
#67=EDGE_LOOP('',(#81));
#68=EDGE_LOOP('',(#82));
#69=EDGE_LOOP('',(#83));
#70=EDGE_LOOP('',(#84));
#71=EDGE_LOOP('',(#85));
#72=EDGE_LOOP('',(#86));
#73=EDGE_LOOP('',(#87));
#74=EDGE_LOOP('',(#88));
#75=ORIENTED_EDGE('',*,*,#96,.F.);
#76=ORIENTED_EDGE('',*,*,#97,.F.);
#77=ORIENTED_EDGE('',*,*,#98,.T.);
#78=ORIENTED_EDGE('',*,*,#99,.F.);
#79=ORIENTED_EDGE('',*,*,#99,.T.);
#80=ORIENTED_EDGE('',*,*,#96,.T.);
#81=ORIENTED_EDGE('',*,*,#100,.T.);
#82=ORIENTED_EDGE('',*,*,#97,.T.);
#83=ORIENTED_EDGE('',*,*,#101,.T.);
#84=ORIENTED_EDGE('',*,*,#102,.T.);
#85=ORIENTED_EDGE('',*,*,#102,.F.);
#86=ORIENTED_EDGE('',*,*,#98,.F.);
#87=ORIENTED_EDGE('',*,*,#101,.F.);
#88=ORIENTED_EDGE('',*,*,#100,.F.);
#89=VERTEX_POINT('',#263);
#90=VERTEX_POINT('',#265);
#91=VERTEX_POINT('',#268);
#92=VERTEX_POINT('',#270);
#93=VERTEX_POINT('',#274);
#94=VERTEX_POINT('',#277);
#95=VERTEX_POINT('',#279);
#96=EDGE_CURVE('',#89,#89,#103,.T.);
#97=EDGE_CURVE('',#90,#90,#104,.T.);
#98=EDGE_CURVE('',#91,#91,#105,.T.);
#99=EDGE_CURVE('',#92,#92,#106,.T.);
#100=EDGE_CURVE('',#93,#93,#107,.T.);
#101=EDGE_CURVE('',#94,#94,#108,.T.);
#102=EDGE_CURVE('',#95,#95,#109,.T.);
#103=CIRCLE('',#140,7.99999999999999);
#104=CIRCLE('',#141,3.78413952662211);
#105=CIRCLE('',#143,2.75);
#106=CIRCLE('',#144,7.22031803826655);
#107=CIRCLE('',#147,3.75368673962668);
#108=CIRCLE('',#149,3.69710228404944);
#109=CIRCLE('',#150,2.75);
#110=CURVE_STYLE('',#114,POSITIVE_LENGTH_MEASURE(0.18),#113);
#111=CURVE_STYLE('',#115,POSITIVE_LENGTH_MEASURE(0.18),#135);
#112=CURVE_STYLE('',#116,POSITIVE_LENGTH_MEASURE(0.18),#135);
#113=DRAUGHTING_PRE_DEFINED_COLOUR('blue');
#114=DRAUGHTING_PRE_DEFINED_CURVE_FONT('continuous');
#115=DRAUGHTING_PRE_DEFINED_CURVE_FONT('continuous');
#116=DRAUGHTING_PRE_DEFINED_CURVE_FONT('continuous');
#117=B_SPLINE_CURVE_WITH_KNOTS('CUTTING EDGE LINE',5,(#191,#192,#193,#194,#195,#196,
     #197,#198,#199,#200,#201,#202,#203,#204,#205,#206,#207,#208,#209,#210,#211,
     #212,#213,#214,#215,#216,#217,#218,#219,#220,#221,#222,#223,#224,#225,#226,
     #227,#228,#229,#230,#231,#232,#233,#234,#235,#236,#237,#238,#239,#240,#241,
     #242,#243,#244,#245,#246,#247,#248,#249,#250,#251,#252,#253,#254,#255,#256,
     #257,#258,#259),.UNSPECIFIED.,.T.,.F.,(1,1,1,1,1,1,1,1,1,1,1,1,1,1,1,1,1,1,
     1,1,1,1,1,1,1,1,1,1,1,1,1,1,1,1,1,1,1,1,1,1,1,1,1,1,1,1,1,1,1,1,1,1,1,1,1,1,
     1,1,1,1,1,1,1,1,1,1,1,1,1,1,1,1,1,1,1),(-0.078125,-0.0625,-0.046875,-0.03125,
     -0.015625,0.0,0.015625,0.03125,0.046875,0.0625,0.078125,0.09375,0.109375,0.125,
     0.140625,0.15625,0.171875,0.1875,0.203125,0.21875,0.234375,0.25,0.265625,0.28125,
     0.296875,0.3125,0.328125,0.34375,0.359375,0.375,0.390625,0.40625,0.421875,0.4375,
     0.453125,0.46875,0.484375,0.5,0.515625,0.53125,0.546875,0.5625,0.578125,0.59375,
     0.609375,0.625,0.640625,0.65625,0.671875,0.6875,0.703125,0.71875,0.734375,0.75,
     0.765625,0.78125,0.796875,0.8125,0.828125,0.84375,0.859375,0.875,0.890625,0.90625,
     0.921875,0.9375,0.953125,0.96875,0.984375,1.0,1.015625,1.03125,1.046875,1.0625,
     1.078125),.UNSPECIFIED.);
#118=PRESENTATION_LAYER_ASSIGNMENT('1','Layer 1',(#117,#138,#139,#31));
#121=STYLED_ITEM('',(#127),#117);
#122=STYLED_ITEM('',(#128),#138);
#123=STYLED_ITEM('',(#129),#139);
#124=STYLED_ITEM('',(#130),#31);
#125=PRESENTATION_STYLE_ASSIGNMENT((#131));
#126=PRESENTATION_STYLE_ASSIGNMENT((#132));
#127=PRESENTATION_STYLE_ASSIGNMENT((#110));
#128=PRESENTATION_STYLE_ASSIGNMENT((#111));
#129=PRESENTATION_STYLE_ASSIGNMENT((#112));
#130=PRESENTATION_STYLE_ASSIGNMENT((#26));
#131=POINT_STYLE('',#133,POSITIVE_LENGTH_MEASURE(3.0),#135);
#132=POINT_STYLE('',#134,POSITIVE_LENGTH_MEASURE(3.0),#135);
#133=PRE_DEFINED_POINT_MARKER_SYMBOL('plus');
#134=PRE_DEFINED_POINT_MARKER_SYMBOL('plus');
#135=COLOUR_RGB('Medium Maroon',0.6,0.4,0.4);
#136=COLOUR_RGB('IsoInsertColor',0.8,0.8,0.8);
#137=AXIS2_PLACEMENT_3D('',#188,#154,#155);
#138=AXIS2_PLACEMENT_3D('PCS',#260,#156,#157);
#139=AXIS2_PLACEMENT_3D('MCS',#261,#158,#159);
#140=AXIS2_PLACEMENT_3D('',#262,#160,#161);
#141=AXIS2_PLACEMENT_3D('',#264,#162,#163);
#142=AXIS2_PLACEMENT_3D('',#266,#164,#165);
#143=AXIS2_PLACEMENT_3D('',#267,#166,#167);
#144=AXIS2_PLACEMENT_3D('',#269,#168,#169);
#145=AXIS2_PLACEMENT_3D('',#271,#170,#171);
#146=AXIS2_PLACEMENT_3D('',#272,#172,#173);
#147=AXIS2_PLACEMENT_3D('',#273,#174,#175);
#148=AXIS2_PLACEMENT_3D('',#275,#176,#177);
#149=AXIS2_PLACEMENT_3D('',#276,#178,#179);
#150=AXIS2_PLACEMENT_3D('',#278,#180,#181);
#151=AXIS2_PLACEMENT_3D('',#280,#182,#183);
#152=AXIS2_PLACEMENT_3D('',#281,#184,#185);
#153=AXIS2_PLACEMENT_3D('',#282,#186,#187);
#154=DIRECTION('',(0.0,0.0,1.0));
#155=DIRECTION('',(1.0,0.0,0.0));
#156=DIRECTION('',(0.0,0.0,1.0));
#157=DIRECTION('',(1.0,0.0,0.0));
#158=DIRECTION('',(0.0,0.0,1.0));
#159=DIRECTION('',(1.0,0.0,0.0));
#160=DIRECTION('',(0.0,0.0,-1.0));
#161=DIRECTION('',(-0.882015164970351,-0.471221019015837,0.0));
#162=DIRECTION('',(0.0,0.0,1.0));
#163=DIRECTION('',(-0.707106781186548,-0.707106781186548,0.0));
#164=DIRECTION('',(0.0,0.0,-1.0));
#165=DIRECTION('',(0.707106781186548,0.707106781186548,0.0));
#166=DIRECTION('',(0.0,0.0,1.0));
#167=DIRECTION('',(-0.707106781186547,-0.707106781186547,0.0));
#168=DIRECTION('',(0.0,0.0,1.0));
#169=DIRECTION('',(-0.707106781186548,-0.707106781186548,0.0));
#170=DIRECTION('',(0.0,0.0,1.0));
#171=DIRECTION('',(-0.707106781186548,-0.707106781186548,0.0));
#172=DIRECTION('',(0.0,0.0,1.0));
#173=DIRECTION('',(-0.707106781186548,-0.707106781186548,-3.31599438037774E-17));
#174=DIRECTION('',(0.0,0.0,-1.0));
#175=DIRECTION('',(0.707106781186548,0.707106781186547,0.0));
#176=DIRECTION('',(0.0,0.0,1.0));
#177=DIRECTION('',(-0.707106781186548,-0.707106781186548,-1.02706784558589E-15));
#178=DIRECTION('',(0.0,0.0,1.0));
#179=DIRECTION('',(0.707106781186548,0.707106781186548,0.0));
#180=DIRECTION('',(0.0,0.0,-1.0));
#181=DIRECTION('',(-0.707106781186548,-0.707106781186548,0.0));
#182=DIRECTION('',(0.0,0.0,1.0));
#183=DIRECTION('',(-0.707106781186548,-0.707106781186548,0.0));
#184=DIRECTION('',(0.0,0.0,1.0));
#185=DIRECTION('',(-0.707106781186547,-0.707106781186547,0.0));
#186=DIRECTION('',(0.0,0.0,-1.0));
#187=DIRECTION('',(0.707106781186547,0.707106781186548,0.0));
#188=CARTESIAN_POINT('',(0.0,0.0,0.0));
#191=CARTESIAN_POINT('',(1.7305906286195,3.00173637310853,0.0));
#192=CARTESIAN_POINT('',(1.29248383535513,3.60945758600893,0.0));
#193=CARTESIAN_POINT('',(0.930413757577122,4.22303814551937,0.0));
#194=CARTESIAN_POINT('',(0.621651340807151,4.86509858984449,0.0));
#195=CARTESIAN_POINT('',(0.360028419533867,5.56710719522041,0.0));
#196=CARTESIAN_POINT('',(0.161646847207889,6.30826478590087,0.0));
#197=CARTESIAN_POINT('',(0.0324425807246538,7.08596217163763,0.0));
#198=CARTESIAN_POINT('',(-0.019742011949214,7.88869539403476,0.0));
#199=CARTESIAN_POINT('',(0.0100073672766614,8.70557598844611,0.0));
#200=CARTESIAN_POINT('',(0.124637444478932,9.52375914980338,0.0));
#201=CARTESIAN_POINT('',(0.324327152970033,10.3300599770641,0.0));
#202=CARTESIAN_POINT('',(0.606559289611914,11.1113038728927,0.0));
#203=CARTESIAN_POINT('',(0.966102496444467,11.8551401603511,0.0));
#204=CARTESIAN_POINT('',(1.39547852920428,12.5507083838955,0.0));
#205=CARTESIAN_POINT('',(1.8850974807274,13.188969412233,0.0));
#206=CARTESIAN_POINT('',(2.42482143606881,13.7636040948729,0.0));
#207=CARTESIAN_POINT('',(3.00173637292519,14.2694093712697,0.0));
#208=CARTESIAN_POINT('',(3.60945758636359,14.7075161648588,0.0));
#209=CARTESIAN_POINT('',(4.22303814541272,15.069586242355,0.0));
#210=CARTESIAN_POINT('',(4.86509858988646,15.378348659219,0.0));
#211=CARTESIAN_POINT('',(5.56710719520632,15.6399715804574,0.0));
#212=CARTESIAN_POINT('',(6.30826478590544,15.8383531527949,0.0));
#213=CARTESIAN_POINT('',(7.08596217163612,15.9675574192744,0.0));
#214=CARTESIAN_POINT('',(7.8886953940353,16.0197420119495,0.0));
#215=CARTESIAN_POINT('',(8.70557598844589,15.9899926327232,0.0));
#216=CARTESIAN_POINT('',(9.52375914980351,15.8753625555211,0.0));
#217=CARTESIAN_POINT('',(10.330059977064,15.6756728470301,0.0));
#218=CARTESIAN_POINT('',(11.1113038728929,15.3934407103878,0.0));
#219=CARTESIAN_POINT('',(11.8551401603506,15.0338975035563,0.0));
#220=CARTESIAN_POINT('',(12.5507083838968,14.6045214707936,0.0));
#221=CARTESIAN_POINT('',(13.1889694122292,14.1149025192787,0.0));
#222=CARTESIAN_POINT('',(13.7636040948826,13.5751785639158,0.0));
#223=CARTESIAN_POINT('',(14.2694093713207,12.9982636269886,0.0));
#224=CARTESIAN_POINT('',(14.7075161645998,12.3905424140691,0.0));
#225=CARTESIAN_POINT('',(15.0695862424615,11.7769618544119,0.0));
#226=CARTESIAN_POINT('',(15.3783486591821,11.1349014101733,0.0));
#227=CARTESIAN_POINT('',(15.6399715804696,10.4328928047738,0.0));
#228=CARTESIAN_POINT('',(15.838353152791,9.69173521410097,0.0));
#229=CARTESIAN_POINT('',(15.9675574192757,8.91403782836177,0.0));
#230=CARTESIAN_POINT('',(16.0197420119491,8.11130460596542,0.0));
#231=CARTESIAN_POINT('',(15.9899926327233,7.29442401155379,0.0));
#232=CARTESIAN_POINT('',(15.8753625555211,6.47624085019668,0.0));
#233=CARTESIAN_POINT('',(15.6756728470298,5.66994002293578,0.0));
#234=CARTESIAN_POINT('',(15.3934407103885,4.88869612710751,0.0));
#235=CARTESIAN_POINT('',(15.0338975035545,4.14485983964829,0.0));
#236=CARTESIAN_POINT('',(14.6045214707985,3.44929161610622,0.0));
#237=CARTESIAN_POINT('',(14.1149025192644,2.81103058776203,0.0));
#238=CARTESIAN_POINT('',(13.5751785639558,2.23639590514192,0.0));
#239=CARTESIAN_POINT('',(12.9982636270173,1.73059062869589,0.0));
#240=CARTESIAN_POINT('',(12.3905424138985,1.29248383529892,0.0));
#241=CARTESIAN_POINT('',(11.776961854506,0.930413757593292,0.0));
#242=CARTESIAN_POINT('',(11.134901410135,0.621651340795973,0.0));
#243=CARTESIAN_POINT('',(10.4328928047867,0.360028419537741,0.0));
#244=CARTESIAN_POINT('',(9.6917352140968,0.161646847206599,0.0));
#245=CARTESIAN_POINT('',(8.91403782836315,0.0324425807251334,0.0));
#246=CARTESIAN_POINT('',(8.11130460596499,-0.019742011949452,0.0));
#247=CARTESIAN_POINT('',(7.2944240115539,0.010007367276879,0.0));
#248=CARTESIAN_POINT('',(6.47624085019674,0.124637444478589,0.0));
#249=CARTESIAN_POINT('',(5.66994002293554,0.324327152970692,0.0));
#250=CARTESIAN_POINT('',(4.88869612710815,0.606559289610418,0.0));
#251=CARTESIAN_POINT('',(4.14485983964668,0.966102496448186,0.0));
#252=CARTESIAN_POINT('',(3.44929161611064,1.39547852919418,0.0));
#253=CARTESIAN_POINT('',(2.81103058774917,1.8850974807568,0.0));
#254=CARTESIAN_POINT('',(2.23639590518018,2.42482143598114,0.0));
#255=CARTESIAN_POINT('',(1.7305906286195,3.00173637310853,0.0));
#256=CARTESIAN_POINT('',(1.29248383535513,3.60945758600893,0.0));
#257=CARTESIAN_POINT('',(0.930413757577122,4.22303814551937,0.0));
#258=CARTESIAN_POINT('',(0.621651340807151,4.86509858984449,0.0));
#259=CARTESIAN_POINT('',(0.360028419533867,5.56710719522041,0.0));
#260=CARTESIAN_POINT('',(0.0,0.0,0.0));
#261=CARTESIAN_POINT('',(8.0,8.0,0.0));
#262=CARTESIAN_POINT('',(7.99999999999999,7.99999999999999,4.26685108753951E-15));
#263=CARTESIAN_POINT('',(0.94387868023719,4.2302318478733,4.26685108753951E-15));
#264=CARTESIAN_POINT('',(8.0,8.0,-3.46944695195361E-15));
#265=CARTESIAN_POINT('',(5.32420927976945,5.32420927976945,-3.46944695195361E-15));
#266=CARTESIAN_POINT('',(7.99999999999999,7.99999999999999,4.26685108753951E-15));
#267=CARTESIAN_POINT('',(8.0,8.0,-6.35000000000001));
#268=CARTESIAN_POINT('',(6.055456351737,6.055456351737,-6.35000000000001));
#269=CARTESIAN_POINT('',(7.99999999999999,7.99999999999999,-6.35));
#270=CARTESIAN_POINT('',(2.89446415281817,2.89446415281817,-6.35));
#271=CARTESIAN_POINT('',(8.0,7.46966991411009,-6.35));
#272=CARTESIAN_POINT('',(7.99999999999999,7.99999999999999,4.33680868994202E-15));
#273=CARTESIAN_POINT('',(8.0,8.0,-0.758208197481514));
#274=CARTESIAN_POINT('',(10.6542573480401,10.65425734804,-0.758208197481514));
#275=CARTESIAN_POINT('',(8.0,8.0,-0.850000000005745));
#276=CARTESIAN_POINT('',(8.0,8.0,-0.921857226151238));
#277=CARTESIAN_POINT('',(10.6142460957916,10.6142460957916,-0.921857226151238));
#278=CARTESIAN_POINT('',(8.0,8.0,-3.85000000000001));
#279=CARTESIAN_POINT('',(6.055456351737,6.05545635173699,-3.85000000000001));
#280=CARTESIAN_POINT('',(8.0,8.0,-3.85));
#281=CARTESIAN_POINT('',(8.0,8.0,-29.1328042564319));
#282=CARTESIAN_POINT('',(8.0,8.0,-0.746168659720313));
#283=MECHANICAL_DESIGN_GEOMETRIC_PRESENTATION_REPRESENTATION('',(#121,#122,#123,
     #124),#284);
#284=(GEOMETRIC_REPRESENTATION_CONTEXT(3)GLOBAL_UNCERTAINTY_ASSIGNED_CONTEXT((#285))
     GLOBAL_UNIT_ASSIGNED_CONTEXT((#291,#287,#286))REPRESENTATION_CONTEXT('RCMT1606M0',
     'TOP_LEVEL_ASSEMBLY_PART'));
#285=UNCERTAINTY_MEASURE_WITH_UNIT(LENGTH_MEASURE(2.0E-5),#291,'DISTANCE_ACCURACY_VALUE',
     'Maximum Tolerance applied to model');
#286=(NAMED_UNIT(*)SI_UNIT($,.STERADIAN.)SOLID_ANGLE_UNIT());
#287=(CONVERSION_BASED_UNIT('DEGREE',#289)NAMED_UNIT(#288)PLANE_ANGLE_UNIT());
#288=DIMENSIONAL_EXPONENTS(0.0,0.0,0.0,0.0,0.0,0.0,0.0);
#289=PLANE_ANGLE_MEASURE_WITH_UNIT(PLANE_ANGLE_MEASURE(0.0174532925),#290);
#290=(NAMED_UNIT(*)PLANE_ANGLE_UNIT()SI_UNIT($,.RADIAN.));
#291=(LENGTH_UNIT()NAMED_UNIT(*)SI_UNIT(.MILLI.,.METRE.));
#292=CONSTRUCTIVE_GEOMETRY_REPRESENTATION('supplemental geometry',(#138,#139),#284);
#293=CONSTRUCTIVE_GEOMETRY_REPRESENTATION_RELATIONSHIP('supplemental geometry','contains PCS and MCS coordinate systems',
     #24,#292);
ENDSEC;
END-ISO-10303-21;
