ISO-10303-21;
HEADER;
FILE_DESCRIPTION(
/* description */ (''),
/* implementation_level */ '2;1');
FILE_NAME(
/* name */ 'CNMG190604.stp',
/* time_stamp */ '2017-03-21T10:53:58',
/* author */ ('Sandvik Coromant R&D'),
/* organization */ ('Sandvik Machining Solutions'),
/* preprocessor_version */ 'ST-DEVELOPER v15',
/* originating_system */ 'SIEMENS PLM Software NX v8.5.3.3(64 bits)',
/* authorization */ '');
FILE_SCHEMA(('AUTOMOTIVE_DESIGN'));
ENDSEC;
DATA;
#10=GEOMETRICALLY_BOUNDED_WIREFRAME_SHAPE_REPRESENTATION('IsoTurningInsert-None',
     (#25),#451);
#11=SHAPE_REPRESENTATION_RELATIONSHIP('None','relationship between IsoTurningInsert-None and IsoTurningInsert-None',
     #24,#13);
#12=SHAPE_REPRESENTATION_RELATIONSHIP('None','relationship between IsoTurningInsert-None and IsoTurningInsert-None',
     #24,#10);
#13=ADVANCED_BREP_SHAPE_REPRESENTATION('IsoTurningInsert-None',(#31),#451);
#14=SHAPE_DEFINITION_REPRESENTATION(#15,#24);
#15=PRODUCT_DEFINITION_SHAPE('','',#16);
#16=PRODUCT_DEFINITION(' ','',#18,#17);
#17=PRODUCT_DEFINITION_CONTEXT('part definition',#23,'design');
#18=PRODUCT_DEFINITION_FORMATION_WITH_SPECIFIED_SOURCE(' ',' ',#20,.NOT_KNOWN.);
#19=PRODUCT_RELATED_PRODUCT_CATEGORY('part','',(#20));
#20=PRODUCT('IsoTurningInsert','IsoTurningInsert',' ',(#21));
#21=PRODUCT_CONTEXT(' ',#23,'mechanical');
#22=APPLICATION_PROTOCOL_DEFINITION('international standard','automotive_design',
     2010,#23);
#23=APPLICATION_CONTEXT('core data for automotive mechanical design processes');
#24=SHAPE_REPRESENTATION('IsoTurningInsert-None',(#248),#451);
#25=GEOMETRIC_CURVE_SET('geometric curve set',(#228));
#26=SURFACE_STYLE_USAGE(.BOTH.,#27);
#27=SURFACE_SIDE_STYLE('',(#28));
#28=SURFACE_STYLE_FILL_AREA(#29);
#29=FILL_AREA_STYLE('',(#30));
#30=FILL_AREA_STYLE_COLOUR('',#247);
#31=MANIFOLD_SOLID_BREP('CUT',#32);
#32=CLOSED_SHELL('',(#46,#47,#48,#49,#50,#51,#52,#53,#54,#55,#56));
#33=CYLINDRICAL_SURFACE('',#267,0.396874999999998);
#34=CYLINDRICAL_SURFACE('',#268,0.396874999999998);
#35=CYLINDRICAL_SURFACE('',#269,0.396874999999998);
#36=CYLINDRICAL_SURFACE('',#270,0.396874999999998);
#37=CYLINDRICAL_SURFACE('',#271,3.9625);
#38=FACE_OUTER_BOUND('',#103,.T.);
#39=FACE_OUTER_BOUND('',#104,.T.);
#40=FACE_OUTER_BOUND('',#105,.T.);
#41=FACE_OUTER_BOUND('',#106,.T.);
#42=FACE_OUTER_BOUND('',#109,.T.);
#43=FACE_OUTER_BOUND('',#110,.T.);
#44=FACE_OUTER_BOUND('',#111,.T.);
#45=FACE_OUTER_BOUND('',#112,.T.);
#46=ADVANCED_FACE('',(#95,#96),#57,.F.);
#47=ADVANCED_FACE('',(#38),#58,.T.);
#48=ADVANCED_FACE('',(#39),#59,.T.);
#49=ADVANCED_FACE('',(#40),#60,.T.);
#50=ADVANCED_FACE('',(#41),#61,.T.);
#51=ADVANCED_FACE('',(#97,#98),#62,.T.);
#52=ADVANCED_FACE('',(#42),#33,.T.);
#53=ADVANCED_FACE('',(#43),#34,.T.);
#54=ADVANCED_FACE('',(#44),#35,.T.);
#55=ADVANCED_FACE('',(#45),#36,.T.);
#56=ADVANCED_FACE('',(#99,#100),#37,.F.);
#57=PLANE('',#256);
#58=PLANE('',#257);
#59=PLANE('',#258);
#60=PLANE('',#259);
#61=PLANE('',#260);
#62=PLANE('',#266);
#63=LINE('',#397,#79);
#64=LINE('',#402,#80);
#65=LINE('',#406,#81);
#66=LINE('',#410,#82);
#67=LINE('',#414,#83);
#68=LINE('',#417,#84);
#69=LINE('',#418,#85);
#70=LINE('',#420,#86);
#71=LINE('',#422,#87);
#72=LINE('',#424,#88);
#73=LINE('',#426,#89);
#74=LINE('',#428,#90);
#75=LINE('',#430,#91);
#76=LINE('',#432,#92);
#77=LINE('',#434,#93);
#78=LINE('',#436,#94);
#79=VECTOR('',#280,1.0);
#80=VECTOR('',#283,1.0);
#81=VECTOR('',#286,1.0);
#82=VECTOR('',#289,1.0);
#83=VECTOR('',#294,1.0);
#84=VECTOR('',#295,1.0);
#85=VECTOR('',#296,1.0);
#86=VECTOR('',#299,1.0);
#87=VECTOR('',#300,1.0);
#88=VECTOR('',#301,1.0);
#89=VECTOR('',#304,1.0);
#90=VECTOR('',#305,1.0);
#91=VECTOR('',#306,1.0);
#92=VECTOR('',#309,1.0);
#93=VECTOR('',#310,1.0);
#94=VECTOR('',#311,1.0);
#95=FACE_BOUND('',#101,.T.);
#96=FACE_BOUND('',#102,.T.);
#97=FACE_BOUND('',#107,.T.);
#98=FACE_BOUND('',#108,.T.);
#99=FACE_BOUND('',#113,.T.);
#100=FACE_BOUND('',#114,.T.);
#101=EDGE_LOOP('',(#115));
#102=EDGE_LOOP('',(#116,#117,#118,#119,#120,#121,#122,#123));
#103=EDGE_LOOP('',(#124,#125,#126,#127));
#104=EDGE_LOOP('',(#128,#129,#130,#131));
#105=EDGE_LOOP('',(#132,#133,#134,#135));
#106=EDGE_LOOP('',(#136,#137,#138,#139));
#107=EDGE_LOOP('',(#140));
#108=EDGE_LOOP('',(#141,#142,#143,#144,#145,#146,#147,#148));
#109=EDGE_LOOP('',(#149,#150,#151,#152));
#110=EDGE_LOOP('',(#153,#154,#155,#156));
#111=EDGE_LOOP('',(#157,#158,#159,#160));
#112=EDGE_LOOP('',(#161,#162,#163,#164));
#113=EDGE_LOOP('',(#165));
#114=EDGE_LOOP('',(#166));
#115=ORIENTED_EDGE('',*,*,#185,.T.);
#116=ORIENTED_EDGE('',*,*,#186,.T.);
#117=ORIENTED_EDGE('',*,*,#187,.T.);
#118=ORIENTED_EDGE('',*,*,#188,.T.);
#119=ORIENTED_EDGE('',*,*,#189,.T.);
#120=ORIENTED_EDGE('',*,*,#190,.T.);
#121=ORIENTED_EDGE('',*,*,#191,.T.);
#122=ORIENTED_EDGE('',*,*,#192,.T.);
#123=ORIENTED_EDGE('',*,*,#193,.T.);
#124=ORIENTED_EDGE('',*,*,#194,.F.);
#125=ORIENTED_EDGE('',*,*,#195,.T.);
#126=ORIENTED_EDGE('',*,*,#186,.F.);
#127=ORIENTED_EDGE('',*,*,#196,.T.);
#128=ORIENTED_EDGE('',*,*,#192,.F.);
#129=ORIENTED_EDGE('',*,*,#197,.T.);
#130=ORIENTED_EDGE('',*,*,#198,.F.);
#131=ORIENTED_EDGE('',*,*,#199,.T.);
#132=ORIENTED_EDGE('',*,*,#190,.F.);
#133=ORIENTED_EDGE('',*,*,#200,.T.);
#134=ORIENTED_EDGE('',*,*,#201,.F.);
#135=ORIENTED_EDGE('',*,*,#202,.T.);
#136=ORIENTED_EDGE('',*,*,#188,.F.);
#137=ORIENTED_EDGE('',*,*,#203,.T.);
#138=ORIENTED_EDGE('',*,*,#204,.F.);
#139=ORIENTED_EDGE('',*,*,#205,.T.);
#140=ORIENTED_EDGE('',*,*,#206,.F.);
#141=ORIENTED_EDGE('',*,*,#204,.T.);
#142=ORIENTED_EDGE('',*,*,#207,.T.);
#143=ORIENTED_EDGE('',*,*,#194,.T.);
#144=ORIENTED_EDGE('',*,*,#208,.T.);
#145=ORIENTED_EDGE('',*,*,#198,.T.);
#146=ORIENTED_EDGE('',*,*,#209,.T.);
#147=ORIENTED_EDGE('',*,*,#201,.T.);
#148=ORIENTED_EDGE('',*,*,#210,.T.);
#149=ORIENTED_EDGE('',*,*,#187,.F.);
#150=ORIENTED_EDGE('',*,*,#195,.F.);
#151=ORIENTED_EDGE('',*,*,#207,.F.);
#152=ORIENTED_EDGE('',*,*,#203,.F.);
#153=ORIENTED_EDGE('',*,*,#189,.F.);
#154=ORIENTED_EDGE('',*,*,#205,.F.);
#155=ORIENTED_EDGE('',*,*,#210,.F.);
#156=ORIENTED_EDGE('',*,*,#200,.F.);
#157=ORIENTED_EDGE('',*,*,#191,.F.);
#158=ORIENTED_EDGE('',*,*,#202,.F.);
#159=ORIENTED_EDGE('',*,*,#209,.F.);
#160=ORIENTED_EDGE('',*,*,#197,.F.);
#161=ORIENTED_EDGE('',*,*,#193,.F.);
#162=ORIENTED_EDGE('',*,*,#199,.F.);
#163=ORIENTED_EDGE('',*,*,#208,.F.);
#164=ORIENTED_EDGE('',*,*,#196,.F.);
#165=ORIENTED_EDGE('',*,*,#185,.F.);
#166=ORIENTED_EDGE('',*,*,#206,.T.);
#167=VERTEX_POINT('',#396);
#168=VERTEX_POINT('',#398);
#169=VERTEX_POINT('',#399);
#170=VERTEX_POINT('',#401);
#171=VERTEX_POINT('',#403);
#172=VERTEX_POINT('',#405);
#173=VERTEX_POINT('',#407);
#174=VERTEX_POINT('',#409);
#175=VERTEX_POINT('',#411);
#176=VERTEX_POINT('',#415);
#177=VERTEX_POINT('',#416);
#178=VERTEX_POINT('',#421);
#179=VERTEX_POINT('',#423);
#180=VERTEX_POINT('',#427);
#181=VERTEX_POINT('',#429);
#182=VERTEX_POINT('',#433);
#183=VERTEX_POINT('',#435);
#184=VERTEX_POINT('',#439);
#185=EDGE_CURVE('',#167,#167,#211,.T.);
#186=EDGE_CURVE('',#168,#169,#63,.T.);
#187=EDGE_CURVE('',#169,#170,#212,.T.);
#188=EDGE_CURVE('',#170,#171,#64,.T.);
#189=EDGE_CURVE('',#171,#172,#213,.T.);
#190=EDGE_CURVE('',#172,#173,#65,.T.);
#191=EDGE_CURVE('',#173,#174,#214,.T.);
#192=EDGE_CURVE('',#174,#175,#66,.T.);
#193=EDGE_CURVE('',#175,#168,#215,.T.);
#194=EDGE_CURVE('',#176,#177,#67,.T.);
#195=EDGE_CURVE('',#176,#169,#68,.T.);
#196=EDGE_CURVE('',#168,#177,#69,.T.);
#197=EDGE_CURVE('',#174,#178,#70,.T.);
#198=EDGE_CURVE('',#179,#178,#71,.T.);
#199=EDGE_CURVE('',#179,#175,#72,.T.);
#200=EDGE_CURVE('',#172,#180,#73,.T.);
#201=EDGE_CURVE('',#181,#180,#74,.T.);
#202=EDGE_CURVE('',#181,#173,#75,.T.);
#203=EDGE_CURVE('',#170,#182,#76,.T.);
#204=EDGE_CURVE('',#183,#182,#77,.T.);
#205=EDGE_CURVE('',#183,#171,#78,.T.);
#206=EDGE_CURVE('',#184,#184,#216,.T.);
#207=EDGE_CURVE('',#182,#176,#217,.T.);
#208=EDGE_CURVE('',#177,#179,#218,.T.);
#209=EDGE_CURVE('',#178,#181,#219,.T.);
#210=EDGE_CURVE('',#180,#183,#220,.T.);
#211=CIRCLE('',#251,3.9625);
#212=CIRCLE('',#252,0.396874999999998);
#213=CIRCLE('',#253,0.396874999999998);
#214=CIRCLE('',#254,0.396874999999998);
#215=CIRCLE('',#255,0.396874999999998);
#216=CIRCLE('',#261,3.9625);
#217=CIRCLE('',#262,0.396874999999998);
#218=CIRCLE('',#263,0.396874999999998);
#219=CIRCLE('',#264,0.396874999999998);
#220=CIRCLE('',#265,0.396874999999998);
#221=CURVE_STYLE('',#225,POSITIVE_LENGTH_MEASURE(0.18),#224);
#222=CURVE_STYLE('',#226,POSITIVE_LENGTH_MEASURE(0.18),#246);
#223=CURVE_STYLE('',#227,POSITIVE_LENGTH_MEASURE(0.18),#246);
#224=DRAUGHTING_PRE_DEFINED_COLOUR('blue');
#225=DRAUGHTING_PRE_DEFINED_CURVE_FONT('continuous');
#226=DRAUGHTING_PRE_DEFINED_CURVE_FONT('continuous');
#227=DRAUGHTING_PRE_DEFINED_CURVE_FONT('continuous');
#228=B_SPLINE_CURVE_WITH_KNOTS('CUTTING EDGE LINE',5,(#339,#340,#341,#342,#343,#344,
     #345,#346,#347,#348,#349,#350,#351,#352,#353,#354,#355,#356,#357,#358,#359,
     #360,#361,#362,#363,#364,#365,#366,#367,#368,#369,#370,#371,#372,#373,#374,
     #375,#376,#377,#378,#379,#380,#381,#382,#383,#384,#385,#386,#387,#388,#389,
     #390,#391,#392),.UNSPECIFIED.,.T.,.F.,(2,4,1,1,1,4,4,1,1,1,1,1,1,1,4,4,1,1,
     1,4,4,1,1,1,1,1,1,1,4,4,1,1),(-0.2418662871,0.0,0.00180749174999995,0.0036149835,
     0.00542247524999995,0.007229967,0.2490962541,0.25022593645,0.2513556188,0.25248530115,
     0.2536149835,0.25474466585,0.2558743482,0.25700403055,0.2581337129,0.5,0.50180749175,
     0.5036149835,0.50542247525,0.507229967,0.7490962541,0.75022593645,0.7513556188,
     0.75248530115,0.7536149835,0.75474466585,0.7558743482,0.75700403055,0.7581337129,
     1.0,1.00180749175,1.0036149835),.UNSPECIFIED.);
#229=PRESENTATION_LAYER_ASSIGNMENT('1','Layer 1',(#228,#249,#250,#31));
#232=STYLED_ITEM('',(#238),#228);
#233=STYLED_ITEM('',(#239),#249);
#234=STYLED_ITEM('',(#240),#250);
#235=STYLED_ITEM('',(#241),#31);
#236=PRESENTATION_STYLE_ASSIGNMENT((#242));
#237=PRESENTATION_STYLE_ASSIGNMENT((#243));
#238=PRESENTATION_STYLE_ASSIGNMENT((#221));
#239=PRESENTATION_STYLE_ASSIGNMENT((#222));
#240=PRESENTATION_STYLE_ASSIGNMENT((#223));
#241=PRESENTATION_STYLE_ASSIGNMENT((#26));
#242=POINT_STYLE('',#244,POSITIVE_LENGTH_MEASURE(3.0),#246);
#243=POINT_STYLE('',#245,POSITIVE_LENGTH_MEASURE(3.0),#246);
#244=PRE_DEFINED_POINT_MARKER_SYMBOL('plus');
#245=PRE_DEFINED_POINT_MARKER_SYMBOL('plus');
#246=COLOUR_RGB('Medium Maroon',0.6,0.4,0.4);
#247=COLOUR_RGB('IsoInsertColor',0.8,0.8,0.8);
#248=AXIS2_PLACEMENT_3D('',#336,#272,#273);
#249=AXIS2_PLACEMENT_3D('PCS',#393,#274,#275);
#250=AXIS2_PLACEMENT_3D('MCS',#394,#276,#277);
#251=AXIS2_PLACEMENT_3D('',#395,#278,#279);
#252=AXIS2_PLACEMENT_3D('',#400,#281,#282);
#253=AXIS2_PLACEMENT_3D('',#404,#284,#285);
#254=AXIS2_PLACEMENT_3D('',#408,#287,#288);
#255=AXIS2_PLACEMENT_3D('',#412,#290,#291);
#256=AXIS2_PLACEMENT_3D('',#413,#292,#293);
#257=AXIS2_PLACEMENT_3D('',#419,#297,#298);
#258=AXIS2_PLACEMENT_3D('',#425,#302,#303);
#259=AXIS2_PLACEMENT_3D('',#431,#307,#308);
#260=AXIS2_PLACEMENT_3D('',#437,#312,#313);
#261=AXIS2_PLACEMENT_3D('',#438,#314,#315);
#262=AXIS2_PLACEMENT_3D('',#440,#316,#317);
#263=AXIS2_PLACEMENT_3D('',#441,#318,#319);
#264=AXIS2_PLACEMENT_3D('',#442,#320,#321);
#265=AXIS2_PLACEMENT_3D('',#443,#322,#323);
#266=AXIS2_PLACEMENT_3D('',#444,#324,#325);
#267=AXIS2_PLACEMENT_3D('',#445,#326,#327);
#268=AXIS2_PLACEMENT_3D('',#446,#328,#329);
#269=AXIS2_PLACEMENT_3D('',#447,#330,#331);
#270=AXIS2_PLACEMENT_3D('',#448,#332,#333);
#271=AXIS2_PLACEMENT_3D('',#449,#334,#335);
#272=DIRECTION('',(0.0,0.0,1.0));
#273=DIRECTION('',(1.0,0.0,0.0));
#274=DIRECTION('',(0.0,0.0,1.0));
#275=DIRECTION('',(1.0,0.0,0.0));
#276=DIRECTION('',(0.0,0.0,1.0));
#277=DIRECTION('',(1.0,0.0,0.0));
#278=DIRECTION('',(0.0,0.0,1.0));
#279=DIRECTION('',(-0.766044443118978,-0.64278760968654,0.0));
#280=DIRECTION('',(1.0,9.43689570931383E-16,0.0));
#281=DIRECTION('',(0.0,0.0,-1.0));
#282=DIRECTION('',(-0.766044443118976,-0.642787609686544,0.0));
#283=DIRECTION('',(-0.173648177666928,-0.984807753012209,0.0));
#284=DIRECTION('',(0.0,0.0,-1.0));
#285=DIRECTION('',(-0.766044443118976,-0.64278760968654,0.0));
#286=DIRECTION('',(-1.0,9.99200722162641E-16,0.0));
#287=DIRECTION('',(0.0,0.0,-1.0));
#288=DIRECTION('',(-0.766044443118978,-0.64278760968654,0.0));
#289=DIRECTION('',(0.17364817766693,0.984807753012208,0.0));
#290=DIRECTION('',(0.0,0.0,-1.0));
#291=DIRECTION('',(-0.766044443118978,-0.642787609686544,0.0));
#292=DIRECTION('',(0.0,0.0,1.0));
#293=DIRECTION('',(-0.766044443118978,-0.64278760968654,0.0));
#294=DIRECTION('',(-1.0,-9.43689570931383E-16,-6.88728341558126E-17));
#295=DIRECTION('',(6.88728341558128E-17,-2.57646211930159E-16,-1.0));
#296=DIRECTION('',(-6.88728341558128E-17,2.57646211930159E-16,1.0));
#297=DIRECTION('',(-9.43689570931383E-16,1.0,-2.5764621193016E-16));
#298=DIRECTION('',(-1.0,-9.43689570931383E-16,0.0));
#299=DIRECTION('',(-6.88728341558128E-17,2.57646211930159E-16,1.0));
#300=DIRECTION('',(-0.17364817766693,-0.984807753012208,2.41772344901134E-16));
#301=DIRECTION('',(6.88728341558128E-17,-2.57646211930159E-16,-1.0));
#302=DIRECTION('',(-0.984807753012208,0.17364817766693,-1.12566296233028E-16));
#303=DIRECTION('',(-0.17364817766693,-0.984807753012208,0.0));
#304=DIRECTION('',(-6.88728341558128E-17,2.57646211930159E-16,1.0));
#305=DIRECTION('',(1.0,-9.99200722162641E-16,6.88728341558131E-17));
#306=DIRECTION('',(6.88728341558128E-17,-2.57646211930159E-16,-1.0));
#307=DIRECTION('',(-9.99200722162641E-16,-1.0,2.57646211930159E-16));
#308=DIRECTION('',(1.0,-9.99200722162641E-16,0.0));
#309=DIRECTION('',(-6.88728341558128E-17,2.57646211930159E-16,1.0));
#310=DIRECTION('',(0.173648177666928,0.984807753012209,-2.41772344901134E-16));
#311=DIRECTION('',(6.88728341558128E-17,-2.57646211930159E-16,-1.0));
#312=DIRECTION('',(0.984807753012209,-0.173648177666928,1.12566296233028E-16));
#313=DIRECTION('',(0.173648177666928,0.984807753012209,0.0));
#314=DIRECTION('',(0.0,0.0,1.0));
#315=DIRECTION('',(-0.766044443118978,-0.64278760968654,0.0));
#316=DIRECTION('',(-6.88728341558128E-17,2.57646211930159E-16,1.0));
#317=DIRECTION('',(-0.642787609686544,0.766044443118976,-2.41639053379106E-16));
#318=DIRECTION('',(-6.88728341558128E-17,2.57646211930159E-16,1.0));
#319=DIRECTION('',(-0.642787609686539,0.766044443118976,-2.41639053379106E-16));
#320=DIRECTION('',(-6.88728341558128E-17,2.57646211930159E-16,1.0));
#321=DIRECTION('',(-0.64278760968654,0.766044443118978,-2.41639053379105E-16));
#322=DIRECTION('',(-6.88728341558128E-17,2.57646211930159E-16,1.0));
#323=DIRECTION('',(-0.642787609686544,0.766044443118978,-2.41639053379105E-16));
#324=DIRECTION('',(-6.88728341558128E-17,2.57646211930159E-16,1.0));
#325=DIRECTION('',(-0.64278760968654,0.766044443118978,-2.41639053379106E-16));
#326=DIRECTION('',(-6.88728341558128E-17,2.57646211930159E-16,1.0));
#327=DIRECTION('',(-0.642787609686544,0.766044443118976,-2.41639053379106E-16));
#328=DIRECTION('',(-6.88728341558128E-17,2.57646211930159E-16,1.0));
#329=DIRECTION('',(-0.642787609686544,0.766044443118978,-2.41639053379106E-16));
#330=DIRECTION('',(-6.88728341558128E-17,2.57646211930159E-16,1.0));
#331=DIRECTION('',(-0.64278760968654,0.766044443118978,-2.41639053379105E-16));
#332=DIRECTION('',(-6.88728341558128E-17,2.57646211930159E-16,1.0));
#333=DIRECTION('',(-0.642787609686539,0.766044443118976,-2.41639053379106E-16));
#334=DIRECTION('',(0.0,0.0,1.0));
#335=DIRECTION('',(-0.766044443118978,-0.64278760968654,0.0));
#336=CARTESIAN_POINT('',(0.0,0.0,0.0));
#339=CARTESIAN_POINT('',(15.3032828736521,9.59232693276135E-14,0.0));
#340=CARTESIAN_POINT('',(19.0363699235593,9.41469124882133E-14,1.04010329973469E-16));
#341=CARTESIAN_POINT('',(19.0873911900782,0.00409947974369018,1.06188876593909E-16));
#342=CARTESIAN_POINT('',(19.1720481682976,0.0237257408398364,1.056260584152E-16));
#343=CARTESIAN_POINT('',(19.2740336743146,0.0832359823716402,9.32642349640433E-17));
#344=CARTESIAN_POINT('',(19.3503494188273,0.173338254397835,6.91689062667958E-17));
#345=CARTESIAN_POINT('',(19.3843780429119,0.253301038420959,4.54641489340668E-17));
#346=CARTESIAN_POINT('',(19.3972749923,0.302835310070385,3.02162821857566E-17));
#347=CARTESIAN_POINT('',(20.0455187555884,3.97920837948851,1.34024246452451E-17));
#348=CARTESIAN_POINT('',(20.6893326439001,7.6304583794885,8.93494976349669E-18));
#349=CARTESIAN_POINT('',(21.3331465322119,11.2817083794885,8.93494976349662E-18));
#350=CARTESIAN_POINT('',(21.9769604205237,14.9329583794885,1.34024246452449E-17));
#351=CARTESIAN_POINT('',(22.6234139685445,18.5991786336065,1.93800553641126E-17));
#352=CARTESIAN_POINT('',(22.6272598029653,18.629371903924,1.34734581404877E-17));
#353=CARTESIAN_POINT('',(22.6290516950631,18.6794760556916,3.85180357285451E-18));
#354=CARTESIAN_POINT('',(22.6204335816008,18.7471526817345,-8.71139055005291E-18));
#355=CARTESIAN_POINT('',(22.5896130583601,18.8334081645771,-2.39454426848023E-17));
#356=CARTESIAN_POINT('',(22.5381118709812,18.9117213583727,-3.68543043497223E-17));
#357=CARTESIAN_POINT('',(22.4699315179042,18.9760390703827,-4.64410024209544E-17));
#358=CARTESIAN_POINT('',(22.3903383773563,19.0213694680314,-5.19605030895663E-17));
#359=CARTESIAN_POINT('',(22.3251864310298,19.0416085757685,-5.32632634021787E-17));
#360=CARTESIAN_POINT('',(22.2755323151132,19.0485444011859,-5.26378793613663E-17));
#361=CARTESIAN_POINT('',(22.2451299262769,19.05,-5.1722900343568E-17));
#362=CARTESIAN_POINT('',(18.5223523152109,19.05,-3.06760021079345E-17));
#363=CARTESIAN_POINT('',(14.8147758985631,19.05,-2.04506680719563E-17));
#364=CARTESIAN_POINT('',(11.1071994819153,19.05,-2.04506680719564E-17));
#365=CARTESIAN_POINT('',(7.39962306526752,19.05,-3.06760021079346E-17));
#366=CARTESIAN_POINT('',(3.66653601536028,19.05,-5.6800189952226E-17));
#367=CARTESIAN_POINT('',(3.61551474884141,19.0459005202564,-6.67008212261258E-17));
#368=CARTESIAN_POINT('',(3.53085777062201,19.0262742591603,-7.86037033957422E-17));
#369=CARTESIAN_POINT('',(3.42887226460502,18.9667640176284,-8.02882633652851E-17));
#370=CARTESIAN_POINT('',(3.35255652009232,18.8766617456023,-6.54702109366886E-17));
#371=CARTESIAN_POINT('',(3.3185278960077,18.7966989615791,-4.48250655568179E-17));
#372=CARTESIAN_POINT('',(3.30563094661963,18.7471646899297,-3.02162821857563E-17));
#373=CARTESIAN_POINT('',(2.65738718333122,15.0707916205116,-1.34024246452449E-17));
#374=CARTESIAN_POINT('',(2.01357329501945,11.4195416205116,-8.93494976349662E-18));
#375=CARTESIAN_POINT('',(1.36975940670767,7.76829162051163,-8.93494976349665E-18));
#376=CARTESIAN_POINT('',(0.725945518395898,4.11704162051165,-1.3402424645245E-17));
#377=CARTESIAN_POINT('',(0.0794919703750487,0.450821366393642,-1.93800553641128E-17));
#378=CARTESIAN_POINT('',(0.0756461359543064,0.420628096076095,-1.34734581404878E-17));
#379=CARTESIAN_POINT('',(0.0738542438564362,0.370523944308504,-3.85180357285466E-18));
#380=CARTESIAN_POINT('',(0.0824723573187462,0.302847318265618,8.71139055005286E-18));
#381=CARTESIAN_POINT('',(0.113292880559479,0.216591835422992,2.39454426848023E-17));
#382=CARTESIAN_POINT('',(0.164794067938344,0.138278641627373,3.68543043497224E-17));
#383=CARTESIAN_POINT('',(0.232974421015374,0.0739609296174262,4.64410024209546E-17));
#384=CARTESIAN_POINT('',(0.312567561563291,0.0286305319686804,5.19605030895665E-17));
#385=CARTESIAN_POINT('',(0.377719507889783,0.0083914242316574,5.32632634021789E-17));
#386=CARTESIAN_POINT('',(0.427373623806409,0.00145559881420887,5.26378793613664E-17));
#387=CARTESIAN_POINT('',(0.457776012642695,1.13686837721616E-13,5.17229003435681E-17));
#388=CARTESIAN_POINT('',(4.18055362370865,1.10134124042816E-13,3.06760021079345E-17));
#389=CARTESIAN_POINT('',(7.88813004035645,1.06581410364015E-13,1.53380010539673E-17));
#390=CARTESIAN_POINT('',(11.5957064570043,9.9475983006414E-14,5.11266701798909E-18));
#391=CARTESIAN_POINT('',(15.3032828736521,9.59232693276135E-14,0.0));
#392=CARTESIAN_POINT('',(19.0363699235593,9.41469124882133E-14,1.04010329973469E-16));
#393=CARTESIAN_POINT('',(0.0,0.0,0.0));
#394=CARTESIAN_POINT('',(11.3514529694598,9.525,0.0));
#395=CARTESIAN_POINT('',(11.3514529694598,9.525,-6.35));
#396=CARTESIAN_POINT('',(8.31600186360089,6.97795409661709,-6.35));
#397=CARTESIAN_POINT('',(11.3514529694598,19.05,-6.35));
#398=CARTESIAN_POINT('',(3.69204664861972,19.05,-6.35));
#399=CARTESIAN_POINT('',(22.2299287318587,19.05,-6.35));
#400=CARTESIAN_POINT('',(22.2299287318587,18.653125,-6.35));
#401=CARTESIAN_POINT('',(22.6207743088354,18.5842083794884,-6.35));
#402=CARTESIAN_POINT('',(20.731746816901,7.87100110772257,-6.35));
#403=CARTESIAN_POINT('',(19.4017048672766,0.327958379488525,-6.35));
#404=CARTESIAN_POINT('',(19.0108592902999,0.39687500000009,-6.35));
#405=CARTESIAN_POINT('',(19.0108592902999,9.19403442267708E-14,-6.35));
#406=CARTESIAN_POINT('',(11.3514529694598,1.00613961606655E-13,-6.35));
#407=CARTESIAN_POINT('',(0.472977207060838,1.12757025938492E-13,-6.35));
#408=CARTESIAN_POINT('',(0.47297720706084,0.396875000000111,-6.35));
#409=CARTESIAN_POINT('',(0.0821316300841212,0.465791620511673,-6.35));
#410=CARTESIAN_POINT('',(1.97115912201856,11.1789988922775,-6.35));
#411=CARTESIAN_POINT('',(3.301201071643,18.7220416205116,-6.35));
#412=CARTESIAN_POINT('',(3.69204664861972,18.653125,-6.35));
#413=CARTESIAN_POINT('',(11.3052316569227,8.99668798019793,-6.35));
#414=CARTESIAN_POINT('',(11.3514529694598,19.05,-5.38749756651153E-15));
#415=CARTESIAN_POINT('',(22.2299287318587,19.05,-4.6382661094598E-15));
#416=CARTESIAN_POINT('',(3.69204664861972,19.05,-5.91502258777873E-15));
#417=CARTESIAN_POINT('',(22.2299287318587,19.05,-4.33680868994202E-15));
#418=CARTESIAN_POINT('',(3.69204664861972,19.05,-5.20417042793042E-15));
#419=CARTESIAN_POINT('',(11.3514529694598,19.05,-5.38749756651153E-15));
#420=CARTESIAN_POINT('',(0.0821316300841195,0.465791620511675,-8.67361737988404E-16));
#421=CARTESIAN_POINT('',(0.0821316300841195,0.465791620511675,-1.37549677547102E-15));
#422=CARTESIAN_POINT('',(1.97115912201855,11.1789988922775,-4.00561136949636E-15));
#423=CARTESIAN_POINT('',(3.301201071643,18.7220416205116,-5.85744399623643E-15));
#424=CARTESIAN_POINT('',(3.301201071643,18.7220416205116,-5.20417042793042E-15));
#425=CARTESIAN_POINT('',(1.97115912201856,11.1789988922775,-4.00561136949636E-15));
#426=CARTESIAN_POINT('',(19.0108592902999,9.36750677027476E-14,2.88889491658085E-31));
#427=CARTESIAN_POINT('',(19.0108592902999,9.36750677027476E-14,4.81877920251838E-17));
#428=CARTESIAN_POINT('',(11.3514529694598,1.00613961606655E-13,-4.79337229242019E-16));
#429=CARTESIAN_POINT('',(0.472977207060837,1.12757025938492E-13,-1.22856868629376E-15));
#430=CARTESIAN_POINT('',(0.472977207060837,1.12757025938492E-13,-8.67361737988403E-16));
#431=CARTESIAN_POINT('',(11.3514529694598,1.00613961606655E-13,-4.79337229242022E-16));
#432=CARTESIAN_POINT('',(22.6207743088354,18.5842083794884,-4.33680868994202E-15));
#433=CARTESIAN_POINT('',(22.6207743088354,18.5842083794884,-4.49133802028254E-15));
#434=CARTESIAN_POINT('',(20.731746816901,7.87100110772254,-1.86122342625718E-15));
#435=CARTESIAN_POINT('',(19.4017048672766,0.327958379488529,-9.3907995171145E-18));
#436=CARTESIAN_POINT('',(19.4017048672766,0.327958379488529,7.70371977754894E-31));
#437=CARTESIAN_POINT('',(20.731746816901,7.87100110772257,-1.86122342625719E-15));
#438=CARTESIAN_POINT('',(11.3514529694598,9.525,-6.93889390390723E-15));
#439=CARTESIAN_POINT('',(8.31600186360089,6.97795409661709,-6.93889390390723E-15));
#440=CARTESIAN_POINT('',(22.2299287318587,18.653125,-4.53601276910002E-15));
#441=CARTESIAN_POINT('',(3.69204664861972,18.653125,-5.81276924741895E-15));
#442=CARTESIAN_POINT('',(0.47297720706084,0.396875000000112,-1.33082202665354E-15));
#443=CARTESIAN_POINT('',(19.0108592902999,0.396875000000092,-5.40655483345976E-17));
#444=CARTESIAN_POINT('',(11.3514529694598,9.525,-2.93341739787676E-15));
#445=CARTESIAN_POINT('',(22.2299287318587,18.653125,-4.33680868994202E-15));
#446=CARTESIAN_POINT('',(19.0108592902999,0.396875000000092,0.0));
#447=CARTESIAN_POINT('',(0.47297720706084,0.396875000000112,-8.67361737988404E-16));
#448=CARTESIAN_POINT('',(3.69204664861972,18.653125,-5.20417042793042E-15));
#449=CARTESIAN_POINT('',(11.3514529694598,9.525,-33.3676978394524));
#450=MECHANICAL_DESIGN_GEOMETRIC_PRESENTATION_REPRESENTATION('',(#232,#233,#234,
     #235),#451);
#451=(GEOMETRIC_REPRESENTATION_CONTEXT(3)GLOBAL_UNCERTAINTY_ASSIGNED_CONTEXT((#452))
     GLOBAL_UNIT_ASSIGNED_CONTEXT((#458,#454,#453))REPRESENTATION_CONTEXT('CNMG190604',
     'TOP_LEVEL_ASSEMBLY_PART'));
#452=UNCERTAINTY_MEASURE_WITH_UNIT(LENGTH_MEASURE(2.0E-5),#458,'DISTANCE_ACCURACY_VALUE',
     'Maximum Tolerance applied to model');
#453=(NAMED_UNIT(*)SI_UNIT($,.STERADIAN.)SOLID_ANGLE_UNIT());
#454=(CONVERSION_BASED_UNIT('DEGREE',#456)NAMED_UNIT(#455)PLANE_ANGLE_UNIT());
#455=DIMENSIONAL_EXPONENTS(0.0,0.0,0.0,0.0,0.0,0.0,0.0);
#456=PLANE_ANGLE_MEASURE_WITH_UNIT(PLANE_ANGLE_MEASURE(0.0174532925),#457);
#457=(NAMED_UNIT(*)PLANE_ANGLE_UNIT()SI_UNIT($,.RADIAN.));
#458=(LENGTH_UNIT()NAMED_UNIT(*)SI_UNIT(.MILLI.,.METRE.));
#459=CONSTRUCTIVE_GEOMETRY_REPRESENTATION('supplemental geometry',(#249,#250),#451);
#460=CONSTRUCTIVE_GEOMETRY_REPRESENTATION_RELATIONSHIP('supplemental geometry','contains PCS and MCS coordinate systems',
     #24,#459);
ENDSEC;
END-ISO-10303-21;
