ISO-10303-21;
HEADER;
FILE_DESCRIPTION(
/* description */ (''),
/* implementation_level */ '2;1');
FILE_NAME(
/* name */ 'CNGN160708.stp',
/* time_stamp */ '2017-03-21T10:53:57',
/* author */ ('Sandvik Coromant R&D'),
/* organization */ ('Sandvik Machining Solutions'),
/* preprocessor_version */ 'ST-DEVELOPER v15',
/* originating_system */ 'SIEMENS PLM Software NX v8.5.3.3(64 bits)',
/* authorization */ '');
FILE_SCHEMA(('AUTOMOTIVE_DESIGN'));
ENDSEC;
DATA;
#10=GEOMETRICALLY_BOUNDED_WIREFRAME_SHAPE_REPRESENTATION('IsoTurningInsert-None',
     (#25),#425);
#11=SHAPE_REPRESENTATION_RELATIONSHIP('None','relationship between IsoTurningInsert-None and IsoTurningInsert-None',
     #24,#13);
#12=SHAPE_REPRESENTATION_RELATIONSHIP('None','relationship between IsoTurningInsert-None and IsoTurningInsert-None',
     #24,#10);
#13=ADVANCED_BREP_SHAPE_REPRESENTATION('IsoTurningInsert-None',(#31),#425);
#14=SHAPE_DEFINITION_REPRESENTATION(#15,#24);
#15=PRODUCT_DEFINITION_SHAPE('','',#16);
#16=PRODUCT_DEFINITION(' ','',#18,#17);
#17=PRODUCT_DEFINITION_CONTEXT('part definition',#23,'design');
#18=PRODUCT_DEFINITION_FORMATION_WITH_SPECIFIED_SOURCE(' ',' ',#20,.NOT_KNOWN.);
#19=PRODUCT_RELATED_PRODUCT_CATEGORY('part','',(#20));
#20=PRODUCT('IsoTurningInsert','IsoTurningInsert',' ',(#21));
#21=PRODUCT_CONTEXT(' ',#23,'mechanical');
#22=APPLICATION_PROTOCOL_DEFINITION('international standard','automotive_design',
     2010,#23);
#23=APPLICATION_CONTEXT('core data for automotive mechanical design processes');
#24=SHAPE_REPRESENTATION('IsoTurningInsert-None',(#228),#425);
#25=GEOMETRIC_CURVE_SET('geometric curve set',(#208));
#26=SURFACE_STYLE_USAGE(.BOTH.,#27);
#27=SURFACE_SIDE_STYLE('',(#28));
#28=SURFACE_STYLE_FILL_AREA(#29);
#29=FILL_AREA_STYLE('',(#30));
#30=FILL_AREA_STYLE_COLOUR('',#227);
#31=MANIFOLD_SOLID_BREP('CUT',#32);
#32=CLOSED_SHELL('',(#37,#38,#39,#40,#41,#42,#43,#44,#45,#46));
#33=CYLINDRICAL_SURFACE('',#245,0.793749999999997);
#34=CYLINDRICAL_SURFACE('',#246,0.793749999999997);
#35=CYLINDRICAL_SURFACE('',#247,0.793749999999997);
#36=CYLINDRICAL_SURFACE('',#248,0.793749999999997);
#37=ADVANCED_FACE('',(#53),#47,.F.);
#38=ADVANCED_FACE('',(#54),#48,.T.);
#39=ADVANCED_FACE('',(#55),#49,.T.);
#40=ADVANCED_FACE('',(#56),#50,.T.);
#41=ADVANCED_FACE('',(#57),#51,.T.);
#42=ADVANCED_FACE('',(#58),#52,.T.);
#43=ADVANCED_FACE('',(#59),#33,.T.);
#44=ADVANCED_FACE('',(#60),#34,.T.);
#45=ADVANCED_FACE('',(#61),#35,.T.);
#46=ADVANCED_FACE('',(#62),#36,.T.);
#47=PLANE('',#235);
#48=PLANE('',#236);
#49=PLANE('',#237);
#50=PLANE('',#238);
#51=PLANE('',#239);
#52=PLANE('',#244);
#53=FACE_OUTER_BOUND('',#63,.T.);
#54=FACE_OUTER_BOUND('',#64,.T.);
#55=FACE_OUTER_BOUND('',#65,.T.);
#56=FACE_OUTER_BOUND('',#66,.T.);
#57=FACE_OUTER_BOUND('',#67,.T.);
#58=FACE_OUTER_BOUND('',#68,.T.);
#59=FACE_OUTER_BOUND('',#69,.T.);
#60=FACE_OUTER_BOUND('',#70,.T.);
#61=FACE_OUTER_BOUND('',#71,.T.);
#62=FACE_OUTER_BOUND('',#72,.T.);
#63=EDGE_LOOP('',(#81,#82,#83,#84,#85,#86,#87,#88));
#64=EDGE_LOOP('',(#89,#90,#91,#92));
#65=EDGE_LOOP('',(#93,#94,#95,#96));
#66=EDGE_LOOP('',(#97,#98,#99,#100));
#67=EDGE_LOOP('',(#101,#102,#103,#104));
#68=EDGE_LOOP('',(#105,#106,#107,#108,#109,#110,#111,#112));
#69=EDGE_LOOP('',(#113,#114,#115,#116));
#70=EDGE_LOOP('',(#117,#118,#119,#120));
#71=EDGE_LOOP('',(#121,#122,#123,#124));
#72=EDGE_LOOP('',(#125,#126,#127,#128));
#73=CIRCLE('',#231,0.793749999999997);
#74=CIRCLE('',#232,0.793749999999997);
#75=CIRCLE('',#233,0.793749999999997);
#76=CIRCLE('',#234,0.793749999999997);
#77=CIRCLE('',#240,0.793749999999997);
#78=CIRCLE('',#241,0.793749999999997);
#79=CIRCLE('',#242,0.793749999999997);
#80=CIRCLE('',#243,0.793749999999997);
#81=ORIENTED_EDGE('',*,*,#145,.T.);
#82=ORIENTED_EDGE('',*,*,#146,.T.);
#83=ORIENTED_EDGE('',*,*,#147,.T.);
#84=ORIENTED_EDGE('',*,*,#148,.T.);
#85=ORIENTED_EDGE('',*,*,#149,.T.);
#86=ORIENTED_EDGE('',*,*,#150,.T.);
#87=ORIENTED_EDGE('',*,*,#151,.T.);
#88=ORIENTED_EDGE('',*,*,#152,.T.);
#89=ORIENTED_EDGE('',*,*,#153,.F.);
#90=ORIENTED_EDGE('',*,*,#154,.T.);
#91=ORIENTED_EDGE('',*,*,#145,.F.);
#92=ORIENTED_EDGE('',*,*,#155,.T.);
#93=ORIENTED_EDGE('',*,*,#151,.F.);
#94=ORIENTED_EDGE('',*,*,#156,.T.);
#95=ORIENTED_EDGE('',*,*,#157,.F.);
#96=ORIENTED_EDGE('',*,*,#158,.T.);
#97=ORIENTED_EDGE('',*,*,#149,.F.);
#98=ORIENTED_EDGE('',*,*,#159,.T.);
#99=ORIENTED_EDGE('',*,*,#160,.F.);
#100=ORIENTED_EDGE('',*,*,#161,.T.);
#101=ORIENTED_EDGE('',*,*,#147,.F.);
#102=ORIENTED_EDGE('',*,*,#162,.T.);
#103=ORIENTED_EDGE('',*,*,#163,.F.);
#104=ORIENTED_EDGE('',*,*,#164,.T.);
#105=ORIENTED_EDGE('',*,*,#163,.T.);
#106=ORIENTED_EDGE('',*,*,#165,.T.);
#107=ORIENTED_EDGE('',*,*,#153,.T.);
#108=ORIENTED_EDGE('',*,*,#166,.T.);
#109=ORIENTED_EDGE('',*,*,#157,.T.);
#110=ORIENTED_EDGE('',*,*,#167,.T.);
#111=ORIENTED_EDGE('',*,*,#160,.T.);
#112=ORIENTED_EDGE('',*,*,#168,.T.);
#113=ORIENTED_EDGE('',*,*,#146,.F.);
#114=ORIENTED_EDGE('',*,*,#154,.F.);
#115=ORIENTED_EDGE('',*,*,#165,.F.);
#116=ORIENTED_EDGE('',*,*,#162,.F.);
#117=ORIENTED_EDGE('',*,*,#148,.F.);
#118=ORIENTED_EDGE('',*,*,#164,.F.);
#119=ORIENTED_EDGE('',*,*,#168,.F.);
#120=ORIENTED_EDGE('',*,*,#159,.F.);
#121=ORIENTED_EDGE('',*,*,#150,.F.);
#122=ORIENTED_EDGE('',*,*,#161,.F.);
#123=ORIENTED_EDGE('',*,*,#167,.F.);
#124=ORIENTED_EDGE('',*,*,#156,.F.);
#125=ORIENTED_EDGE('',*,*,#152,.F.);
#126=ORIENTED_EDGE('',*,*,#158,.F.);
#127=ORIENTED_EDGE('',*,*,#166,.F.);
#128=ORIENTED_EDGE('',*,*,#155,.F.);
#129=VERTEX_POINT('',#375);
#130=VERTEX_POINT('',#376);
#131=VERTEX_POINT('',#378);
#132=VERTEX_POINT('',#380);
#133=VERTEX_POINT('',#382);
#134=VERTEX_POINT('',#384);
#135=VERTEX_POINT('',#386);
#136=VERTEX_POINT('',#388);
#137=VERTEX_POINT('',#392);
#138=VERTEX_POINT('',#393);
#139=VERTEX_POINT('',#398);
#140=VERTEX_POINT('',#400);
#141=VERTEX_POINT('',#404);
#142=VERTEX_POINT('',#406);
#143=VERTEX_POINT('',#410);
#144=VERTEX_POINT('',#412);
#145=EDGE_CURVE('',#129,#130,#169,.T.);
#146=EDGE_CURVE('',#130,#131,#73,.T.);
#147=EDGE_CURVE('',#131,#132,#170,.T.);
#148=EDGE_CURVE('',#132,#133,#74,.T.);
#149=EDGE_CURVE('',#133,#134,#171,.T.);
#150=EDGE_CURVE('',#134,#135,#75,.T.);
#151=EDGE_CURVE('',#135,#136,#172,.T.);
#152=EDGE_CURVE('',#136,#129,#76,.T.);
#153=EDGE_CURVE('',#137,#138,#173,.T.);
#154=EDGE_CURVE('',#137,#130,#174,.T.);
#155=EDGE_CURVE('',#129,#138,#175,.T.);
#156=EDGE_CURVE('',#135,#139,#176,.T.);
#157=EDGE_CURVE('',#140,#139,#177,.T.);
#158=EDGE_CURVE('',#140,#136,#178,.T.);
#159=EDGE_CURVE('',#133,#141,#179,.T.);
#160=EDGE_CURVE('',#142,#141,#180,.T.);
#161=EDGE_CURVE('',#142,#134,#181,.T.);
#162=EDGE_CURVE('',#131,#143,#182,.T.);
#163=EDGE_CURVE('',#144,#143,#183,.T.);
#164=EDGE_CURVE('',#144,#132,#184,.T.);
#165=EDGE_CURVE('',#143,#137,#77,.T.);
#166=EDGE_CURVE('',#138,#140,#78,.T.);
#167=EDGE_CURVE('',#139,#142,#79,.T.);
#168=EDGE_CURVE('',#141,#144,#80,.T.);
#169=LINE('',#374,#185);
#170=LINE('',#379,#186);
#171=LINE('',#383,#187);
#172=LINE('',#387,#188);
#173=LINE('',#391,#189);
#174=LINE('',#394,#190);
#175=LINE('',#395,#191);
#176=LINE('',#397,#192);
#177=LINE('',#399,#193);
#178=LINE('',#401,#194);
#179=LINE('',#403,#195);
#180=LINE('',#405,#196);
#181=LINE('',#407,#197);
#182=LINE('',#409,#198);
#183=LINE('',#411,#199);
#184=LINE('',#413,#200);
#185=VECTOR('',#255,1.0);
#186=VECTOR('',#258,1.0);
#187=VECTOR('',#261,1.0);
#188=VECTOR('',#264,1.0);
#189=VECTOR('',#269,1.0);
#190=VECTOR('',#270,1.0);
#191=VECTOR('',#271,1.0);
#192=VECTOR('',#274,1.0);
#193=VECTOR('',#275,1.0);
#194=VECTOR('',#276,1.0);
#195=VECTOR('',#279,1.0);
#196=VECTOR('',#280,1.0);
#197=VECTOR('',#281,1.0);
#198=VECTOR('',#284,1.0);
#199=VECTOR('',#285,1.0);
#200=VECTOR('',#286,1.0);
#201=CURVE_STYLE('',#205,POSITIVE_LENGTH_MEASURE(0.18),#204);
#202=CURVE_STYLE('',#206,POSITIVE_LENGTH_MEASURE(0.18),#226);
#203=CURVE_STYLE('',#207,POSITIVE_LENGTH_MEASURE(0.18),#226);
#204=DRAUGHTING_PRE_DEFINED_COLOUR('blue');
#205=DRAUGHTING_PRE_DEFINED_CURVE_FONT('continuous');
#206=DRAUGHTING_PRE_DEFINED_CURVE_FONT('continuous');
#207=DRAUGHTING_PRE_DEFINED_CURVE_FONT('continuous');
#208=B_SPLINE_CURVE_WITH_KNOTS('CUTTING EDGE LINE',5,(#310,#311,#312,#313,#314,#315,
     #316,#317,#318,#319,#320,#321,#322,#323,#324,#325,#326,#327,#328,#329,#330,
     #331,#332,#333,#334,#335,#336,#337,#338,#339,#340,#341,#342,#343,#344,#345,
     #346,#347,#348,#349,#350,#351,#352,#353,#354,#355,#356,#357,#358,#359,#360,
     #361,#362,#363,#364,#365,#366,#367,#368,#369,#370,#371),.UNSPECIFIED.,.T.,.F.,
     (2,4,1,1,1,1,1,1,1,4,4,1,1,1,1,1,1,1,4,4,1,1,1,1,1,1,1,4,4,1,1,1,1,1,1,1,4,
     4,1,1),(-0.2302151513,0.0,0.00219831651250002,0.00439663302500004,0.00659494953749995,
     0.00879326604999997,0.0109915825625,0.013189899075,0.0153882155875,0.0175865321000001,
     0.2478016834,0.2505495790625,0.253297474725,0.2560453703875,0.25879326605,0.2615411617125,
     0.264289057375,0.2670369530375,0.2697848487,0.5,0.5021983165125,0.504396633025,
     0.5065949495375,0.50879326605,0.5109915825625,0.513189899075,0.5153882155875,
     0.5175865321,0.7478016834,0.7505495790625,0.753297474725,0.7560453703875,0.75879326605,
     0.7615411617125,0.764289057375,0.7670369530375,0.7697848487,1.0,1.0021983165125,
     1.004396633025),.UNSPECIFIED.);
#209=PRESENTATION_LAYER_ASSIGNMENT('1','Layer 1',(#208,#229,#230,#31));
#212=STYLED_ITEM('',(#218),#208);
#213=STYLED_ITEM('',(#219),#229);
#214=STYLED_ITEM('',(#220),#230);
#215=STYLED_ITEM('',(#221),#31);
#216=PRESENTATION_STYLE_ASSIGNMENT((#222));
#217=PRESENTATION_STYLE_ASSIGNMENT((#223));
#218=PRESENTATION_STYLE_ASSIGNMENT((#201));
#219=PRESENTATION_STYLE_ASSIGNMENT((#202));
#220=PRESENTATION_STYLE_ASSIGNMENT((#203));
#221=PRESENTATION_STYLE_ASSIGNMENT((#26));
#222=POINT_STYLE('',#224,POSITIVE_LENGTH_MEASURE(3.0),#226);
#223=POINT_STYLE('',#225,POSITIVE_LENGTH_MEASURE(3.0),#226);
#224=PRE_DEFINED_POINT_MARKER_SYMBOL('plus');
#225=PRE_DEFINED_POINT_MARKER_SYMBOL('plus');
#226=COLOUR_RGB('Medium Maroon',0.6,0.4,0.4);
#227=COLOUR_RGB('IsoInsertColor',0.8,0.8,0.8);
#228=AXIS2_PLACEMENT_3D('',#307,#249,#250);
#229=AXIS2_PLACEMENT_3D('PCS',#372,#251,#252);
#230=AXIS2_PLACEMENT_3D('MCS',#373,#253,#254);
#231=AXIS2_PLACEMENT_3D('',#377,#256,#257);
#232=AXIS2_PLACEMENT_3D('',#381,#259,#260);
#233=AXIS2_PLACEMENT_3D('',#385,#262,#263);
#234=AXIS2_PLACEMENT_3D('',#389,#265,#266);
#235=AXIS2_PLACEMENT_3D('',#390,#267,#268);
#236=AXIS2_PLACEMENT_3D('',#396,#272,#273);
#237=AXIS2_PLACEMENT_3D('',#402,#277,#278);
#238=AXIS2_PLACEMENT_3D('',#408,#282,#283);
#239=AXIS2_PLACEMENT_3D('',#414,#287,#288);
#240=AXIS2_PLACEMENT_3D('',#415,#289,#290);
#241=AXIS2_PLACEMENT_3D('',#416,#291,#292);
#242=AXIS2_PLACEMENT_3D('',#417,#293,#294);
#243=AXIS2_PLACEMENT_3D('',#418,#295,#296);
#244=AXIS2_PLACEMENT_3D('',#419,#297,#298);
#245=AXIS2_PLACEMENT_3D('',#420,#299,#300);
#246=AXIS2_PLACEMENT_3D('',#421,#301,#302);
#247=AXIS2_PLACEMENT_3D('',#422,#303,#304);
#248=AXIS2_PLACEMENT_3D('',#423,#305,#306);
#249=DIRECTION('',(0.0,0.0,1.0));
#250=DIRECTION('',(1.0,0.0,0.0));
#251=DIRECTION('',(0.0,0.0,1.0));
#252=DIRECTION('',(1.0,0.0,0.0));
#253=DIRECTION('',(0.0,0.0,1.0));
#254=DIRECTION('',(1.0,0.0,0.0));
#255=DIRECTION('',(1.0,7.21644966006352E-16,0.0));
#256=DIRECTION('',(0.0,0.0,-1.0));
#257=DIRECTION('',(-0.76604444311898,-0.642787609686539,0.0));
#258=DIRECTION('',(-0.173648177666928,-0.984807753012208,0.0));
#259=DIRECTION('',(0.0,0.0,-1.0));
#260=DIRECTION('',(-0.766044443118977,-0.642787609686539,0.0));
#261=DIRECTION('',(-1.0,1.16573417585641E-15,0.0));
#262=DIRECTION('',(0.0,0.0,-1.0));
#263=DIRECTION('',(-0.766044443118978,-0.642787609686539,0.0));
#264=DIRECTION('',(0.17364817766693,0.984807753012208,0.0));
#265=DIRECTION('',(0.0,0.0,-1.0));
#266=DIRECTION('',(-0.766044443118978,-0.642787609686539,0.0));
#267=DIRECTION('',(0.0,0.0,1.0));
#268=DIRECTION('',(-0.766044443118978,-0.642787609686539,0.0));
#269=DIRECTION('',(-1.0,-7.21644966006352E-16,-8.26474009869751E-17));
#270=DIRECTION('',(8.26474009869754E-17,-3.09175454316191E-16,-1.0));
#271=DIRECTION('',(-8.26474009869754E-17,3.09175454316191E-16,1.0));
#272=DIRECTION('',(-8.32667268468867E-16,1.0,-3.09175454316192E-16));
#273=DIRECTION('',(-1.0,-7.21644966006352E-16,0.0));
#274=DIRECTION('',(-8.26474009869754E-17,3.09175454316191E-16,1.0));
#275=DIRECTION('',(-0.17364817766693,-0.984807753012208,2.90126813881361E-16));
#276=DIRECTION('',(8.26474009869754E-17,-3.09175454316191E-16,-1.0));
#277=DIRECTION('',(-0.984807753012208,0.17364817766693,-1.35079555479634E-16));
#278=DIRECTION('',(-0.17364817766693,-0.984807753012208,0.0));
#279=DIRECTION('',(-8.26474009869754E-17,3.09175454316191E-16,1.0));
#280=DIRECTION('',(1.0,-1.16573417585641E-15,8.26474009869757E-17));
#281=DIRECTION('',(8.26474009869754E-17,-3.09175454316191E-16,-1.0));
#282=DIRECTION('',(-1.11022302462516E-15,-1.0,3.09175454316191E-16));
#283=DIRECTION('',(1.0,-1.16573417585641E-15,0.0));
#284=DIRECTION('',(-8.26474009869754E-17,3.09175454316191E-16,1.0));
#285=DIRECTION('',(0.173648177666928,0.984807753012208,-2.90126813881361E-16));
#286=DIRECTION('',(8.26474009869754E-17,-3.09175454316191E-16,-1.0));
#287=DIRECTION('',(0.984807753012209,-0.173648177666928,1.35079555479633E-16));
#288=DIRECTION('',(0.173648177666928,0.984807753012208,0.0));
#289=DIRECTION('',(-8.26474009869754E-17,3.09175454316191E-16,1.0));
#290=DIRECTION('',(-0.642787609686539,0.76604444311898,-2.89966864054927E-16));
#291=DIRECTION('',(-8.26474009869754E-17,3.09175454316191E-16,1.0));
#292=DIRECTION('',(-0.642787609686539,0.766044443118977,-2.89966864054927E-16));
#293=DIRECTION('',(-8.26474009869754E-17,3.09175454316191E-16,1.0));
#294=DIRECTION('',(-0.642787609686539,0.766044443118978,-2.89966864054927E-16));
#295=DIRECTION('',(-8.26474009869754E-17,3.09175454316191E-16,1.0));
#296=DIRECTION('',(-0.642787609686539,0.766044443118978,-2.89966864054927E-16));
#297=DIRECTION('',(-8.26474009869754E-17,3.09175454316191E-16,1.0));
#298=DIRECTION('',(-0.642787609686539,0.766044443118978,-2.89966864054927E-16));
#299=DIRECTION('',(-8.26474009869754E-17,3.09175454316191E-16,1.0));
#300=DIRECTION('',(-0.642787609686539,0.76604444311898,-2.89966864054927E-16));
#301=DIRECTION('',(-8.26474009869754E-17,3.09175454316191E-16,1.0));
#302=DIRECTION('',(-0.642787609686539,0.766044443118978,-2.89966864054927E-16));
#303=DIRECTION('',(-8.26474009869754E-17,3.09175454316191E-16,1.0));
#304=DIRECTION('',(-0.642787609686539,0.766044443118978,-2.89966864054927E-16));
#305=DIRECTION('',(-8.26474009869754E-17,3.09175454316191E-16,1.0));
#306=DIRECTION('',(-0.642787609686539,0.766044443118977,-2.89966864054927E-16));
#307=CARTESIAN_POINT('',(0.0,0.0,0.0));
#310=CARTESIAN_POINT('',(12.5522805879757,8.5265128291212E-14,0.0));
#311=CARTESIAN_POINT('',(15.4793727646986,8.5265128291212E-14,2.475164043999E-16));
#312=CARTESIAN_POINT('',(15.5303940312175,0.00204973987188151,2.50931919908589E-16));
#313=CARTESIAN_POINT('',(15.6113657923651,0.011628853865493,2.53879473927115E-16));
#314=CARTESIAN_POINT('',(15.717704832326,0.0386932046925317,2.52088449926135E-16));
#315=CARTESIAN_POINT('',(15.8488131566483,0.097570228984023,2.39908716665859E-16));
#316=CARTESIAN_POINT('',(15.9682961014324,0.180671468108132,2.17298738398028E-16));
#317=CARTESIAN_POINT('',(16.0708828416308,0.283908819748566,1.854209667332E-16));
#318=CARTESIAN_POINT('',(16.1516321132229,0.402801426050903,1.45618621897502E-16));
#319=CARTESIAN_POINT('',(16.1967508762516,0.502825261851261,1.1024746009502E-16));
#320=CARTESIAN_POINT('',(16.2202450607453,0.580903484315962,8.16677972948009E-17));
#321=CARTESIAN_POINT('',(16.231123410416,0.630793689558816,6.30643879133969E-17));
#322=CARTESIAN_POINT('',(16.739407632767,3.51341675897694,3.21658191485875E-17));
#323=CARTESIAN_POINT('',(17.2432619801415,6.37091675897693,2.14438794323917E-17));
#324=CARTESIAN_POINT('',(17.7471163275159,9.22841675897691,2.14438794323917E-17));
#325=CARTESIAN_POINT('',(18.2509706748903,12.0859167589769,3.21658191485877E-17));
#326=CARTESIAN_POINT('',(18.7601043416829,14.9733572672129,4.65121328738702E-17));
#327=CARTESIAN_POINT('',(18.7677960105244,15.033743807848,3.23362995371701E-17));
#328=CARTESIAN_POINT('',(18.7713797947201,15.1339521113832,9.24432857485039E-18));
#329=CARTESIAN_POINT('',(18.7541435677955,15.269305363469,-2.09073373201278E-17));
#330=CARTESIAN_POINT('',(18.6925025213141,15.4418163291543,-5.74690624435265E-17));
#331=CARTESIAN_POINT('',(18.5895001465563,15.5984427167455,-8.84503304393348E-17));
#332=CARTESIAN_POINT('',(18.4531394404023,15.7270781407654,-1.11458405810292E-16));
#333=CARTESIAN_POINT('',(18.2939531593064,15.8177389360629,-1.2470520741496E-16));
#334=CARTESIAN_POINT('',(18.1636492666534,15.8582171515369,-1.2783183216523E-16));
#335=CARTESIAN_POINT('',(18.0643410348202,15.8720888023718,-1.2633091046728E-16));
#336=CARTESIAN_POINT('',(18.0035362571476,15.875,-1.24134960824563E-16));
#337=CARTESIAN_POINT('',(15.0715523248478,15.875,-7.36224050590429E-17));
#338=CARTESIAN_POINT('',(12.1699707813843,15.875,-4.90816033726953E-17));
#339=CARTESIAN_POINT('',(9.26838923792083,15.875,-4.90816033726952E-17));
#340=CARTESIAN_POINT('',(6.36680769445734,15.875,-7.36224050590428E-17));
#341=CARTESIAN_POINT('',(3.43971551773441,15.875,-1.2951223215854E-16));
#342=CARTESIAN_POINT('',(3.38869425121554,15.8729502601282,-1.42260834649682E-16));
#343=CARTESIAN_POINT('',(3.30772249006795,15.8633711461346,-1.59814679384991E-16));
#344=CARTESIAN_POINT('',(3.20138345010705,15.8363067953076,-1.76735367538744E-16));
#345=CARTESIAN_POINT('',(3.07027512578473,15.777429771016,-1.86797175093728E-16));
#346=CARTESIAN_POINT('',(2.95079218100065,15.694328531892,-1.83500069523205E-16));
#347=CARTESIAN_POINT('',(2.84820544080216,15.5910911802515,-1.67168257016491E-16));
#348=CARTESIAN_POINT('',(2.76745616921015,15.4721985739492,-1.38380186151113E-16));
#349=CARTESIAN_POINT('',(2.72233740618136,15.3721747381488,-1.08072020966164E-16));
#350=CARTESIAN_POINT('',(2.69884322168771,15.2940965156841,-8.12843472684521E-17));
#351=CARTESIAN_POINT('',(2.68796487201704,15.2442063104413,-6.30643879133974E-17));
#352=CARTESIAN_POINT('',(2.17968064966597,12.3615832410231,-3.21658191485878E-17));
#353=CARTESIAN_POINT('',(1.67582630229153,9.50408324102315,-2.14438794323919E-17));
#354=CARTESIAN_POINT('',(1.1719719549171,6.64658324102318,-2.14438794323919E-17));
#355=CARTESIAN_POINT('',(0.668117607542667,3.7890832410232,-3.21658191485878E-17));
#356=CARTESIAN_POINT('',(0.158983940750089,0.901642732787154,-4.65121328738703E-17));
#357=CARTESIAN_POINT('',(0.151292271908602,0.841256192152059,-3.23362995371703E-17));
#358=CARTESIAN_POINT('',(0.147708487712858,0.741047888616875,-9.24432857485062E-18));
#359=CARTESIAN_POINT('',(0.1649447146375,0.605694636531123,2.09073373201275E-17));
#360=CARTESIAN_POINT('',(0.226585761118917,0.433183670845825,5.74690624435262E-17));
#361=CARTESIAN_POINT('',(0.32958813587671,0.276557283254641,8.84503304393344E-17));
#362=CARTESIAN_POINT('',(0.465948842030727,0.147921859234711,1.11458405810292E-16));
#363=CARTESIAN_POINT('',(0.625135123126594,0.0572610639372488,1.2470520741496E-16));
#364=CARTESIAN_POINT('',(0.755439015779555,0.0167828484631842,1.27831832165229E-16));
#365=CARTESIAN_POINT('',(0.854747247612817,0.00291119762829606,1.2633091046728E-16));
#366=CARTESIAN_POINT('',(0.915552025285384,9.76996261670138E-14,1.24134960824563E-16));
#367=CARTESIAN_POINT('',(3.84753595758517,9.59232693276135E-14,7.36224050590428E-17));
#368=CARTESIAN_POINT('',(6.74911750104867,9.2370555648813E-14,3.68112025295214E-17));
#369=CARTESIAN_POINT('',(9.65069904451217,8.88178419700125E-14,1.22704008431738E-17));
#370=CARTESIAN_POINT('',(12.5522805879757,8.5265128291212E-14,0.0));
#371=CARTESIAN_POINT('',(15.4793727646986,8.5265128291212E-14,2.475164043999E-16));
#372=CARTESIAN_POINT('',(0.0,0.0,0.0));
#373=CARTESIAN_POINT('',(9.45954414121654,7.9375,0.0));
#374=CARTESIAN_POINT('',(9.4595441412165,15.875,-7.9375));
#375=CARTESIAN_POINT('',(3.46522615099384,15.875,-7.9375));
#376=CARTESIAN_POINT('',(17.9731338683113,15.875,-7.9375));
#377=CARTESIAN_POINT('',(17.9731338683113,15.08125,-7.9375));
#378=CARTESIAN_POINT('',(18.7548250222648,14.9434167589769,-7.9375));
#379=CARTESIAN_POINT('',(17.2764556807509,6.5591675897688,-7.9375));
#380=CARTESIAN_POINT('',(16.2355532853926,0.655916758976956,-7.9375));
#381=CARTESIAN_POINT('',(15.4538621314392,0.793750000000078,-7.9375));
#382=CARTESIAN_POINT('',(15.4538621314392,7.97972798949331E-14,-7.9375));
#383=CARTESIAN_POINT('',(9.45954414121649,8.50014503228635E-14,-7.9375));
#384=CARTESIAN_POINT('',(0.945954414121668,9.54097911787244E-14,-7.9375));
#385=CARTESIAN_POINT('',(0.945954414121668,0.793750000000092,-7.9375));
#386=CARTESIAN_POINT('',(0.16426326016823,0.931583241023218,-7.9375));
#387=CARTESIAN_POINT('',(1.64263260168214,9.31583241023129,-7.9375));
#388=CARTESIAN_POINT('',(2.6835349970404,15.2190832410231,-7.9375));
#389=CARTESIAN_POINT('',(3.46522615099384,15.08125,-7.9375));
#390=CARTESIAN_POINT('',(9.41332282867938,7.40918798019793,-7.9375));
#391=CARTESIAN_POINT('',(9.45954414121653,15.875,-5.38749756651153E-15));
#392=CARTESIAN_POINT('',(17.9731338683113,15.875,-4.68387150249773E-15));
#393=CARTESIAN_POINT('',(3.46522615099384,15.875,-5.8829123690929E-15));
#394=CARTESIAN_POINT('',(17.9731338683113,15.875,-5.20417042793042E-15));
#395=CARTESIAN_POINT('',(3.46522615099384,15.875,-6.93889390390723E-15));
#396=CARTESIAN_POINT('',(9.4595441412165,15.875,-5.38749756651153E-15));
#397=CARTESIAN_POINT('',(0.164263260168232,0.93158324102322,-1.73472347597681E-15));
#398=CARTESIAN_POINT('',(0.164263260168232,0.93158324102322,-1.53559070728126E-15));
#399=CARTESIAN_POINT('',(1.64263260168214,9.31583241023126,-4.00561136949636E-15));
#400=CARTESIAN_POINT('',(2.6835349970404,15.2190832410231,-5.74472374939139E-15));
#401=CARTESIAN_POINT('',(2.6835349970404,15.2190832410231,-6.93889390390723E-15));
#402=CARTESIAN_POINT('',(1.64263260168214,9.31583241023129,-4.00561136949636E-15));
#403=CARTESIAN_POINT('',(15.4538621314392,8.15320033709099E-14,-9.62964972193618E-32));
#404=CARTESIAN_POINT('',(15.4538621314392,8.15320033709099E-14,1.60775733393529E-17));
#405=CARTESIAN_POINT('',(9.45954414121653,8.84708972748172E-14,-4.7933722924202E-16));
#406=CARTESIAN_POINT('',(0.945954414121668,9.71445146547012E-14,-1.18296329325583E-15));
#407=CARTESIAN_POINT('',(0.945954414121668,9.71445146547012E-14,-1.73472347597681E-15));
#408=CARTESIAN_POINT('',(9.4595441412165,8.84708972748172E-14,-4.79337229242023E-16));
#409=CARTESIAN_POINT('',(18.7548250222648,14.9434167589769,-5.20417042793042E-15));
#410=CARTESIAN_POINT('',(18.7548250222648,14.9434167589769,-4.3312440884723E-15));
#411=CARTESIAN_POINT('',(17.2764556807509,6.55916758976877,-1.86122342625718E-15));
#412=CARTESIAN_POINT('',(16.2355532853926,0.655916758976959,-1.22111046362166E-16));
#413=CARTESIAN_POINT('',(16.2355532853926,0.655916758976959,0.0));
#414=CARTESIAN_POINT('',(17.2764556807509,6.5591675897688,-1.86122342625719E-15));
#415=CARTESIAN_POINT('',(17.9731338683113,15.08125,-4.43846348563426E-15));
#416=CARTESIAN_POINT('',(3.46522615099384,15.08125,-5.63750435222943E-15));
#417=CARTESIAN_POINT('',(0.945954414121668,0.793750000000095,-1.4283713101193E-15));
#418=CARTESIAN_POINT('',(15.4538621314392,0.793750000000081,-2.29330443524124E-16));
#419=CARTESIAN_POINT('',(9.45954414121654,7.9375,-2.93341739787676E-15));
#420=CARTESIAN_POINT('',(17.9731338683113,15.08125,-5.20417042793042E-15));
#421=CARTESIAN_POINT('',(15.4538621314392,0.793750000000081,0.0));
#422=CARTESIAN_POINT('',(0.945954414121668,0.793750000000095,-1.73472347597681E-15));
#423=CARTESIAN_POINT('',(3.46522615099384,15.08125,-6.93889390390723E-15));
#424=MECHANICAL_DESIGN_GEOMETRIC_PRESENTATION_REPRESENTATION('',(#212,#213,#214,
     #215),#425);
#425=(GEOMETRIC_REPRESENTATION_CONTEXT(3)GLOBAL_UNCERTAINTY_ASSIGNED_CONTEXT((#426))
     GLOBAL_UNIT_ASSIGNED_CONTEXT((#432,#428,#427))REPRESENTATION_CONTEXT('CNGN160708',
     'TOP_LEVEL_ASSEMBLY_PART'));
#426=UNCERTAINTY_MEASURE_WITH_UNIT(LENGTH_MEASURE(2.0E-5),#432,'DISTANCE_ACCURACY_VALUE',
     'Maximum Tolerance applied to model');
#427=(NAMED_UNIT(*)SI_UNIT($,.STERADIAN.)SOLID_ANGLE_UNIT());
#428=(CONVERSION_BASED_UNIT('DEGREE',#430)NAMED_UNIT(#429)PLANE_ANGLE_UNIT());
#429=DIMENSIONAL_EXPONENTS(0.0,0.0,0.0,0.0,0.0,0.0,0.0);
#430=PLANE_ANGLE_MEASURE_WITH_UNIT(PLANE_ANGLE_MEASURE(0.0174532925),#431);
#431=(NAMED_UNIT(*)PLANE_ANGLE_UNIT()SI_UNIT($,.RADIAN.));
#432=(LENGTH_UNIT()NAMED_UNIT(*)SI_UNIT(.MILLI.,.METRE.));
#433=CONSTRUCTIVE_GEOMETRY_REPRESENTATION('supplemental geometry',(#229,#230),#425);
#434=CONSTRUCTIVE_GEOMETRY_REPRESENTATION_RELATIONSHIP('supplemental geometry','contains PCS and MCS coordinate systems',
     #24,#433);
ENDSEC;
END-ISO-10303-21;
