ISO-10303-21;
HEADER;
FILE_DESCRIPTION(('STEP'), '1');
FILE_NAME('C:\\Users\\ds2002\\OneDrive - Sandvik\\HomeShare\\Documents\\Batchrepair\\CorSRT2\\NEW_MILSQ_SLD\\Output\\MOD000000000000000020095135000000.stp', '2019-01-02T12:06:22', (''), (''), 'Express v3.0.0.0', 'Express Tool', 'Unknown');
FILE_SCHEMA(('AUTOMOTIVE_DESIGN'));
ENDSEC;

DATA;
#1 = MANIFOLD_SOLID_BREP('NOCUT', #2);
#2 = CLOSED_SHELL('', (#3, #59, #97, #107));
#3 = ADVANCED_FACE('', (#4), #40, .T.);
#4 = FACE_OUTER_BOUND('', #5, .T.);
#5 = EDGE_LOOP('', (#6, #17, #25, #34));
#6 = ORIENTED_EDGE('', *, *, #7, .T.);
#7 = EDGE_CURVE('', #8, #10, #12, .T.);
#8 = VERTEX_POINT('', #9);
#9 = CARTESIAN_POINT('', (6.35, 0., -50.7));
#10 = VERTEX_POINT('', #11);
#11 = CARTESIAN_POINT('', (-6.35, 7.77650717458569E-16, -50.7));
#12 = CIRCLE('', #13, 6.35);
#13 = AXIS2_PLACEMENT_3D('', #14, #15, #16);
#14 = CARTESIAN_POINT('', (-8.88178419700125E-16, -1.77635683940025E-15, -50.7));
#15 = DIRECTION('', (1.11896493820488E-15, 2.09791681204173E-15, 1.));
#16 = DIRECTION('', (1., 2.79741234551221E-16, -1.11896493820488E-15));
#17 = ORIENTED_EDGE('', *, *, #18, .T.);
#18 = EDGE_CURVE('', #10, #19, #21, .T.);
#19 = VERTEX_POINT('', #20);
#20 = CARTESIAN_POINT('', (-6.35, 7.77650717458569E-16, 0.));
#21 = LINE('', #22, #23);
#22 = CARTESIAN_POINT('', (-6.35, 7.77650717458569E-16, -50.7));
#23 = VECTOR('', #24, 50.7);
#24 = DIRECTION('', (0., 0., 50.7));
#25 = ORIENTED_EDGE('', *, *, #26, .F.);
#26 = EDGE_CURVE('', #27, #19, #29, .T.);
#27 = VERTEX_POINT('', #28);
#28 = CARTESIAN_POINT('', (6.35, 0., 0.));
#29 = CIRCLE('', #30, 6.35);
#30 = AXIS2_PLACEMENT_3D('', #31, #32, #33);
#31 = CARTESIAN_POINT('', (-8.88178419700125E-16, -1.77635683940025E-15, 0.));
#32 = DIRECTION('', (0., 0., 1.));
#33 = DIRECTION('', (1., 2.79741234551221E-16, 0.));
#34 = ORIENTED_EDGE('', *, *, #35, .F.);
#35 = EDGE_CURVE('', #8, #27, #36, .T.);
#36 = LINE('', #37, #38);
#37 = CARTESIAN_POINT('', (6.35, 0., -50.7));
#38 = VECTOR('', #39, 50.7);
#39 = DIRECTION('', (0., 0., 50.7));
#40 = (
   BOUNDED_SURFACE ()
   B_SPLINE_SURFACE (2, 1, ((#41, #42), (#43, #44), (#45, #46), (#47, #48), (#49, #50), (#51, #52), (#53, #54), (#55, #56), (#57, #58)), .UNSPECIFIED., .T., .F., .U.)
   B_SPLINE_SURFACE_WITH_KNOTS ((3, 2, 2, 2, 3), (2, 2), (0., 0.25, 0.5, 0.75, 1.), (0., 1.), .UNSPECIFIED.)
   GEOMETRIC_REPRESENTATION_ITEM ()
   RATIONAL_B_SPLINE_SURFACE (((1., 1.), (0.707106781186548, 0.707106781186548), (1., 1.), (0.707106781186548, 0.707106781186548), (1., 1.), (0.707106781186548, 0.707106781186548), (1., 1.), (0.707106781186548, 0.707106781186548), (1., 1.)))
   REPRESENTATION_ITEM ('')
   SURFACE ()
);
#41 = CARTESIAN_POINT('', (-6.35, 0., -55.7712));
#42 = CARTESIAN_POINT('', (-6.35, 0., 5.0712));
#43 = CARTESIAN_POINT('', (-6.35, -6.35, -55.7712));
#44 = CARTESIAN_POINT('', (-6.35, -6.35, 5.0712));
#45 = CARTESIAN_POINT('', (-1.85987086635762E-15, -6.35, -55.7712));
#46 = CARTESIAN_POINT('', (-1.85987086635762E-15, -6.35, 5.0712));
#47 = CARTESIAN_POINT('', (6.35, -6.35, -55.7712));
#48 = CARTESIAN_POINT('', (6.35, -6.35, 5.0712));
#49 = CARTESIAN_POINT('', (6.35, -3.22014137163391E-15, -55.7712));
#50 = CARTESIAN_POINT('', (6.35, -3.22014137163391E-15, 5.0712));
#51 = CARTESIAN_POINT('', (6.35, 6.35, -55.7712));
#52 = CARTESIAN_POINT('', (6.35, 6.35, 5.0712));
#53 = CARTESIAN_POINT('', (2.13792122273487E-15, 6.35, -55.7712));
#54 = CARTESIAN_POINT('', (2.13792122273487E-15, 6.35, 5.0712));
#55 = CARTESIAN_POINT('', (-6.35, 6.35, -55.7712));
#56 = CARTESIAN_POINT('', (-6.35, 6.35, 5.0712));
#57 = CARTESIAN_POINT('', (-6.35, 0., -55.7712));
#58 = CARTESIAN_POINT('', (-6.35, 0., 5.0712));
#59 = ADVANCED_FACE('', (#60), #78, .T.);
#60 = FACE_OUTER_BOUND('', #61, .T.);
#61 = EDGE_LOOP('', (#62, #63, #70, #71));
#62 = ORIENTED_EDGE('', *, *, #18, .F.);
#63 = ORIENTED_EDGE('', *, *, #64, .T.);
#64 = EDGE_CURVE('', #10, #8, #65, .T.);
#65 = CIRCLE('', #66, 6.35);
#66 = AXIS2_PLACEMENT_3D('', #67, #68, #69);
#67 = CARTESIAN_POINT('', (0., -8.88178419700125E-16, -50.7));
#68 = DIRECTION('', (-1.11896493820488E-15, -2.09791681204173E-15, 1.));
#69 = DIRECTION('', (-1., 2.62335297190346E-16, -1.11896493820488E-15));
#70 = ORIENTED_EDGE('', *, *, #35, .T.);
#71 = ORIENTED_EDGE('', *, *, #72, .F.);
#72 = EDGE_CURVE('', #19, #27, #73, .T.);
#73 = CIRCLE('', #74, 6.35);
#74 = AXIS2_PLACEMENT_3D('', #75, #76, #77);
#75 = CARTESIAN_POINT('', (0., -8.88178419700125E-16, 0.));
#76 = DIRECTION('', (0., 0., 1.));
#77 = DIRECTION('', (-1., 2.62335297190346E-16, 0.));
#78 = (
   BOUNDED_SURFACE ()
   B_SPLINE_SURFACE (2, 1, ((#79, #80), (#81, #82), (#83, #84), (#85, #86), (#87, #88), (#89, #90), (#91, #92), (#93, #94), (#95, #96)), .UNSPECIFIED., .T., .F., .U.)
   B_SPLINE_SURFACE_WITH_KNOTS ((3, 2, 2, 2, 3), (2, 2), (0., 0.25, 0.5, 0.75, 1.), (0., 1.), .UNSPECIFIED.)
   GEOMETRIC_REPRESENTATION_ITEM ()
   RATIONAL_B_SPLINE_SURFACE (((1., 1.), (0.707106781186548, 0.707106781186548), (1., 1.), (0.707106781186548, 0.707106781186548), (1., 1.), (0.707106781186548, 0.707106781186548), (1., 1.), (0.707106781186548, 0.707106781186548), (1., 1.)))
   REPRESENTATION_ITEM ('')
   SURFACE ()
);
#79 = CARTESIAN_POINT('', (-6.35, 0., -55.7712));
#80 = CARTESIAN_POINT('', (-6.35, 0., 5.0712));
#81 = CARTESIAN_POINT('', (-6.35, -6.35, -55.7712));
#82 = CARTESIAN_POINT('', (-6.35, -6.35, 5.0712));
#83 = CARTESIAN_POINT('', (-1.85987086635762E-15, -6.35, -55.7712));
#84 = CARTESIAN_POINT('', (-1.85987086635762E-15, -6.35, 5.0712));
#85 = CARTESIAN_POINT('', (6.35, -6.35, -55.7712));
#86 = CARTESIAN_POINT('', (6.35, -6.35, 5.0712));
#87 = CARTESIAN_POINT('', (6.35, -3.22014137163391E-15, -55.7712));
#88 = CARTESIAN_POINT('', (6.35, -3.22014137163391E-15, 5.0712));
#89 = CARTESIAN_POINT('', (6.35, 6.35, -55.7712));
#90 = CARTESIAN_POINT('', (6.35, 6.35, 5.0712));
#91 = CARTESIAN_POINT('', (2.13792122273487E-15, 6.35, -55.7712));
#92 = CARTESIAN_POINT('', (2.13792122273487E-15, 6.35, 5.0712));
#93 = CARTESIAN_POINT('', (-6.35, 6.35, -55.7712));
#94 = CARTESIAN_POINT('', (-6.35, 6.35, 5.0712));
#95 = CARTESIAN_POINT('', (-6.35, 0., -55.7712));
#96 = CARTESIAN_POINT('', (-6.35, 0., 5.0712));
#97 = ADVANCED_FACE('', (#98), #102, .T.);
#98 = FACE_OUTER_BOUND('', #99, .T.);
#99 = EDGE_LOOP('', (#100, #101));
#100 = ORIENTED_EDGE('', *, *, #7, .F.);
#101 = ORIENTED_EDGE('', *, *, #64, .F.);
#102 = B_SPLINE_SURFACE_WITH_KNOTS('', 1, 1, ((#103, #104), (#105, #106)), .UNSPECIFIED., .F., .F., .U., (2, 2), (2, 2), (-6.351, 6.351), (-6.351, 6.351), .UNSPECIFIED.);
#103 = CARTESIAN_POINT('', (-6.351, 6.351, -50.7));
#104 = CARTESIAN_POINT('', (-6.351, -6.351, -50.7));
#105 = CARTESIAN_POINT('', (6.351, 6.351, -50.7));
#106 = CARTESIAN_POINT('', (6.351, -6.351, -50.7));
#107 = ADVANCED_FACE('', (#108), #112, .T.);
#108 = FACE_OUTER_BOUND('', #109, .T.);
#109 = EDGE_LOOP('', (#110, #111));
#110 = ORIENTED_EDGE('', *, *, #26, .T.);
#111 = ORIENTED_EDGE('', *, *, #72, .T.);
#112 = B_SPLINE_SURFACE_WITH_KNOTS('', 1, 1, ((#113, #114), (#115, #116)), .UNSPECIFIED., .F., .F., .U., (2, 2), (2, 2), (-6.351, 6.351), (-6.351, 6.351), .UNSPECIFIED.);
#113 = CARTESIAN_POINT('', (6.351, 6.351, 0.));
#114 = CARTESIAN_POINT('', (6.351, -6.351, 0.));
#115 = CARTESIAN_POINT('', (-6.351, 6.351, 0.));
#116 = CARTESIAN_POINT('', (-6.351, -6.351, 0.));
#117 = DRAUGHTING_MODEL('', (#125, #249, #288, #293, #298, #303, #308), #322);
#118 = PRESENTATION_STYLE_ASSIGNMENT((#119));
#119 = SURFACE_STYLE_USAGE(.POSITIVE., #120);
#120 = SURFACE_SIDE_STYLE('', (#121));
#121 = SURFACE_STYLE_FILL_AREA(#122);
#122 = FILL_AREA_STYLE('', (#123));
#123 = FILL_AREA_STYLE_COLOUR('', #124);
#124 = COLOUR_RGB('', 0.50196078431373, 0.50196078431373, 0.50196078431373);
#125 = STYLED_ITEM('', (#118), #1);
#126 = MANIFOLD_SOLID_BREP('CUT', #127);
#127 = CLOSED_SHELL('', (#128, #184, #222, #232));
#128 = ADVANCED_FACE('', (#129), #165, .T.);
#129 = FACE_OUTER_BOUND('', #130, .T.);
#130 = EDGE_LOOP('', (#131, #142, #150, #159));
#131 = ORIENTED_EDGE('', *, *, #132, .F.);
#132 = EDGE_CURVE('', #133, #135, #137, .T.);
#133 = VERTEX_POINT('', #134);
#134 = CARTESIAN_POINT('', (-6.35, 7.77650717458569E-16, -82.5));
#135 = VERTEX_POINT('', #136);
#136 = CARTESIAN_POINT('', (6.35, 0., -82.5));
#137 = CIRCLE('', #138, 6.35);
#138 = AXIS2_PLACEMENT_3D('', #139, #140, #141);
#139 = CARTESIAN_POINT('', (0., -1.33226762955019E-15, -82.5));
#140 = DIRECTION('', (0., 0., -1.));
#141 = DIRECTION('', (-1., 3.32270605828151E-16, 0.));
#142 = ORIENTED_EDGE('', *, *, #143, .T.);
#143 = EDGE_CURVE('', #133, #144, #146, .T.);
#144 = VERTEX_POINT('', #145);
#145 = CARTESIAN_POINT('', (-6.35, 7.77650717458569E-16, -50.7));
#146 = LINE('', #147, #148);
#147 = CARTESIAN_POINT('', (-6.35, 7.77650717458569E-16, -82.5));
#148 = VECTOR('', #149, 31.8);
#149 = DIRECTION('', (0., 0., 31.8));
#150 = ORIENTED_EDGE('', *, *, #151, .T.);
#151 = EDGE_CURVE('', #144, #152, #154, .T.);
#152 = VERTEX_POINT('', #153);
#153 = CARTESIAN_POINT('', (6.35, 0., -50.7));
#154 = CIRCLE('', #155, 6.35);
#155 = AXIS2_PLACEMENT_3D('', #156, #157, #158);
#156 = CARTESIAN_POINT('', (-4.44089209850063E-16, -4.44089209850063E-16, -50.7));
#157 = DIRECTION('', (1.11896493820488E-15, -2.09791681204173E-15, -1.));
#158 = DIRECTION('', (-1., 1.9239998855254E-16, -1.11896493820488E-15));
#159 = ORIENTED_EDGE('', *, *, #160, .F.);
#160 = EDGE_CURVE('', #135, #152, #161, .T.);
#161 = LINE('', #162, #163);
#162 = CARTESIAN_POINT('', (6.35, 0., -82.5));
#163 = VECTOR('', #164, 31.8);
#164 = DIRECTION('', (0., 0., 31.8));
#165 = (
   BOUNDED_SURFACE ()
   B_SPLINE_SURFACE (2, 1, ((#166, #167), (#168, #169), (#170, #171), (#172, #173), (#174, #175), (#176, #177), (#178, #179), (#180, #181), (#182, #183)), .UNSPECIFIED., .T., .F., .U.)
   B_SPLINE_SURFACE_WITH_KNOTS ((3, 2, 2, 2, 3), (2, 2), (0., 0.25, 0.5, 0.75, 1.), (0., 1.), .UNSPECIFIED.)
   GEOMETRIC_REPRESENTATION_ITEM ()
   RATIONAL_B_SPLINE_SURFACE (((1., 1.), (0.707106781186548, 0.707106781186548), (1., 1.), (0.707106781186548, 0.707106781186548), (1., 1.), (0.707106781186548, 0.707106781186548), (1., 1.), (0.707106781186548, 0.707106781186548), (1., 1.)))
   REPRESENTATION_ITEM ('')
   SURFACE ()
);
#166 = CARTESIAN_POINT('', (-6.35, 0., -85.6812));
#167 = CARTESIAN_POINT('', (-6.35, 0., -47.5188));
#168 = CARTESIAN_POINT('', (-6.35, -6.35, -85.6812));
#169 = CARTESIAN_POINT('', (-6.35, -6.35, -47.5188));
#170 = CARTESIAN_POINT('', (-1.85987086635762E-15, -6.35, -85.6812));
#171 = CARTESIAN_POINT('', (-1.85987086635762E-15, -6.35, -47.5188));
#172 = CARTESIAN_POINT('', (6.35, -6.35, -85.6812));
#173 = CARTESIAN_POINT('', (6.35, -6.35, -47.5188));
#174 = CARTESIAN_POINT('', (6.35, -3.22014137163391E-15, -85.6812));
#175 = CARTESIAN_POINT('', (6.35, -3.22014137163391E-15, -47.5188));
#176 = CARTESIAN_POINT('', (6.35, 6.35, -85.6812));
#177 = CARTESIAN_POINT('', (6.35, 6.35, -47.5188));
#178 = CARTESIAN_POINT('', (2.13792122273487E-15, 6.35, -85.6812));
#179 = CARTESIAN_POINT('', (2.13792122273487E-15, 6.35, -47.5188));
#180 = CARTESIAN_POINT('', (-6.35, 6.35, -85.6812));
#181 = CARTESIAN_POINT('', (-6.35, 6.35, -47.5188));
#182 = CARTESIAN_POINT('', (-6.35, 0., -85.6812));
#183 = CARTESIAN_POINT('', (-6.35, 0., -47.5188));
#184 = ADVANCED_FACE('', (#185), #203, .T.);
#185 = FACE_OUTER_BOUND('', #186, .T.);
#186 = EDGE_LOOP('', (#187, #188, #195, #196));
#187 = ORIENTED_EDGE('', *, *, #143, .F.);
#188 = ORIENTED_EDGE('', *, *, #189, .F.);
#189 = EDGE_CURVE('', #135, #133, #190, .T.);
#190 = CIRCLE('', #191, 6.35);
#191 = AXIS2_PLACEMENT_3D('', #192, #193, #194);
#192 = CARTESIAN_POINT('', (0., -8.88178419700125E-16, -82.5));
#193 = DIRECTION('', (0., 0., -1.));
#194 = DIRECTION('', (1., 2.62335297190346E-16, 0.));
#195 = ORIENTED_EDGE('', *, *, #160, .T.);
#196 = ORIENTED_EDGE('', *, *, #197, .T.);
#197 = EDGE_CURVE('', #152, #144, #198, .T.);
#198 = CIRCLE('', #199, 6.35);
#199 = AXIS2_PLACEMENT_3D('', #200, #201, #202);
#200 = CARTESIAN_POINT('', (0., -8.88178419700125E-16, -50.7));
#201 = DIRECTION('', (-1.11896493820488E-15, 2.09791681204173E-15, -1.));
#202 = DIRECTION('', (1., 2.62335297190346E-16, -1.11896493820488E-15));
#203 = (
   BOUNDED_SURFACE ()
   B_SPLINE_SURFACE (2, 1, ((#204, #205), (#206, #207), (#208, #209), (#210, #211), (#212, #213), (#214, #215), (#216, #217), (#218, #219), (#220, #221)), .UNSPECIFIED., .T., .F., .U.)
   B_SPLINE_SURFACE_WITH_KNOTS ((3, 2, 2, 2, 3), (2, 2), (0., 0.25, 0.5, 0.75, 1.), (0., 1.), .UNSPECIFIED.)
   GEOMETRIC_REPRESENTATION_ITEM ()
   RATIONAL_B_SPLINE_SURFACE (((1., 1.), (0.707106781186548, 0.707106781186548), (1., 1.), (0.707106781186548, 0.707106781186548), (1., 1.), (0.707106781186548, 0.707106781186548), (1., 1.), (0.707106781186548, 0.707106781186548), (1., 1.)))
   REPRESENTATION_ITEM ('')
   SURFACE ()
);
#204 = CARTESIAN_POINT('', (-6.35, 0., -85.6812));
#205 = CARTESIAN_POINT('', (-6.35, 0., -47.5188));
#206 = CARTESIAN_POINT('', (-6.35, -6.35, -85.6812));
#207 = CARTESIAN_POINT('', (-6.35, -6.35, -47.5188));
#208 = CARTESIAN_POINT('', (-1.85987086635762E-15, -6.35, -85.6812));
#209 = CARTESIAN_POINT('', (-1.85987086635762E-15, -6.35, -47.5188));
#210 = CARTESIAN_POINT('', (6.35, -6.35, -85.6812));
#211 = CARTESIAN_POINT('', (6.35, -6.35, -47.5188));
#212 = CARTESIAN_POINT('', (6.35, -3.22014137163391E-15, -85.6812));
#213 = CARTESIAN_POINT('', (6.35, -3.22014137163391E-15, -47.5188));
#214 = CARTESIAN_POINT('', (6.35, 6.35, -85.6812));
#215 = CARTESIAN_POINT('', (6.35, 6.35, -47.5188));
#216 = CARTESIAN_POINT('', (2.13792122273487E-15, 6.35, -85.6812));
#217 = CARTESIAN_POINT('', (2.13792122273487E-15, 6.35, -47.5188));
#218 = CARTESIAN_POINT('', (-6.35, 6.35, -85.6812));
#219 = CARTESIAN_POINT('', (-6.35, 6.35, -47.5188));
#220 = CARTESIAN_POINT('', (-6.35, 0., -85.6812));
#221 = CARTESIAN_POINT('', (-6.35, 0., -47.5188));
#222 = ADVANCED_FACE('', (#223), #227, .T.);
#223 = FACE_OUTER_BOUND('', #224, .T.);
#224 = EDGE_LOOP('', (#225, #226));
#225 = ORIENTED_EDGE('', *, *, #189, .T.);
#226 = ORIENTED_EDGE('', *, *, #132, .T.);
#227 = B_SPLINE_SURFACE_WITH_KNOTS('', 1, 1, ((#228, #229), (#230, #231)), .UNSPECIFIED., .F., .F., .U., (2, 2), (2, 2), (-6.351, 6.351), (-6.351, 6.351), .UNSPECIFIED.);
#228 = CARTESIAN_POINT('', (-6.351, 6.351, -82.5));
#229 = CARTESIAN_POINT('', (-6.351, -6.351, -82.5));
#230 = CARTESIAN_POINT('', (6.351, 6.351, -82.5));
#231 = CARTESIAN_POINT('', (6.351, -6.351, -82.5));
#232 = ADVANCED_FACE('', (#233), #237, .T.);
#233 = FACE_OUTER_BOUND('', #234, .T.);
#234 = EDGE_LOOP('', (#235, #236));
#235 = ORIENTED_EDGE('', *, *, #197, .F.);
#236 = ORIENTED_EDGE('', *, *, #151, .F.);
#237 = B_SPLINE_SURFACE_WITH_KNOTS('', 1, 1, ((#238, #239), (#240, #241)), .UNSPECIFIED., .F., .F., .U., (2, 2), (2, 2), (-6.351, 6.351), (-6.351, 6.351), .UNSPECIFIED.);
#238 = CARTESIAN_POINT('', (6.351, 6.351, -50.7));
#239 = CARTESIAN_POINT('', (6.351, -6.351, -50.7));
#240 = CARTESIAN_POINT('', (-6.351, 6.351, -50.7));
#241 = CARTESIAN_POINT('', (-6.351, -6.351, -50.7));
#242 = PRESENTATION_STYLE_ASSIGNMENT((#243));
#243 = SURFACE_STYLE_USAGE(.POSITIVE., #244);
#244 = SURFACE_SIDE_STYLE('', (#245));
#245 = SURFACE_STYLE_FILL_AREA(#246);
#246 = FILL_AREA_STYLE('', (#247));
#247 = FILL_AREA_STYLE_COLOUR('', #248);
#248 = COLOUR_RGB('', 0.8, 0.8, 0.8);
#249 = STYLED_ITEM('', (#242), #126);
#250 = TRIMMED_CURVE('cutting part line', #251, (#255), (#256), .T., .CARTESIAN.);
#251 = LINE('', #252, #253);
#252 = CARTESIAN_POINT('', (-1.23512311489549E-15, 0., -82.5));
#253 = VECTOR('', #254, 6.35);
#254 = DIRECTION('', (6.35, 0., 0.));
#255 = CARTESIAN_POINT('', (-1.23512311489549E-15, 0., -82.5));
#256 = CARTESIAN_POINT('', (6.35, 0., -82.5));
#257 = TRIMMED_CURVE('cutting part line', #258, (#262), (#263), .T., .CARTESIAN.);
#258 = LINE('', #259, #260);
#259 = CARTESIAN_POINT('', (6.35, 0., -82.5));
#260 = VECTOR('', #261, 31.8);
#261 = DIRECTION('', (0., 0., 31.8));
#262 = CARTESIAN_POINT('', (6.35, 0., -82.5));
#263 = CARTESIAN_POINT('', (6.35, 0., -50.7));
#264 = TRIMMED_CURVE('cutting part line', #265, (#269), (#270), .T., .CARTESIAN.);
#265 = LINE('', #266, #267);
#266 = CARTESIAN_POINT('', (6.35, 0., -50.7));
#267 = VECTOR('', #268, 6.35);
#268 = DIRECTION('', (-6.35, 0., 0.));
#269 = CARTESIAN_POINT('', (6.35, 0., -50.7));
#270 = CARTESIAN_POINT('', (0., 0., -50.7));
#271 = TRIMMED_CURVE('cutting part line', #272, (#276), (#277), .T., .CARTESIAN.);
#272 = LINE('', #273, #274);
#273 = CARTESIAN_POINT('', (0., 0., -50.7));
#274 = VECTOR('', #275, 31.8);
#275 = DIRECTION('', (0., 0., -31.8));
#276 = CARTESIAN_POINT('', (0., 0., -50.7));
#277 = CARTESIAN_POINT('', (0., 0., -82.5));
#278 = COMPOSITE_CURVE('cutting part line', (#279, #280, #281, #282), .U.);
#279 = COMPOSITE_CURVE_SEGMENT(.CONTINUOUS., .T., #250);
#280 = COMPOSITE_CURVE_SEGMENT(.CONTINUOUS., .T., #257);
#281 = COMPOSITE_CURVE_SEGMENT(.CONTINUOUS., .T., #264);
#282 = COMPOSITE_CURVE_SEGMENT(.CONTINUOUS., .T., #271);
#283 = GEOMETRIC_SET('', (#278, #321));
#284 = PRESENTATION_STYLE_ASSIGNMENT((#285));
#285 = CURVE_STYLE('', #287, POSITIVE_LENGTH_MEASURE(1.E-6), #286);
#286 = COLOUR_RGB('', 0., 0., 1.);
#287 = DRAUGHTING_PRE_DEFINED_CURVE_FONT('continuous');
#288 = STYLED_ITEM('', (#284), #278);
#289 = PRESENTATION_STYLE_ASSIGNMENT((#290));
#290 = CURVE_STYLE('', #292, POSITIVE_LENGTH_MEASURE(1.E-6), #291);
#291 = COLOUR_RGB('', 0., 0., 1.);
#292 = DRAUGHTING_PRE_DEFINED_CURVE_FONT('continuous');
#293 = OVER_RIDING_STYLED_ITEM('', (#289), #250, #288);
#294 = PRESENTATION_STYLE_ASSIGNMENT((#295));
#295 = CURVE_STYLE('', #297, POSITIVE_LENGTH_MEASURE(1.E-6), #296);
#296 = COLOUR_RGB('', 0., 0., 1.);
#297 = DRAUGHTING_PRE_DEFINED_CURVE_FONT('continuous');
#298 = OVER_RIDING_STYLED_ITEM('', (#294), #257, #288);
#299 = PRESENTATION_STYLE_ASSIGNMENT((#300));
#300 = CURVE_STYLE('', #302, POSITIVE_LENGTH_MEASURE(1.E-6), #301);
#301 = COLOUR_RGB('', 0., 0., 1.);
#302 = DRAUGHTING_PRE_DEFINED_CURVE_FONT('continuous');
#303 = OVER_RIDING_STYLED_ITEM('', (#299), #264, #288);
#304 = PRESENTATION_STYLE_ASSIGNMENT((#305));
#305 = CURVE_STYLE('', #307, POSITIVE_LENGTH_MEASURE(1.E-6), #306);
#306 = COLOUR_RGB('', 0., 0., 1.);
#307 = DRAUGHTING_PRE_DEFINED_CURVE_FONT('continuous');
#308 = OVER_RIDING_STYLED_ITEM('', (#304), #271, #288);
#309 = AXIS2_PLACEMENT_3D('MCS', #310, #311, #312);
#310 = CARTESIAN_POINT('', (0., 0., -45.));
#311 = DIRECTION('', (0., 0., 1.));
#312 = DIRECTION('', (1., 0., 0.));
#313 = AXIS2_PLACEMENT_3D('PCS', #314, #315, #316);
#314 = CARTESIAN_POINT('', (0., 0., 0.));
#315 = DIRECTION('', (0., 0., 1.));
#316 = DIRECTION('', (1., 0., 0.));
#317 = AXIS2_PLACEMENT_3D('CIP', #318, #319, #320);
#318 = CARTESIAN_POINT('', (0., 0., -82.5));
#319 = DIRECTION('', (0., 0., 1.));
#320 = DIRECTION('', (1., 0., 0.));
#321 = CARTESIAN_POINT('CRP', (6.35, 0., -82.5));
#322 = (
   GEOMETRIC_REPRESENTATION_CONTEXT (3)
   GLOBAL_UNCERTAINTY_ASSIGNED_CONTEXT ((#324))
   GLOBAL_UNIT_ASSIGNED_CONTEXT ((#323, #325, #326))
   REPRESENTATION_CONTEXT ('', '3D')
);
#323 = (
   LENGTH_UNIT ()
   NAMED_UNIT (*)
   SI_UNIT (.MILLI., .METRE.)
);
#324 = UNCERTAINTY_MEASURE_WITH_UNIT(LENGTH_MEASURE(1.E-6), #323, 'DISTANCE_ACCURACY_VALUE', '');
#325 = (
   NAMED_UNIT (*)
   SI_UNIT ($, .STERADIAN.)
   SOLID_ANGLE_UNIT ()
);
#326 = (
   NAMED_UNIT (*)
   PLANE_ANGLE_UNIT ()
   SI_UNIT ($, .RADIAN.)
);
#327 = SHAPE_REPRESENTATION('', (), #322);
#328 = PRODUCT_DEFINITION_SHAPE('', '', #329);
#329 = PRODUCT_DEFINITION('', '', #332, #336);
#330 = APPLICATION_CONTEXT('configuration controlled 3D designs of mechanical parts and assemblies');
#331 = APPLICATION_PROTOCOL_DEFINITION('International Standard', 'automotive_design', 2002, #330);
#332 = PRODUCT_DEFINITION_FORMATION_WITH_SPECIFIED_SOURCE('', '', #333, .NOT_KNOWN.);
#333 = PRODUCT('2P051_1270_OA_010A_SIM', '2P051-1270-OA       O10A', '', (#334));
#334 = PRODUCT_CONTEXT('', #330, 'mechanical');
#335 = PRODUCT_RELATED_PRODUCT_CATEGORY('detail', '', (#333));
#336 = PRODUCT_DEFINITION_CONTEXT('part definition', #330, 'design');
#337 = SHAPE_DEFINITION_REPRESENTATION(#328, #327);
#338 = CONSTRUCTIVE_GEOMETRY_REPRESENTATION('supplemental geometry', (#309, #313, #317), #322);
#339 = CONSTRUCTIVE_GEOMETRY_REPRESENTATION_RELATIONSHIP('', '', #327, #338);
#340 = SHAPE_REPRESENTATION_RELATIONSHIP('', '', #327, #341);
#341 = SHAPE_REPRESENTATION('', (#283), #322);
#342 = SHAPE_REPRESENTATION_RELATIONSHIP('', '', #327, #343);
#343 = ADVANCED_BREP_SHAPE_REPRESENTATION('', (#1, #126), #322);
ENDSEC;
END-ISO-10303-21;
