ISO-10303-21;
HEADER;
/* Generated by software containing ST-Developer
 * from STEP Tools, Inc. (www.steptools.com) 
 */
/* OPTION: using custom schema-name function */

FILE_DESCRIPTION(
/* description */ (''),
/* implementation_level */ '2;1');

FILE_NAME(
/* name */ 'TOOL.STP',
/* time_stamp */ '2022-12-04T05:04:28+01:00',
/* author */ (''),
/* organization */ ('SMS'),
/* preprocessor_version */ 'ST-DEVELOPER v16.7',
/* originating_system */ 'SIEMENS PLM Software NX 12.0',
/* authorisation */ '');

FILE_SCHEMA (('AUTOMOTIVE_DESIGN { 1 0 10303 214 3 1 1 1 }'));
ENDSEC;

DATA;
#10=CONSTRUCTIVE_GEOMETRY_REPRESENTATION_RELATIONSHIP(
'supplemental geometry','',#26,#11);
#11=CONSTRUCTIVE_GEOMETRY_REPRESENTATION('supplemental geometry',(#370,
#371,#372),#647);
#12=GEOMETRICALLY_BOUNDED_WIREFRAME_SHAPE_REPRESENTATION('Tool-None',(#27),
#647);
#13=SHAPE_REPRESENTATION_RELATIONSHIP('None',
'relationship between Tool-None and Tool-None',#26,#15);
#14=SHAPE_REPRESENTATION_RELATIONSHIP('None',
'relationship between Tool-None and Tool-None',#26,#12);
#15=ADVANCED_BREP_SHAPE_REPRESENTATION('Tool-None',(#38,#39),#647);
#16=SHAPE_DEFINITION_REPRESENTATION(#17,#26);
#17=PRODUCT_DEFINITION_SHAPE('','',#18);
#18=PRODUCT_DEFINITION(' ','',#20,#19);
#19=PRODUCT_DEFINITION_CONTEXT('part definition',#25,'design');
#20=PRODUCT_DEFINITION_FORMATION_WITH_SPECIFIED_SOURCE(' ',' ',#22,
 .NOT_KNOWN.);
#21=PRODUCT_RELATED_PRODUCT_CATEGORY('part','',(#22));
#22=PRODUCT('Tool','Tool',' ',(#23));
#23=PRODUCT_CONTEXT(' ',#25,'mechanical');
#24=APPLICATION_PROTOCOL_DEFINITION('international standard',
'automotive_design',2010,#25);
#25=APPLICATION_CONTEXT(
'core data for automotive mechanical design processes');
#26=SHAPE_REPRESENTATION('Tool-None',(#369),#647);
#27=GEOMETRIC_CURVE_SET('None',(#517,#518,#519,#333));
#28=SURFACE_STYLE_USAGE(.BOTH.,#30);
#29=SURFACE_STYLE_USAGE(.BOTH.,#31);
#30=SURFACE_SIDE_STYLE('',(#32));
#31=SURFACE_SIDE_STYLE('',(#33));
#32=SURFACE_STYLE_FILL_AREA(#34);
#33=SURFACE_STYLE_FILL_AREA(#35);
#34=FILL_AREA_STYLE('',(#36));
#35=FILL_AREA_STYLE('',(#37));
#36=FILL_AREA_STYLE_COLOUR('',#367);
#37=FILL_AREA_STYLE_COLOUR('',#368);
#38=MANIFOLD_SOLID_BREP('NOCUT',#40);
#39=MANIFOLD_SOLID_BREP('CUT',#41);
#40=CLOSED_SHELL('',(#100,#101,#102,#103,#104,#105,#106,#107,#108,#109,
#110,#111,#112,#113,#114,#115,#116));
#41=CLOSED_SHELL('',(#117,#118,#119,#120,#121));
#42=PLANE('',#394);
#43=PLANE('',#396);
#44=PLANE('',#397);
#45=PLANE('',#398);
#46=PLANE('',#399);
#47=PLANE('',#400);
#48=PLANE('',#401);
#49=PLANE('',#402);
#50=PLANE('',#403);
#51=PLANE('',#404);
#52=PLANE('',#406);
#53=PLANE('',#410);
#54=FACE_OUTER_BOUND('',#158,.T.);
#55=FACE_OUTER_BOUND('',#161,.T.);
#56=FACE_OUTER_BOUND('',#162,.T.);
#57=FACE_OUTER_BOUND('',#163,.T.);
#58=FACE_OUTER_BOUND('',#164,.T.);
#59=FACE_OUTER_BOUND('',#165,.T.);
#60=FACE_OUTER_BOUND('',#166,.T.);
#61=FACE_OUTER_BOUND('',#167,.T.);
#62=FACE_OUTER_BOUND('',#168,.T.);
#63=FACE_OUTER_BOUND('',#169,.T.);
#64=FACE_OUTER_BOUND('',#170,.T.);
#65=FACE_OUTER_BOUND('',#173,.T.);
#66=TOROIDAL_SURFACE('',#393,2.24999999999999,0.5);
#67=ELLIPSE('',#383,2.3758787847868,1.68);
#68=ELLIPSE('',#384,2.3758787847868,1.68);
#69=ELLIPSE('',#385,2.3758787847868,1.68);
#70=ELLIPSE('',#386,2.3758787847868,1.68);
#71=LINE('',#588,#83);
#72=LINE('',#592,#84);
#73=LINE('',#593,#85);
#74=LINE('',#597,#86);
#75=LINE('',#598,#87);
#76=LINE('',#602,#88);
#77=LINE('',#603,#89);
#78=LINE('',#607,#90);
#79=LINE('',#620,#91);
#80=LINE('',#623,#92);
#81=LINE('',#626,#93);
#82=LINE('',#629,#94);
#83=VECTOR('',#442,1.);
#84=VECTOR('',#445,1.);
#85=VECTOR('',#446,1.);
#86=VECTOR('',#449,1.);
#87=VECTOR('',#450,1.);
#88=VECTOR('',#453,1.);
#89=VECTOR('',#454,1.);
#90=VECTOR('',#457,1.);
#91=VECTOR('',#476,1.);
#92=VECTOR('',#481,1.);
#93=VECTOR('',#486,1.);
#94=VECTOR('',#491,1.);
#95=CONICAL_SURFACE('',#381,0.679999999999999,45.);
#96=CONICAL_SURFACE('',#392,1.74999999999999,29.9999999999999);
#97=CONICAL_SURFACE('',#395,2.95,44.9999999999999);
#98=CONICAL_SURFACE('',#412,2.64246228698428,45.);
#99=CONICAL_SURFACE('',#413,1.64244596089231,14.9105721885142);
#100=ADVANCED_FACE('',(#126,#127),#122,.T.);
#101=ADVANCED_FACE('',(#128,#129),#95,.T.);
#102=ADVANCED_FACE('',(#130,#131),#123,.T.);
#103=ADVANCED_FACE('',(#132,#133),#124,.T.);
#104=ADVANCED_FACE('',(#134,#135),#96,.T.);
#105=ADVANCED_FACE('',(#136,#137),#66,.F.);
#106=ADVANCED_FACE('',(#54),#42,.F.);
#107=ADVANCED_FACE('',(#138,#139),#97,.T.);
#108=ADVANCED_FACE('',(#55),#43,.T.);
#109=ADVANCED_FACE('',(#56),#44,.T.);
#110=ADVANCED_FACE('',(#57),#45,.T.);
#111=ADVANCED_FACE('',(#58),#46,.T.);
#112=ADVANCED_FACE('',(#59),#47,.T.);
#113=ADVANCED_FACE('',(#60),#48,.T.);
#114=ADVANCED_FACE('',(#61),#49,.T.);
#115=ADVANCED_FACE('',(#62),#50,.T.);
#116=ADVANCED_FACE('',(#63),#51,.T.);
#117=ADVANCED_FACE('',(#64),#52,.T.);
#118=ADVANCED_FACE('',(#140,#141),#125,.T.);
#119=ADVANCED_FACE('',(#65),#53,.F.);
#120=ADVANCED_FACE('',(#142,#143),#98,.T.);
#121=ADVANCED_FACE('',(#144,#145),#99,.T.);
#122=CYLINDRICAL_SURFACE('',#375,2.5424622869843);
#123=CYLINDRICAL_SURFACE('',#387,1.68);
#124=CYLINDRICAL_SURFACE('',#390,1.74999999999999);
#125=CYLINDRICAL_SURFACE('',#408,2.5424622869843);
#126=FACE_BOUND('',#146,.T.);
#127=FACE_BOUND('',#147,.T.);
#128=FACE_BOUND('',#148,.T.);
#129=FACE_BOUND('',#149,.T.);
#130=FACE_BOUND('',#150,.T.);
#131=FACE_BOUND('',#151,.T.);
#132=FACE_BOUND('',#152,.T.);
#133=FACE_BOUND('',#153,.T.);
#134=FACE_BOUND('',#154,.T.);
#135=FACE_BOUND('',#155,.T.);
#136=FACE_BOUND('',#156,.T.);
#137=FACE_BOUND('',#157,.T.);
#138=FACE_BOUND('',#159,.T.);
#139=FACE_BOUND('',#160,.T.);
#140=FACE_BOUND('',#171,.T.);
#141=FACE_BOUND('',#172,.T.);
#142=FACE_BOUND('',#174,.T.);
#143=FACE_BOUND('',#175,.T.);
#144=FACE_BOUND('',#176,.T.);
#145=FACE_BOUND('',#177,.T.);
#146=EDGE_LOOP('',(#178));
#147=EDGE_LOOP('',(#179));
#148=EDGE_LOOP('',(#180));
#149=EDGE_LOOP('',(#181,#182,#183,#184,#185,#186,#187,#188));
#150=EDGE_LOOP('',(#189));
#151=EDGE_LOOP('',(#190,#191,#192,#193,#194,#195,#196,#197,#198,#199,#200,
#201,#202,#203,#204,#205));
#152=EDGE_LOOP('',(#206));
#153=EDGE_LOOP('',(#207));
#154=EDGE_LOOP('',(#208));
#155=EDGE_LOOP('',(#209));
#156=EDGE_LOOP('',(#210));
#157=EDGE_LOOP('',(#211));
#158=EDGE_LOOP('',(#212));
#159=EDGE_LOOP('',(#213));
#160=EDGE_LOOP('',(#214));
#161=EDGE_LOOP('',(#215,#216,#217,#218));
#162=EDGE_LOOP('',(#219,#220));
#163=EDGE_LOOP('',(#221,#222,#223,#224));
#164=EDGE_LOOP('',(#225,#226));
#165=EDGE_LOOP('',(#227,#228));
#166=EDGE_LOOP('',(#229,#230,#231,#232));
#167=EDGE_LOOP('',(#233,#234,#235,#236));
#168=EDGE_LOOP('',(#237,#238));
#169=EDGE_LOOP('',(#239));
#170=EDGE_LOOP('',(#240));
#171=EDGE_LOOP('',(#241));
#172=EDGE_LOOP('',(#242));
#173=EDGE_LOOP('',(#243));
#174=EDGE_LOOP('',(#244));
#175=EDGE_LOOP('',(#245));
#176=EDGE_LOOP('',(#246));
#177=EDGE_LOOP('',(#247));
#178=ORIENTED_EDGE('',*,*,#275,.T.);
#179=ORIENTED_EDGE('',*,*,#276,.T.);
#180=ORIENTED_EDGE('',*,*,#277,.F.);
#181=ORIENTED_EDGE('',*,*,#278,.T.);
#182=ORIENTED_EDGE('',*,*,#279,.T.);
#183=ORIENTED_EDGE('',*,*,#280,.T.);
#184=ORIENTED_EDGE('',*,*,#281,.T.);
#185=ORIENTED_EDGE('',*,*,#282,.T.);
#186=ORIENTED_EDGE('',*,*,#283,.T.);
#187=ORIENTED_EDGE('',*,*,#284,.T.);
#188=ORIENTED_EDGE('',*,*,#285,.T.);
#189=ORIENTED_EDGE('',*,*,#286,.F.);
#190=ORIENTED_EDGE('',*,*,#287,.F.);
#191=ORIENTED_EDGE('',*,*,#288,.F.);
#192=ORIENTED_EDGE('',*,*,#289,.F.);
#193=ORIENTED_EDGE('',*,*,#278,.F.);
#194=ORIENTED_EDGE('',*,*,#290,.F.);
#195=ORIENTED_EDGE('',*,*,#291,.F.);
#196=ORIENTED_EDGE('',*,*,#292,.F.);
#197=ORIENTED_EDGE('',*,*,#284,.F.);
#198=ORIENTED_EDGE('',*,*,#293,.F.);
#199=ORIENTED_EDGE('',*,*,#294,.F.);
#200=ORIENTED_EDGE('',*,*,#295,.F.);
#201=ORIENTED_EDGE('',*,*,#282,.F.);
#202=ORIENTED_EDGE('',*,*,#296,.F.);
#203=ORIENTED_EDGE('',*,*,#297,.F.);
#204=ORIENTED_EDGE('',*,*,#298,.F.);
#205=ORIENTED_EDGE('',*,*,#280,.F.);
#206=ORIENTED_EDGE('',*,*,#299,.T.);
#207=ORIENTED_EDGE('',*,*,#300,.T.);
#208=ORIENTED_EDGE('',*,*,#301,.T.);
#209=ORIENTED_EDGE('',*,*,#275,.F.);
#210=ORIENTED_EDGE('',*,*,#299,.F.);
#211=ORIENTED_EDGE('',*,*,#301,.F.);
#212=ORIENTED_EDGE('',*,*,#277,.T.);
#213=ORIENTED_EDGE('',*,*,#286,.T.);
#214=ORIENTED_EDGE('',*,*,#300,.F.);
#215=ORIENTED_EDGE('',*,*,#296,.T.);
#216=ORIENTED_EDGE('',*,*,#281,.F.);
#217=ORIENTED_EDGE('',*,*,#298,.T.);
#218=ORIENTED_EDGE('',*,*,#302,.F.);
#219=ORIENTED_EDGE('',*,*,#297,.T.);
#220=ORIENTED_EDGE('',*,*,#302,.T.);
#221=ORIENTED_EDGE('',*,*,#290,.T.);
#222=ORIENTED_EDGE('',*,*,#285,.F.);
#223=ORIENTED_EDGE('',*,*,#292,.T.);
#224=ORIENTED_EDGE('',*,*,#303,.F.);
#225=ORIENTED_EDGE('',*,*,#291,.T.);
#226=ORIENTED_EDGE('',*,*,#303,.T.);
#227=ORIENTED_EDGE('',*,*,#294,.T.);
#228=ORIENTED_EDGE('',*,*,#304,.T.);
#229=ORIENTED_EDGE('',*,*,#293,.T.);
#230=ORIENTED_EDGE('',*,*,#283,.F.);
#231=ORIENTED_EDGE('',*,*,#295,.T.);
#232=ORIENTED_EDGE('',*,*,#304,.F.);
#233=ORIENTED_EDGE('',*,*,#287,.T.);
#234=ORIENTED_EDGE('',*,*,#279,.F.);
#235=ORIENTED_EDGE('',*,*,#289,.T.);
#236=ORIENTED_EDGE('',*,*,#305,.F.);
#237=ORIENTED_EDGE('',*,*,#288,.T.);
#238=ORIENTED_EDGE('',*,*,#305,.T.);
#239=ORIENTED_EDGE('',*,*,#276,.F.);
#240=ORIENTED_EDGE('',*,*,#306,.F.);
#241=ORIENTED_EDGE('',*,*,#307,.T.);
#242=ORIENTED_EDGE('',*,*,#306,.T.);
#243=ORIENTED_EDGE('',*,*,#308,.T.);
#244=ORIENTED_EDGE('',*,*,#308,.F.);
#245=ORIENTED_EDGE('',*,*,#309,.F.);
#246=ORIENTED_EDGE('',*,*,#309,.T.);
#247=ORIENTED_EDGE('',*,*,#307,.F.);
#248=VERTEX_POINT('',#543);
#249=VERTEX_POINT('',#545);
#250=VERTEX_POINT('',#548);
#251=VERTEX_POINT('',#550);
#252=VERTEX_POINT('',#551);
#253=VERTEX_POINT('',#558);
#254=VERTEX_POINT('',#560);
#255=VERTEX_POINT('',#567);
#256=VERTEX_POINT('',#569);
#257=VERTEX_POINT('',#576);
#258=VERTEX_POINT('',#578);
#259=VERTEX_POINT('',#587);
#260=VERTEX_POINT('',#589);
#261=VERTEX_POINT('',#591);
#262=VERTEX_POINT('',#594);
#263=VERTEX_POINT('',#596);
#264=VERTEX_POINT('',#599);
#265=VERTEX_POINT('',#601);
#266=VERTEX_POINT('',#604);
#267=VERTEX_POINT('',#606);
#268=VERTEX_POINT('',#610);
#269=VERTEX_POINT('',#612);
#270=VERTEX_POINT('',#615);
#271=VERTEX_POINT('',#634);
#272=VERTEX_POINT('',#637);
#273=VERTEX_POINT('',#640);
#274=VERTEX_POINT('',#643);
#275=EDGE_CURVE('',#248,#248,#310,.T.);
#276=EDGE_CURVE('',#249,#249,#311,.T.);
#277=EDGE_CURVE('',#250,#250,#312,.T.);
#278=EDGE_CURVE('',#251,#252,#313,.T.);
#279=EDGE_CURVE('',#252,#253,#334,.T.);
#280=EDGE_CURVE('',#253,#254,#314,.T.);
#281=EDGE_CURVE('',#254,#255,#335,.T.);
#282=EDGE_CURVE('',#255,#256,#315,.T.);
#283=EDGE_CURVE('',#256,#257,#336,.T.);
#284=EDGE_CURVE('',#257,#258,#316,.T.);
#285=EDGE_CURVE('',#258,#251,#337,.T.);
#286=EDGE_CURVE('',#259,#259,#317,.T.);
#287=EDGE_CURVE('',#260,#253,#71,.T.);
#288=EDGE_CURVE('',#261,#260,#67,.T.);
#289=EDGE_CURVE('',#252,#261,#72,.T.);
#290=EDGE_CURVE('',#262,#251,#73,.T.);
#291=EDGE_CURVE('',#263,#262,#68,.T.);
#292=EDGE_CURVE('',#258,#263,#74,.T.);
#293=EDGE_CURVE('',#264,#257,#75,.T.);
#294=EDGE_CURVE('',#265,#264,#69,.T.);
#295=EDGE_CURVE('',#256,#265,#76,.T.);
#296=EDGE_CURVE('',#266,#255,#77,.T.);
#297=EDGE_CURVE('',#267,#266,#70,.T.);
#298=EDGE_CURVE('',#254,#267,#78,.T.);
#299=EDGE_CURVE('',#268,#268,#318,.T.);
#300=EDGE_CURVE('',#269,#269,#319,.T.);
#301=EDGE_CURVE('',#270,#270,#320,.T.);
#302=EDGE_CURVE('',#266,#267,#79,.T.);
#303=EDGE_CURVE('',#262,#263,#80,.T.);
#304=EDGE_CURVE('',#264,#265,#81,.T.);
#305=EDGE_CURVE('',#260,#261,#82,.T.);
#306=EDGE_CURVE('',#271,#271,#321,.T.);
#307=EDGE_CURVE('',#272,#272,#322,.T.);
#308=EDGE_CURVE('',#273,#273,#323,.T.);
#309=EDGE_CURVE('',#274,#274,#324,.T.);
#310=CIRCLE('',#373,2.5424622869843);
#311=CIRCLE('',#374,2.5424622869843);
#312=CIRCLE('',#376,0.679999999999999);
#313=CIRCLE('',#377,1.68);
#314=CIRCLE('',#378,1.68);
#315=CIRCLE('',#379,1.68);
#316=CIRCLE('',#380,1.68);
#317=CIRCLE('',#382,1.68);
#318=CIRCLE('',#388,1.74999999999999);
#319=CIRCLE('',#389,1.75);
#320=CIRCLE('',#391,1.81698729810777);
#321=CIRCLE('',#405,2.5424622869843);
#322=CIRCLE('',#407,2.5424622869843);
#323=CIRCLE('',#409,1.87499999999999);
#324=CIRCLE('',#411,2.2475824395992);
#325=CURVE_STYLE('',#329,POSITIVE_LENGTH_MEASURE(0.18),#339);
#326=CURVE_STYLE('',#330,POSITIVE_LENGTH_MEASURE(0.13),#366);
#327=CURVE_STYLE('',#331,POSITIVE_LENGTH_MEASURE(0.18),#365);
#328=CURVE_STYLE('',#332,POSITIVE_LENGTH_MEASURE(0.18),#365);
#329=DRAUGHTING_PRE_DEFINED_CURVE_FONT('continuous');
#330=DRAUGHTING_PRE_DEFINED_CURVE_FONT('continuous');
#331=DRAUGHTING_PRE_DEFINED_CURVE_FONT('continuous');
#332=DRAUGHTING_PRE_DEFINED_CURVE_FONT('continuous');
#333=B_SPLINE_CURVE_WITH_KNOTS('CUTTING PART LINE',3,(#520,#521,#522,#523,
#524,#525,#526,#527,#528,#529,#530,#531,#532,#533,#534,#535,#536,#537,#538),
 .UNSPECIFIED.,.T.,.F.,(4,3,3,3,3,3,4),(0.,0.12217280329833,0.511401666909464,
0.60150094088983,0.626820573469888,0.681889496649689,1.),.UNSPECIFIED.);
#334=B_SPLINE_CURVE_WITH_KNOTS('',3,(#552,#553,#554,#555,#556,#557),
 .UNSPECIFIED.,.F.,.F.,(4,2,4),(0.,0.5,1.),.UNSPECIFIED.);
#335=B_SPLINE_CURVE_WITH_KNOTS('',3,(#561,#562,#563,#564,#565,#566),
 .UNSPECIFIED.,.F.,.F.,(4,2,4),(0.,0.5,1.),.UNSPECIFIED.);
#336=B_SPLINE_CURVE_WITH_KNOTS('',3,(#570,#571,#572,#573,#574,#575),
 .UNSPECIFIED.,.F.,.F.,(4,2,4),(0.,0.5,1.),.UNSPECIFIED.);
#337=B_SPLINE_CURVE_WITH_KNOTS('',3,(#579,#580,#581,#582,#583,#584),
 .UNSPECIFIED.,.F.,.F.,(4,2,4),(0.,0.5,1.),.UNSPECIFIED.);
#338=DRAUGHTING_PRE_DEFINED_COLOUR('white');
#339=DRAUGHTING_PRE_DEFINED_COLOUR('blue');
#340=PRESENTATION_LAYER_ASSIGNMENT('1','Layer 1',(#517,#518,#519,#333,#370,
#371,#372,#38,#39));
#341=STYLED_ITEM('',(#350),#517);
#342=STYLED_ITEM('',(#351),#518);
#343=STYLED_ITEM('',(#352),#519);
#344=STYLED_ITEM('',(#353),#333);
#345=STYLED_ITEM('',(#354),#370);
#346=STYLED_ITEM('',(#355),#371);
#347=STYLED_ITEM('',(#356),#372);
#348=STYLED_ITEM('',(#357),#38);
#349=STYLED_ITEM('',(#358),#39);
#350=PRESENTATION_STYLE_ASSIGNMENT((#359));
#351=PRESENTATION_STYLE_ASSIGNMENT((#360));
#352=PRESENTATION_STYLE_ASSIGNMENT((#361));
#353=PRESENTATION_STYLE_ASSIGNMENT((#325));
#354=PRESENTATION_STYLE_ASSIGNMENT((#326));
#355=PRESENTATION_STYLE_ASSIGNMENT((#327));
#356=PRESENTATION_STYLE_ASSIGNMENT((#328));
#357=PRESENTATION_STYLE_ASSIGNMENT((#28));
#358=PRESENTATION_STYLE_ASSIGNMENT((#29));
#359=POINT_STYLE('',#362,POSITIVE_LENGTH_MEASURE(3.),#365);
#360=POINT_STYLE('',#363,POSITIVE_LENGTH_MEASURE(3.),#338);
#361=POINT_STYLE('',#364,POSITIVE_LENGTH_MEASURE(3.),#365);
#362=PRE_DEFINED_POINT_MARKER_SYMBOL('plus');
#363=PRE_DEFINED_POINT_MARKER_SYMBOL('plus');
#364=PRE_DEFINED_POINT_MARKER_SYMBOL('plus');
#365=COLOUR_RGB('Medium Maroon',0.6,0.4,0.4);
#366=COLOUR_RGB('Silver Gray',0.6,0.6,0.6);
#367=COLOUR_RGB('TLS_NOCUT',0.498023956664378,0.498023956664378,0.498023956664378);
#368=COLOUR_RGB('TLS_CUT',0.8,0.8,0.8);
#369=AXIS2_PLACEMENT_3D('',#516,#414,#415);
#370=AXIS2_PLACEMENT_3D('PCS',#539,#416,#417);
#371=AXIS2_PLACEMENT_3D('MCS',#540,#418,#419);
#372=AXIS2_PLACEMENT_3D('CIP',#541,#420,#421);
#373=AXIS2_PLACEMENT_3D('',#542,#422,#423);
#374=AXIS2_PLACEMENT_3D('',#544,#424,#425);
#375=AXIS2_PLACEMENT_3D('',#546,#426,#427);
#376=AXIS2_PLACEMENT_3D('',#547,#428,#429);
#377=AXIS2_PLACEMENT_3D('',#549,#430,#431);
#378=AXIS2_PLACEMENT_3D('',#559,#432,#433);
#379=AXIS2_PLACEMENT_3D('',#568,#434,#435);
#380=AXIS2_PLACEMENT_3D('',#577,#436,#437);
#381=AXIS2_PLACEMENT_3D('',#585,#438,#439);
#382=AXIS2_PLACEMENT_3D('',#586,#440,#441);
#383=AXIS2_PLACEMENT_3D('',#590,#443,#444);
#384=AXIS2_PLACEMENT_3D('',#595,#447,#448);
#385=AXIS2_PLACEMENT_3D('',#600,#451,#452);
#386=AXIS2_PLACEMENT_3D('',#605,#455,#456);
#387=AXIS2_PLACEMENT_3D('',#608,#458,#459);
#388=AXIS2_PLACEMENT_3D('',#609,#460,#461);
#389=AXIS2_PLACEMENT_3D('',#611,#462,#463);
#390=AXIS2_PLACEMENT_3D('',#613,#464,#465);
#391=AXIS2_PLACEMENT_3D('',#614,#466,#467);
#392=AXIS2_PLACEMENT_3D('',#616,#468,#469);
#393=AXIS2_PLACEMENT_3D('',#617,#470,#471);
#394=AXIS2_PLACEMENT_3D('',#618,#472,#473);
#395=AXIS2_PLACEMENT_3D('',#619,#474,#475);
#396=AXIS2_PLACEMENT_3D('',#621,#477,#478);
#397=AXIS2_PLACEMENT_3D('',#622,#479,#480);
#398=AXIS2_PLACEMENT_3D('',#624,#482,#483);
#399=AXIS2_PLACEMENT_3D('',#625,#484,#485);
#400=AXIS2_PLACEMENT_3D('',#627,#487,#488);
#401=AXIS2_PLACEMENT_3D('',#628,#489,#490);
#402=AXIS2_PLACEMENT_3D('',#630,#492,#493);
#403=AXIS2_PLACEMENT_3D('',#631,#494,#495);
#404=AXIS2_PLACEMENT_3D('',#632,#496,#497);
#405=AXIS2_PLACEMENT_3D('',#633,#498,#499);
#406=AXIS2_PLACEMENT_3D('',#635,#500,#501);
#407=AXIS2_PLACEMENT_3D('',#636,#502,#503);
#408=AXIS2_PLACEMENT_3D('',#638,#504,#505);
#409=AXIS2_PLACEMENT_3D('',#639,#506,#507);
#410=AXIS2_PLACEMENT_3D('',#641,#508,#509);
#411=AXIS2_PLACEMENT_3D('',#642,#510,#511);
#412=AXIS2_PLACEMENT_3D('',#644,#512,#513);
#413=AXIS2_PLACEMENT_3D('',#645,#514,#515);
#414=DIRECTION('',(0.,0.,1.));
#415=DIRECTION('',(1.,0.,0.));
#416=DIRECTION('',(0.,0.,1.));
#417=DIRECTION('',(1.,0.,0.));
#418=DIRECTION('',(0.,0.,1.));
#419=DIRECTION('',(1.,0.,0.));
#420=DIRECTION('',(0.,0.,1.));
#421=DIRECTION('',(1.,0.,0.));
#422=DIRECTION('',(0.,0.,-1.));
#423=DIRECTION('',(-1.,0.,0.));
#424=DIRECTION('',(0.,0.,1.));
#425=DIRECTION('',(-1.,0.,0.));
#426=DIRECTION('',(0.,0.,1.));
#427=DIRECTION('',(1.,0.,0.));
#428=DIRECTION('',(0.,0.,1.));
#429=DIRECTION('',(1.,0.,0.));
#430=DIRECTION('',(0.,0.,1.));
#431=DIRECTION('',(-1.,0.,0.));
#432=DIRECTION('',(0.,0.,1.));
#433=DIRECTION('',(-1.,0.,0.));
#434=DIRECTION('',(0.,0.,1.));
#435=DIRECTION('',(-1.,0.,0.));
#436=DIRECTION('',(0.,0.,1.));
#437=DIRECTION('',(-1.,0.,0.));
#438=DIRECTION('',(0.,0.,-1.));
#439=DIRECTION('',(-1.,0.,0.));
#440=DIRECTION('',(0.,0.,-1.));
#441=DIRECTION('',(1.,0.,0.));
#442=DIRECTION('',(0.,0.,1.));
#443=DIRECTION('',(0.707106781186547,0.,0.707106781186548));
#444=DIRECTION('',(-0.707106781186548,0.,0.707106781186547));
#445=DIRECTION('',(0.,0.,-1.));
#446=DIRECTION('',(0.,0.,1.));
#447=DIRECTION('',(-2.64204134232936E-15,-0.707106781186547,0.707106781186548));
#448=DIRECTION('',(2.64204134232936E-15,0.707106781186548,0.707106781186547));
#449=DIRECTION('',(0.,0.,-1.));
#450=DIRECTION('',(0.,0.,1.));
#451=DIRECTION('',(-0.707106781186547,1.65668806430732E-15,0.707106781186548));
#452=DIRECTION('',(0.707106781186548,-1.65668806430732E-15,0.707106781186547));
#453=DIRECTION('',(0.,0.,-1.));
#454=DIRECTION('',(0.,0.,1.));
#455=DIRECTION('',(8.28344032153662E-16,0.707106781186547,0.707106781186548));
#456=DIRECTION('',(-8.28344032153662E-16,-0.707106781186548,0.707106781186547));
#457=DIRECTION('',(0.,0.,-1.));
#458=DIRECTION('',(0.,0.,1.));
#459=DIRECTION('',(1.,0.,0.));
#460=DIRECTION('',(-6.23283459791829E-17,0.,1.));
#461=DIRECTION('',(-1.,0.,0.));
#462=DIRECTION('',(0.,0.,-1.));
#463=DIRECTION('',(-1.,0.,0.));
#464=DIRECTION('',(6.23283459791829E-17,0.,-1.));
#465=DIRECTION('',(-1.,0.,0.));
#466=DIRECTION('',(6.23283459791829E-17,0.,-1.));
#467=DIRECTION('',(-1.,0.,0.));
#468=DIRECTION('',(6.23283459791829E-17,0.,-1.));
#469=DIRECTION('',(-1.,0.,1.55768569883459E-16));
#470=DIRECTION('',(6.23283459791829E-17,0.,-1.));
#471=DIRECTION('',(-1.,0.,0.));
#472=DIRECTION('',(1.802525102913E-16,0.,-1.));
#473=DIRECTION('',(-1.,0.,-1.802525102913E-16));
#474=DIRECTION('',(0.,0.,-1.));
#475=DIRECTION('',(-1.,0.,-3.4592421875005E-17));
#476=DIRECTION('',(1.,-1.17145536458252E-15,0.));
#477=DIRECTION('',(1.17145536458252E-15,1.,0.));
#478=DIRECTION('',(0.,0.,-1.));
#479=DIRECTION('',(8.28344032153662E-16,0.707106781186547,0.707106781186548));
#480=DIRECTION('',(8.28330459778925E-16,0.707106781186548,-0.707106781186547));
#481=DIRECTION('',(-1.,3.7364106986726E-15,0.));
#482=DIRECTION('',(-3.7364106986726E-15,-1.,0.));
#483=DIRECTION('',(0.,0.,-1.));
#484=DIRECTION('',(-2.64204134232936E-15,-0.707106781186547,0.707106781186548));
#485=DIRECTION('',(-2.64198385391268E-15,-0.707106781186548,-0.707106781186547));
#486=DIRECTION('',(2.34291072916505E-15,1.,0.));
#487=DIRECTION('',(-0.707106781186547,1.65668806430732E-15,0.707106781186548));
#488=DIRECTION('',(-0.707106781186548,1.65666091955785E-15,-0.707106781186547));
#489=DIRECTION('',(-1.,2.34291072916505E-15,0.));
#490=DIRECTION('',(0.,0.,-1.));
#491=DIRECTION('',(0.,-1.,0.));
#492=DIRECTION('',(1.,0.,0.));
#493=DIRECTION('',(0.,0.,-1.));
#494=DIRECTION('',(0.707106781186547,0.,0.707106781186548));
#495=DIRECTION('',(0.707106781186548,0.,-0.707106781186547));
#496=DIRECTION('',(0.,0.,-1.));
#497=DIRECTION('',(-1.,0.,0.));
#498=DIRECTION('',(0.,0.,-1.));
#499=DIRECTION('',(1.,0.,0.));
#500=DIRECTION('',(0.,0.,1.));
#501=DIRECTION('',(1.,0.,0.));
#502=DIRECTION('',(0.,0.,1.));
#503=DIRECTION('',(1.,0.,0.));
#504=DIRECTION('',(0.,0.,1.));
#505=DIRECTION('',(1.,0.,0.));
#506=DIRECTION('',(9.06853497640132E-17,0.,-1.));
#507=DIRECTION('',(1.,0.,0.));
#508=DIRECTION('',(-9.06853497640132E-17,0.,1.));
#509=DIRECTION('',(1.,0.,9.71445146547012E-17));
#510=DIRECTION('',(0.,0.,1.));
#511=DIRECTION('',(-1.,0.,0.));
#512=DIRECTION('',(-5.67198665663634E-16,0.,1.));
#513=DIRECTION('',(1.,0.,5.25966091136887E-16));
#514=DIRECTION('',(0.,0.,1.));
#515=DIRECTION('',(1.,0.,-2.07193423309531E-16));
#516=CARTESIAN_POINT('',(0.,0.,0.));
#517=CARTESIAN_POINT('',(0.,0.,-21.));
#518=CARTESIAN_POINT('CRP',(-2.5424622869843,0.,-70.));
#519=CARTESIAN_POINT('CIP_DCSYS',(0.,0.,-70.));
#520=CARTESIAN_POINT('',(-2.5424622869843,0.,-62.));
#521=CARTESIAN_POINT('',(-1.69497485798954,0.,-62.));
#522=CARTESIAN_POINT('',(-0.847487428994768,0.,-62.));
#523=CARTESIAN_POINT('',(0.,0.,-62.));
#524=CARTESIAN_POINT('',(0.,0.,-64.7));
#525=CARTESIAN_POINT('',(0.,0.,-67.4));
#526=CARTESIAN_POINT('',(0.,0.,-70.1));
#527=CARTESIAN_POINT('',(-0.62499999999999,0.,-70.1));
#528=CARTESIAN_POINT('',(-1.24999999999998,0.,-70.1));
#529=CARTESIAN_POINT('',(-1.87499999999997,0.,-70.1));
#530=CARTESIAN_POINT('',(-1.99919414653304,0.,-69.9758058534669));
#531=CARTESIAN_POINT('',(-2.12338829306611,0.,-69.8516117069339));
#532=CARTESIAN_POINT('',(-2.24758243959918,0.,-69.7274175604008));
#533=CARTESIAN_POINT('',(-2.3458757220609,0.,-69.3582783736005));
#534=CARTESIAN_POINT('',(-2.4441690045226,0.,-68.9891391868003));
#535=CARTESIAN_POINT('',(-2.5424622869843,0.,-68.62));
#536=CARTESIAN_POINT('',(-2.5424622869843,0.,-66.4133333333334));
#537=CARTESIAN_POINT('',(-2.5424622869843,0.,-64.2066666666667));
#538=CARTESIAN_POINT('',(-2.5424622869843,0.,-62.));
#539=CARTESIAN_POINT('',(0.,0.,0.));
#540=CARTESIAN_POINT('',(0.,0.,-21.));
#541=CARTESIAN_POINT('',(0.,0.,-70.));
#542=CARTESIAN_POINT('',(0.,0.,-61.8267949192431));
#543=CARTESIAN_POINT('',(-2.5424622869843,0.,-61.8267949192431));
#544=CARTESIAN_POINT('',(0.,0.,-62.));
#545=CARTESIAN_POINT('',(-2.5424622869843,0.,-62.));
#546=CARTESIAN_POINT('',(0.,0.,20.9080749503476));
#547=CARTESIAN_POINT('',(0.,0.,0.));
#548=CARTESIAN_POINT('',(0.679999999999999,0.,0.));
#549=CARTESIAN_POINT('',(0.,0.,-1.));
#550=CARTESIAN_POINT('',(0.999949998749981,-1.35,-1.));
#551=CARTESIAN_POINT('',(1.35,-0.999949998749937,-1.));
#552=CARTESIAN_POINT('',(1.35,-0.999949998749938,-1.));
#553=CARTESIAN_POINT('',(1.35,-0.694533467351078,-0.818213535600892));
#554=CARTESIAN_POINT('',(1.35,-0.354132132618923,-0.670038422894565));
#555=CARTESIAN_POINT('',(1.35,0.353839125377596,-0.669961593004186));
#556=CARTESIAN_POINT('',(1.35,0.696069855065417,-0.819128006370556));
#557=CARTESIAN_POINT('',(1.35,0.999949998749937,-1.));
#558=CARTESIAN_POINT('',(1.35,0.999949998749937,-1.));
#559=CARTESIAN_POINT('',(0.,0.,-1.));
#560=CARTESIAN_POINT('',(0.999949998749938,1.35,-1.));
#561=CARTESIAN_POINT('',(0.999949998749939,1.35,-0.999999999999999));
#562=CARTESIAN_POINT('',(0.694533467351079,1.35,-0.818213535600892));
#563=CARTESIAN_POINT('',(0.354132132618924,1.35,-0.670038422894565));
#564=CARTESIAN_POINT('',(-0.353839125377595,1.35,-0.669961593004186));
#565=CARTESIAN_POINT('',(-0.696069855065416,1.35,-0.819128006370556));
#566=CARTESIAN_POINT('',(-0.999949998749936,1.35,-1.));
#567=CARTESIAN_POINT('',(-0.999949998749935,1.35,-1.));
#568=CARTESIAN_POINT('',(0.,0.,-1.));
#569=CARTESIAN_POINT('',(-1.35,0.99994999874994,-1.));
#570=CARTESIAN_POINT('',(-1.35,0.99994999874994,-1.));
#571=CARTESIAN_POINT('',(-1.35,0.696069855065414,-0.819128006370552));
#572=CARTESIAN_POINT('',(-1.35,0.353839125377586,-0.669961593004181));
#573=CARTESIAN_POINT('',(-1.35,-0.354132132618947,-0.67003842289457));
#574=CARTESIAN_POINT('',(-1.35,-0.694533467351106,-0.818213535600907));
#575=CARTESIAN_POINT('',(-1.35,-0.99994999874997,-1.00000000000002));
#576=CARTESIAN_POINT('',(-1.35,-0.999949998749982,-1.));
#577=CARTESIAN_POINT('',(0.,0.,-1.));
#578=CARTESIAN_POINT('',(-0.999949998749942,-1.35,-1.));
#579=CARTESIAN_POINT('',(-0.999949998749942,-1.35,-1.));
#580=CARTESIAN_POINT('',(-0.696069855065417,-1.35,-0.819128006370552));
#581=CARTESIAN_POINT('',(-0.353839125377588,-1.35,-0.66996159300418));
#582=CARTESIAN_POINT('',(0.354132132618944,-1.35,-0.67003842289457));
#583=CARTESIAN_POINT('',(0.694533467351104,-1.35,-0.818213535600907));
#584=CARTESIAN_POINT('',(0.999949998749968,-1.35,-1.00000000000002));
#585=CARTESIAN_POINT('',(0.,0.,0.));
#586=CARTESIAN_POINT('',(0.,0.,-6.6));
#587=CARTESIAN_POINT('',(1.68,0.,-6.6));
#588=CARTESIAN_POINT('',(1.35,0.999949998749937,20.9080749503476));
#589=CARTESIAN_POINT('',(1.35,0.999949998749935,-6.));
#590=CARTESIAN_POINT('',(0.,0.,-4.65));
#591=CARTESIAN_POINT('',(1.35,-0.999949998749935,-6.));
#592=CARTESIAN_POINT('',(1.35,-0.999949998749937,20.9080749503476));
#593=CARTESIAN_POINT('',(0.999949998749932,-1.35,20.9080749503476));
#594=CARTESIAN_POINT('',(0.999949998749932,-1.35,-6.));
#595=CARTESIAN_POINT('',(0.,0.,-4.65));
#596=CARTESIAN_POINT('',(-0.999949998749942,-1.35,-6.));
#597=CARTESIAN_POINT('',(-0.999949998749942,-1.35,20.9080749503476));
#598=CARTESIAN_POINT('',(-1.35,-0.999949998749933,20.9080749503476));
#599=CARTESIAN_POINT('',(-1.35,-0.999949998749932,-6.));
#600=CARTESIAN_POINT('',(0.,0.,-4.65));
#601=CARTESIAN_POINT('',(-1.35,0.999949998749939,-6.));
#602=CARTESIAN_POINT('',(-1.35,0.99994999874994,20.9080749503476));
#603=CARTESIAN_POINT('',(-0.999949998749935,1.35,20.9080749503476));
#604=CARTESIAN_POINT('',(-0.999949998749935,1.35,-6.));
#605=CARTESIAN_POINT('',(0.,0.,-4.65));
#606=CARTESIAN_POINT('',(0.999949998749938,1.35,-6.));
#607=CARTESIAN_POINT('',(0.999949998749938,1.35,20.9080749503476));
#608=CARTESIAN_POINT('',(0.,0.,20.9080749503476));
#609=CARTESIAN_POINT('',(6.4434087970364E-15,0.,-60.3202353788885));
#610=CARTESIAN_POINT('',(-1.74999999999999,0.,-60.3202353788885));
#611=CARTESIAN_POINT('',(0.,0.,-6.67));
#612=CARTESIAN_POINT('',(-1.75,0.,-6.67));
#613=CARTESIAN_POINT('',(6.43929354282591E-15,0.,-60.2542099751041));
#614=CARTESIAN_POINT('',(6.45899088353119E-15,0.,-60.5702353788885));
#615=CARTESIAN_POINT('',(-1.81698729810777,0.,-60.5702353788885));
#616=CARTESIAN_POINT('',(6.45175921202174E-15,0.,-60.4542099751041));
#617=CARTESIAN_POINT('',(6.4434087970364E-15,0.,-60.3202353788885));
#618=CARTESIAN_POINT('',(1.95,0.,1.75746197534018E-16));
#619=CARTESIAN_POINT('',(0.,0.,-7.87000000000001));
#620=CARTESIAN_POINT('',(4.05,1.35,-6.));
#621=CARTESIAN_POINT('',(4.05,1.35,10.));
#622=CARTESIAN_POINT('',(4.05,1.35,-6.));
#623=CARTESIAN_POINT('',(-4.05000000000001,-1.34999999999998,-6.));
#624=CARTESIAN_POINT('',(-4.05000000000001,-1.34999999999998,10.));
#625=CARTESIAN_POINT('',(-4.05000000000001,-1.34999999999998,-6.));
#626=CARTESIAN_POINT('',(-1.34999999999999,4.05,-6.));
#627=CARTESIAN_POINT('',(-1.34999999999999,4.05,-6.));
#628=CARTESIAN_POINT('',(-1.34999999999999,4.05,10.));
#629=CARTESIAN_POINT('',(1.35,-4.05,-6.));
#630=CARTESIAN_POINT('',(1.35,-4.05,10.));
#631=CARTESIAN_POINT('',(1.35,-4.05,-6.));
#632=CARTESIAN_POINT('',(0.,0.,-62.));
#633=CARTESIAN_POINT('',(0.,0.,-62.));
#634=CARTESIAN_POINT('',(2.5424622869843,0.,-62.));
#635=CARTESIAN_POINT('',(0.,0.,-62.));
#636=CARTESIAN_POINT('',(0.,0.,-68.62));
#637=CARTESIAN_POINT('',(2.5424622869843,0.,-68.62));
#638=CARTESIAN_POINT('',(0.,0.,20.9080749503476));
#639=CARTESIAN_POINT('',(2.05813684972917E-14,0.,-70.1));
#640=CARTESIAN_POINT('',(1.87500000000001,0.,-70.1));
#641=CARTESIAN_POINT('',(10.5,0.,-70.1));
#642=CARTESIAN_POINT('',(2.02079897657871E-14,0.,-69.7274175604008));
#643=CARTESIAN_POINT('',(-2.24758243959917,0.,-69.7274175604008));
#644=CARTESIAN_POINT('',(1.99840144432528E-14,0.,-69.3325377130157));
#645=CARTESIAN_POINT('',(0.,0.,-72.));
#646=MECHANICAL_DESIGN_GEOMETRIC_PRESENTATION_REPRESENTATION('',(#341,#342,
#343,#344,#345,#346,#347,#348,#349),#647);
#647=(
GEOMETRIC_REPRESENTATION_CONTEXT(3)
GLOBAL_UNCERTAINTY_ASSIGNED_CONTEXT((#648))
GLOBAL_UNIT_ASSIGNED_CONTEXT((#654,#650,#649))
REPRESENTATION_CONTEXT('TOOL','TOP_LEVEL_ASSEMBLY_PART')
);
#648=UNCERTAINTY_MEASURE_WITH_UNIT(LENGTH_MEASURE(0.0508),#654,
'DISTANCE_ACCURACY_VALUE','Maximum Tolerance applied to model');
#649=(
NAMED_UNIT(*)
SI_UNIT($,.STERADIAN.)
SOLID_ANGLE_UNIT()
);
#650=(
CONVERSION_BASED_UNIT('DEGREE',#652)
NAMED_UNIT(#651)
PLANE_ANGLE_UNIT()
);
#651=DIMENSIONAL_EXPONENTS(0.,0.,0.,0.,0.,0.,0.);
#652=PLANE_ANGLE_MEASURE_WITH_UNIT(PLANE_ANGLE_MEASURE(0.0174532925),#653);
#653=(
NAMED_UNIT(*)
PLANE_ANGLE_UNIT()
SI_UNIT($,.RADIAN.)
);
#654=(
LENGTH_UNIT()
NAMED_UNIT(*)
SI_UNIT(.MILLI.,.METRE.)
);
ENDSEC;
END-ISO-10303-21;
