ISO-10303-21;
HEADER;
/* Generated by software containing ST-Developer
 * from STEP Tools, Inc. (www.steptools.com) 
 */
/* OPTION: using custom schema-name function */

FILE_DESCRIPTION(
/* description */ (''),
/* implementation_level */ '2;1');

FILE_NAME(
/* name */ 'TOOL.STP',
/* time_stamp */ '2022-12-04T05:01:57+01:00',
/* author */ (''),
/* organization */ ('SMS'),
/* preprocessor_version */ 'ST-DEVELOPER v16.7',
/* originating_system */ 'SIEMENS PLM Software NX 12.0',
/* authorisation */ '');

FILE_SCHEMA (('AUTOMOTIVE_DESIGN { 1 0 10303 214 3 1 1 1 }'));
ENDSEC;

DATA;
#10=CONSTRUCTIVE_GEOMETRY_REPRESENTATION_RELATIONSHIP(
'supplemental geometry','',#26,#11);
#11=CONSTRUCTIVE_GEOMETRY_REPRESENTATION('supplemental geometry',(#370,
#371,#372),#647);
#12=GEOMETRICALLY_BOUNDED_WIREFRAME_SHAPE_REPRESENTATION('Tool-None',(#27),
#647);
#13=SHAPE_REPRESENTATION_RELATIONSHIP('None',
'relationship between Tool-None and Tool-None',#26,#15);
#14=SHAPE_REPRESENTATION_RELATIONSHIP('None',
'relationship between Tool-None and Tool-None',#26,#12);
#15=ADVANCED_BREP_SHAPE_REPRESENTATION('Tool-None',(#38,#39),#647);
#16=SHAPE_DEFINITION_REPRESENTATION(#17,#26);
#17=PRODUCT_DEFINITION_SHAPE('','',#18);
#18=PRODUCT_DEFINITION(' ','',#20,#19);
#19=PRODUCT_DEFINITION_CONTEXT('part definition',#25,'design');
#20=PRODUCT_DEFINITION_FORMATION_WITH_SPECIFIED_SOURCE(' ',' ',#22,
 .NOT_KNOWN.);
#21=PRODUCT_RELATED_PRODUCT_CATEGORY('part','',(#22));
#22=PRODUCT('Tool','Tool',' ',(#23));
#23=PRODUCT_CONTEXT(' ',#25,'mechanical');
#24=APPLICATION_PROTOCOL_DEFINITION('international standard',
'automotive_design',2010,#25);
#25=APPLICATION_CONTEXT(
'core data for automotive mechanical design processes');
#26=SHAPE_REPRESENTATION('Tool-None',(#369),#647);
#27=GEOMETRIC_CURVE_SET('None',(#517,#518,#519,#333));
#28=SURFACE_STYLE_USAGE(.BOTH.,#30);
#29=SURFACE_STYLE_USAGE(.BOTH.,#31);
#30=SURFACE_SIDE_STYLE('',(#32));
#31=SURFACE_SIDE_STYLE('',(#33));
#32=SURFACE_STYLE_FILL_AREA(#34);
#33=SURFACE_STYLE_FILL_AREA(#35);
#34=FILL_AREA_STYLE('',(#36));
#35=FILL_AREA_STYLE('',(#37));
#36=FILL_AREA_STYLE_COLOUR('',#367);
#37=FILL_AREA_STYLE_COLOUR('',#368);
#38=MANIFOLD_SOLID_BREP('NOCUT',#40);
#39=MANIFOLD_SOLID_BREP('CUT',#41);
#40=CLOSED_SHELL('',(#100,#101,#102,#103,#104,#105,#106,#107,#108,#109,
#110,#111,#112,#113,#114,#115,#116));
#41=CLOSED_SHELL('',(#117,#118,#119,#120,#121));
#42=PLANE('',#394);
#43=PLANE('',#396);
#44=PLANE('',#397);
#45=PLANE('',#398);
#46=PLANE('',#399);
#47=PLANE('',#400);
#48=PLANE('',#401);
#49=PLANE('',#402);
#50=PLANE('',#403);
#51=PLANE('',#404);
#52=PLANE('',#406);
#53=PLANE('',#410);
#54=FACE_OUTER_BOUND('',#158,.T.);
#55=FACE_OUTER_BOUND('',#161,.T.);
#56=FACE_OUTER_BOUND('',#162,.T.);
#57=FACE_OUTER_BOUND('',#163,.T.);
#58=FACE_OUTER_BOUND('',#164,.T.);
#59=FACE_OUTER_BOUND('',#165,.T.);
#60=FACE_OUTER_BOUND('',#166,.T.);
#61=FACE_OUTER_BOUND('',#167,.T.);
#62=FACE_OUTER_BOUND('',#168,.T.);
#63=FACE_OUTER_BOUND('',#169,.T.);
#64=FACE_OUTER_BOUND('',#170,.T.);
#65=FACE_OUTER_BOUND('',#173,.T.);
#66=TOROIDAL_SURFACE('',#393,1.89999999999999,0.5);
#67=ELLIPSE('',#383,1.90070302782944,1.344);
#68=ELLIPSE('',#384,1.90070302782944,1.344);
#69=ELLIPSE('',#385,1.90070302782944,1.344);
#70=ELLIPSE('',#386,1.90070302782944,1.344);
#71=LINE('',#588,#83);
#72=LINE('',#592,#84);
#73=LINE('',#593,#85);
#74=LINE('',#597,#86);
#75=LINE('',#598,#87);
#76=LINE('',#602,#88);
#77=LINE('',#603,#89);
#78=LINE('',#607,#90);
#79=LINE('',#620,#91);
#80=LINE('',#623,#92);
#81=LINE('',#626,#93);
#82=LINE('',#629,#94);
#83=VECTOR('',#442,1.);
#84=VECTOR('',#445,1.);
#85=VECTOR('',#446,1.);
#86=VECTOR('',#449,1.);
#87=VECTOR('',#450,1.);
#88=VECTOR('',#453,1.);
#89=VECTOR('',#454,1.);
#90=VECTOR('',#457,1.);
#91=VECTOR('',#476,1.);
#92=VECTOR('',#481,1.);
#93=VECTOR('',#486,1.);
#94=VECTOR('',#491,1.);
#95=CONICAL_SURFACE('',#381,0.343999999999999,45.);
#96=CONICAL_SURFACE('',#392,1.39999999999999,29.9999999999999);
#97=CONICAL_SURFACE('',#395,2.6,45.);
#98=CONICAL_SURFACE('',#412,2.12152526186921,45.);
#99=CONICAL_SURFACE('',#413,1.14380396830547,14.8742378104975);
#100=ADVANCED_FACE('',(#126,#127),#122,.T.);
#101=ADVANCED_FACE('',(#128,#129),#95,.T.);
#102=ADVANCED_FACE('',(#130,#131),#123,.T.);
#103=ADVANCED_FACE('',(#132,#133),#124,.T.);
#104=ADVANCED_FACE('',(#134,#135),#96,.T.);
#105=ADVANCED_FACE('',(#136,#137),#66,.F.);
#106=ADVANCED_FACE('',(#54),#42,.F.);
#107=ADVANCED_FACE('',(#138,#139),#97,.T.);
#108=ADVANCED_FACE('',(#55),#43,.T.);
#109=ADVANCED_FACE('',(#56),#44,.T.);
#110=ADVANCED_FACE('',(#57),#45,.T.);
#111=ADVANCED_FACE('',(#58),#46,.T.);
#112=ADVANCED_FACE('',(#59),#47,.T.);
#113=ADVANCED_FACE('',(#60),#48,.T.);
#114=ADVANCED_FACE('',(#61),#49,.T.);
#115=ADVANCED_FACE('',(#62),#50,.T.);
#116=ADVANCED_FACE('',(#63),#51,.T.);
#117=ADVANCED_FACE('',(#64),#52,.T.);
#118=ADVANCED_FACE('',(#140,#141),#125,.T.);
#119=ADVANCED_FACE('',(#65),#53,.F.);
#120=ADVANCED_FACE('',(#142,#143),#98,.T.);
#121=ADVANCED_FACE('',(#144,#145),#99,.T.);
#122=CYLINDRICAL_SURFACE('',#375,2.04152526186923);
#123=CYLINDRICAL_SURFACE('',#387,1.344);
#124=CYLINDRICAL_SURFACE('',#390,1.39999999999999);
#125=CYLINDRICAL_SURFACE('',#408,2.04152526186923);
#126=FACE_BOUND('',#146,.T.);
#127=FACE_BOUND('',#147,.T.);
#128=FACE_BOUND('',#148,.T.);
#129=FACE_BOUND('',#149,.T.);
#130=FACE_BOUND('',#150,.T.);
#131=FACE_BOUND('',#151,.T.);
#132=FACE_BOUND('',#152,.T.);
#133=FACE_BOUND('',#153,.T.);
#134=FACE_BOUND('',#154,.T.);
#135=FACE_BOUND('',#155,.T.);
#136=FACE_BOUND('',#156,.T.);
#137=FACE_BOUND('',#157,.T.);
#138=FACE_BOUND('',#159,.T.);
#139=FACE_BOUND('',#160,.T.);
#140=FACE_BOUND('',#171,.T.);
#141=FACE_BOUND('',#172,.T.);
#142=FACE_BOUND('',#174,.T.);
#143=FACE_BOUND('',#175,.T.);
#144=FACE_BOUND('',#176,.T.);
#145=FACE_BOUND('',#177,.T.);
#146=EDGE_LOOP('',(#178));
#147=EDGE_LOOP('',(#179));
#148=EDGE_LOOP('',(#180));
#149=EDGE_LOOP('',(#181,#182,#183,#184,#185,#186,#187,#188));
#150=EDGE_LOOP('',(#189));
#151=EDGE_LOOP('',(#190,#191,#192,#193,#194,#195,#196,#197,#198,#199,#200,
#201,#202,#203,#204,#205));
#152=EDGE_LOOP('',(#206));
#153=EDGE_LOOP('',(#207));
#154=EDGE_LOOP('',(#208));
#155=EDGE_LOOP('',(#209));
#156=EDGE_LOOP('',(#210));
#157=EDGE_LOOP('',(#211));
#158=EDGE_LOOP('',(#212));
#159=EDGE_LOOP('',(#213));
#160=EDGE_LOOP('',(#214));
#161=EDGE_LOOP('',(#215,#216));
#162=EDGE_LOOP('',(#217,#218,#219,#220));
#163=EDGE_LOOP('',(#221,#222));
#164=EDGE_LOOP('',(#223,#224,#225,#226));
#165=EDGE_LOOP('',(#227,#228));
#166=EDGE_LOOP('',(#229,#230,#231,#232));
#167=EDGE_LOOP('',(#233,#234,#235,#236));
#168=EDGE_LOOP('',(#237,#238));
#169=EDGE_LOOP('',(#239));
#170=EDGE_LOOP('',(#240));
#171=EDGE_LOOP('',(#241));
#172=EDGE_LOOP('',(#242));
#173=EDGE_LOOP('',(#243));
#174=EDGE_LOOP('',(#244));
#175=EDGE_LOOP('',(#245));
#176=EDGE_LOOP('',(#246));
#177=EDGE_LOOP('',(#247));
#178=ORIENTED_EDGE('',*,*,#275,.T.);
#179=ORIENTED_EDGE('',*,*,#276,.T.);
#180=ORIENTED_EDGE('',*,*,#277,.F.);
#181=ORIENTED_EDGE('',*,*,#278,.T.);
#182=ORIENTED_EDGE('',*,*,#279,.T.);
#183=ORIENTED_EDGE('',*,*,#280,.T.);
#184=ORIENTED_EDGE('',*,*,#281,.T.);
#185=ORIENTED_EDGE('',*,*,#282,.T.);
#186=ORIENTED_EDGE('',*,*,#283,.T.);
#187=ORIENTED_EDGE('',*,*,#284,.T.);
#188=ORIENTED_EDGE('',*,*,#285,.T.);
#189=ORIENTED_EDGE('',*,*,#286,.F.);
#190=ORIENTED_EDGE('',*,*,#287,.F.);
#191=ORIENTED_EDGE('',*,*,#288,.F.);
#192=ORIENTED_EDGE('',*,*,#289,.F.);
#193=ORIENTED_EDGE('',*,*,#278,.F.);
#194=ORIENTED_EDGE('',*,*,#290,.F.);
#195=ORIENTED_EDGE('',*,*,#291,.F.);
#196=ORIENTED_EDGE('',*,*,#292,.F.);
#197=ORIENTED_EDGE('',*,*,#284,.F.);
#198=ORIENTED_EDGE('',*,*,#293,.F.);
#199=ORIENTED_EDGE('',*,*,#294,.F.);
#200=ORIENTED_EDGE('',*,*,#295,.F.);
#201=ORIENTED_EDGE('',*,*,#282,.F.);
#202=ORIENTED_EDGE('',*,*,#296,.F.);
#203=ORIENTED_EDGE('',*,*,#297,.F.);
#204=ORIENTED_EDGE('',*,*,#298,.F.);
#205=ORIENTED_EDGE('',*,*,#280,.F.);
#206=ORIENTED_EDGE('',*,*,#299,.T.);
#207=ORIENTED_EDGE('',*,*,#300,.T.);
#208=ORIENTED_EDGE('',*,*,#301,.T.);
#209=ORIENTED_EDGE('',*,*,#275,.F.);
#210=ORIENTED_EDGE('',*,*,#299,.F.);
#211=ORIENTED_EDGE('',*,*,#301,.F.);
#212=ORIENTED_EDGE('',*,*,#277,.T.);
#213=ORIENTED_EDGE('',*,*,#286,.T.);
#214=ORIENTED_EDGE('',*,*,#300,.F.);
#215=ORIENTED_EDGE('',*,*,#294,.T.);
#216=ORIENTED_EDGE('',*,*,#302,.T.);
#217=ORIENTED_EDGE('',*,*,#293,.T.);
#218=ORIENTED_EDGE('',*,*,#283,.F.);
#219=ORIENTED_EDGE('',*,*,#295,.T.);
#220=ORIENTED_EDGE('',*,*,#302,.F.);
#221=ORIENTED_EDGE('',*,*,#291,.T.);
#222=ORIENTED_EDGE('',*,*,#303,.T.);
#223=ORIENTED_EDGE('',*,*,#290,.T.);
#224=ORIENTED_EDGE('',*,*,#285,.F.);
#225=ORIENTED_EDGE('',*,*,#292,.T.);
#226=ORIENTED_EDGE('',*,*,#303,.F.);
#227=ORIENTED_EDGE('',*,*,#297,.T.);
#228=ORIENTED_EDGE('',*,*,#304,.T.);
#229=ORIENTED_EDGE('',*,*,#296,.T.);
#230=ORIENTED_EDGE('',*,*,#281,.F.);
#231=ORIENTED_EDGE('',*,*,#298,.T.);
#232=ORIENTED_EDGE('',*,*,#304,.F.);
#233=ORIENTED_EDGE('',*,*,#287,.T.);
#234=ORIENTED_EDGE('',*,*,#279,.F.);
#235=ORIENTED_EDGE('',*,*,#289,.T.);
#236=ORIENTED_EDGE('',*,*,#305,.F.);
#237=ORIENTED_EDGE('',*,*,#288,.T.);
#238=ORIENTED_EDGE('',*,*,#305,.T.);
#239=ORIENTED_EDGE('',*,*,#276,.F.);
#240=ORIENTED_EDGE('',*,*,#306,.F.);
#241=ORIENTED_EDGE('',*,*,#307,.T.);
#242=ORIENTED_EDGE('',*,*,#306,.T.);
#243=ORIENTED_EDGE('',*,*,#308,.T.);
#244=ORIENTED_EDGE('',*,*,#308,.F.);
#245=ORIENTED_EDGE('',*,*,#309,.F.);
#246=ORIENTED_EDGE('',*,*,#309,.T.);
#247=ORIENTED_EDGE('',*,*,#307,.F.);
#248=VERTEX_POINT('',#543);
#249=VERTEX_POINT('',#545);
#250=VERTEX_POINT('',#548);
#251=VERTEX_POINT('',#550);
#252=VERTEX_POINT('',#551);
#253=VERTEX_POINT('',#558);
#254=VERTEX_POINT('',#560);
#255=VERTEX_POINT('',#567);
#256=VERTEX_POINT('',#569);
#257=VERTEX_POINT('',#576);
#258=VERTEX_POINT('',#578);
#259=VERTEX_POINT('',#587);
#260=VERTEX_POINT('',#589);
#261=VERTEX_POINT('',#591);
#262=VERTEX_POINT('',#594);
#263=VERTEX_POINT('',#596);
#264=VERTEX_POINT('',#599);
#265=VERTEX_POINT('',#601);
#266=VERTEX_POINT('',#604);
#267=VERTEX_POINT('',#606);
#268=VERTEX_POINT('',#610);
#269=VERTEX_POINT('',#612);
#270=VERTEX_POINT('',#615);
#271=VERTEX_POINT('',#634);
#272=VERTEX_POINT('',#637);
#273=VERTEX_POINT('',#640);
#274=VERTEX_POINT('',#643);
#275=EDGE_CURVE('',#248,#248,#310,.T.);
#276=EDGE_CURVE('',#249,#249,#311,.T.);
#277=EDGE_CURVE('',#250,#250,#312,.T.);
#278=EDGE_CURVE('',#251,#252,#313,.T.);
#279=EDGE_CURVE('',#252,#253,#334,.T.);
#280=EDGE_CURVE('',#253,#254,#314,.T.);
#281=EDGE_CURVE('',#254,#255,#335,.T.);
#282=EDGE_CURVE('',#255,#256,#315,.T.);
#283=EDGE_CURVE('',#256,#257,#336,.T.);
#284=EDGE_CURVE('',#257,#258,#316,.T.);
#285=EDGE_CURVE('',#258,#251,#337,.T.);
#286=EDGE_CURVE('',#259,#259,#317,.T.);
#287=EDGE_CURVE('',#260,#253,#71,.T.);
#288=EDGE_CURVE('',#261,#260,#67,.T.);
#289=EDGE_CURVE('',#252,#261,#72,.T.);
#290=EDGE_CURVE('',#262,#251,#73,.T.);
#291=EDGE_CURVE('',#263,#262,#68,.T.);
#292=EDGE_CURVE('',#258,#263,#74,.T.);
#293=EDGE_CURVE('',#264,#257,#75,.T.);
#294=EDGE_CURVE('',#265,#264,#69,.T.);
#295=EDGE_CURVE('',#256,#265,#76,.T.);
#296=EDGE_CURVE('',#266,#255,#77,.T.);
#297=EDGE_CURVE('',#267,#266,#70,.T.);
#298=EDGE_CURVE('',#254,#267,#78,.T.);
#299=EDGE_CURVE('',#268,#268,#318,.T.);
#300=EDGE_CURVE('',#269,#269,#319,.T.);
#301=EDGE_CURVE('',#270,#270,#320,.T.);
#302=EDGE_CURVE('',#264,#265,#79,.T.);
#303=EDGE_CURVE('',#262,#263,#80,.T.);
#304=EDGE_CURVE('',#266,#267,#81,.T.);
#305=EDGE_CURVE('',#260,#261,#82,.T.);
#306=EDGE_CURVE('',#271,#271,#321,.T.);
#307=EDGE_CURVE('',#272,#272,#322,.T.);
#308=EDGE_CURVE('',#273,#273,#323,.T.);
#309=EDGE_CURVE('',#274,#274,#324,.T.);
#310=CIRCLE('',#373,2.04152526186923);
#311=CIRCLE('',#374,2.04152526186923);
#312=CIRCLE('',#376,0.343999999999999);
#313=CIRCLE('',#377,1.344);
#314=CIRCLE('',#378,1.344);
#315=CIRCLE('',#379,1.344);
#316=CIRCLE('',#380,1.344);
#317=CIRCLE('',#382,1.344);
#318=CIRCLE('',#388,1.39999999999999);
#319=CIRCLE('',#389,1.4);
#320=CIRCLE('',#391,1.46698729810777);
#321=CIRCLE('',#405,2.04152526186923);
#322=CIRCLE('',#407,2.04152526186923);
#323=CIRCLE('',#409,1.35499999999998);
#324=CIRCLE('',#411,1.75456346081201);
#325=CURVE_STYLE('',#329,POSITIVE_LENGTH_MEASURE(0.18),#339);
#326=CURVE_STYLE('',#330,POSITIVE_LENGTH_MEASURE(0.13),#366);
#327=CURVE_STYLE('',#331,POSITIVE_LENGTH_MEASURE(0.18),#365);
#328=CURVE_STYLE('',#332,POSITIVE_LENGTH_MEASURE(0.18),#365);
#329=DRAUGHTING_PRE_DEFINED_CURVE_FONT('continuous');
#330=DRAUGHTING_PRE_DEFINED_CURVE_FONT('continuous');
#331=DRAUGHTING_PRE_DEFINED_CURVE_FONT('continuous');
#332=DRAUGHTING_PRE_DEFINED_CURVE_FONT('continuous');
#333=B_SPLINE_CURVE_WITH_KNOTS('CUTTING PART LINE',3,(#520,#521,#522,#523,
#524,#525,#526,#527,#528,#529,#530,#531,#532,#533,#534,#535,#536,#537,#538),
 .UNSPECIFIED.,.T.,.F.,(4,3,3,3,3,3,4),(0.,0.11469572468048,0.513583585858322,
0.589709367810955,0.621455676542025,0.684260594392795,1.),.UNSPECIFIED.);
#334=B_SPLINE_CURVE_WITH_KNOTS('',3,(#552,#553,#554,#555,#556,#557),
 .UNSPECIFIED.,.F.,.F.,(4,2,4),(0.,0.5,1.),.UNSPECIFIED.);
#335=B_SPLINE_CURVE_WITH_KNOTS('',3,(#561,#562,#563,#564,#565,#566),
 .UNSPECIFIED.,.F.,.F.,(4,2,4),(0.,0.5,1.),.UNSPECIFIED.);
#336=B_SPLINE_CURVE_WITH_KNOTS('',3,(#570,#571,#572,#573,#574,#575),
 .UNSPECIFIED.,.F.,.F.,(4,2,4),(0.,0.5,1.),.UNSPECIFIED.);
#337=B_SPLINE_CURVE_WITH_KNOTS('',3,(#579,#580,#581,#582,#583,#584),
 .UNSPECIFIED.,.F.,.F.,(4,2,4),(0.,0.5,1.),.UNSPECIFIED.);
#338=DRAUGHTING_PRE_DEFINED_COLOUR('white');
#339=DRAUGHTING_PRE_DEFINED_COLOUR('blue');
#340=PRESENTATION_LAYER_ASSIGNMENT('1','Layer 1',(#517,#518,#519,#333,#370,
#371,#372,#38,#39));
#341=STYLED_ITEM('',(#350),#517);
#342=STYLED_ITEM('',(#351),#518);
#343=STYLED_ITEM('',(#352),#519);
#344=STYLED_ITEM('',(#353),#333);
#345=STYLED_ITEM('',(#354),#370);
#346=STYLED_ITEM('',(#355),#371);
#347=STYLED_ITEM('',(#356),#372);
#348=STYLED_ITEM('',(#357),#38);
#349=STYLED_ITEM('',(#358),#39);
#350=PRESENTATION_STYLE_ASSIGNMENT((#359));
#351=PRESENTATION_STYLE_ASSIGNMENT((#360));
#352=PRESENTATION_STYLE_ASSIGNMENT((#361));
#353=PRESENTATION_STYLE_ASSIGNMENT((#325));
#354=PRESENTATION_STYLE_ASSIGNMENT((#326));
#355=PRESENTATION_STYLE_ASSIGNMENT((#327));
#356=PRESENTATION_STYLE_ASSIGNMENT((#328));
#357=PRESENTATION_STYLE_ASSIGNMENT((#28));
#358=PRESENTATION_STYLE_ASSIGNMENT((#29));
#359=POINT_STYLE('',#362,POSITIVE_LENGTH_MEASURE(3.),#365);
#360=POINT_STYLE('',#363,POSITIVE_LENGTH_MEASURE(3.),#338);
#361=POINT_STYLE('',#364,POSITIVE_LENGTH_MEASURE(3.),#365);
#362=PRE_DEFINED_POINT_MARKER_SYMBOL('plus');
#363=PRE_DEFINED_POINT_MARKER_SYMBOL('plus');
#364=PRE_DEFINED_POINT_MARKER_SYMBOL('plus');
#365=COLOUR_RGB('Medium Maroon',0.6,0.4,0.4);
#366=COLOUR_RGB('Silver Gray',0.6,0.6,0.6);
#367=COLOUR_RGB('TLS_NOCUT',0.498023956664378,0.498023956664378,0.498023956664378);
#368=COLOUR_RGB('TLS_CUT',0.8,0.8,0.8);
#369=AXIS2_PLACEMENT_3D('',#516,#414,#415);
#370=AXIS2_PLACEMENT_3D('PCS',#539,#416,#417);
#371=AXIS2_PLACEMENT_3D('MCS',#540,#418,#419);
#372=AXIS2_PLACEMENT_3D('CIP',#541,#420,#421);
#373=AXIS2_PLACEMENT_3D('',#542,#422,#423);
#374=AXIS2_PLACEMENT_3D('',#544,#424,#425);
#375=AXIS2_PLACEMENT_3D('',#546,#426,#427);
#376=AXIS2_PLACEMENT_3D('',#547,#428,#429);
#377=AXIS2_PLACEMENT_3D('',#549,#430,#431);
#378=AXIS2_PLACEMENT_3D('',#559,#432,#433);
#379=AXIS2_PLACEMENT_3D('',#568,#434,#435);
#380=AXIS2_PLACEMENT_3D('',#577,#436,#437);
#381=AXIS2_PLACEMENT_3D('',#585,#438,#439);
#382=AXIS2_PLACEMENT_3D('',#586,#440,#441);
#383=AXIS2_PLACEMENT_3D('',#590,#443,#444);
#384=AXIS2_PLACEMENT_3D('',#595,#447,#448);
#385=AXIS2_PLACEMENT_3D('',#600,#451,#452);
#386=AXIS2_PLACEMENT_3D('',#605,#455,#456);
#387=AXIS2_PLACEMENT_3D('',#608,#458,#459);
#388=AXIS2_PLACEMENT_3D('',#609,#460,#461);
#389=AXIS2_PLACEMENT_3D('',#611,#462,#463);
#390=AXIS2_PLACEMENT_3D('',#613,#464,#465);
#391=AXIS2_PLACEMENT_3D('',#614,#466,#467);
#392=AXIS2_PLACEMENT_3D('',#616,#468,#469);
#393=AXIS2_PLACEMENT_3D('',#617,#470,#471);
#394=AXIS2_PLACEMENT_3D('',#618,#472,#473);
#395=AXIS2_PLACEMENT_3D('',#619,#474,#475);
#396=AXIS2_PLACEMENT_3D('',#621,#477,#478);
#397=AXIS2_PLACEMENT_3D('',#622,#479,#480);
#398=AXIS2_PLACEMENT_3D('',#624,#482,#483);
#399=AXIS2_PLACEMENT_3D('',#625,#484,#485);
#400=AXIS2_PLACEMENT_3D('',#627,#487,#488);
#401=AXIS2_PLACEMENT_3D('',#628,#489,#490);
#402=AXIS2_PLACEMENT_3D('',#630,#492,#493);
#403=AXIS2_PLACEMENT_3D('',#631,#494,#495);
#404=AXIS2_PLACEMENT_3D('',#632,#496,#497);
#405=AXIS2_PLACEMENT_3D('',#633,#498,#499);
#406=AXIS2_PLACEMENT_3D('',#635,#500,#501);
#407=AXIS2_PLACEMENT_3D('',#636,#502,#503);
#408=AXIS2_PLACEMENT_3D('',#638,#504,#505);
#409=AXIS2_PLACEMENT_3D('',#639,#506,#507);
#410=AXIS2_PLACEMENT_3D('',#641,#508,#509);
#411=AXIS2_PLACEMENT_3D('',#642,#510,#511);
#412=AXIS2_PLACEMENT_3D('',#644,#512,#513);
#413=AXIS2_PLACEMENT_3D('',#645,#514,#515);
#414=DIRECTION('',(0.,0.,1.));
#415=DIRECTION('',(1.,0.,0.));
#416=DIRECTION('',(0.,0.,1.));
#417=DIRECTION('',(1.,0.,0.));
#418=DIRECTION('',(0.,0.,1.));
#419=DIRECTION('',(1.,0.,0.));
#420=DIRECTION('',(0.,0.,1.));
#421=DIRECTION('',(1.,0.,0.));
#422=DIRECTION('',(0.,0.,-1.));
#423=DIRECTION('',(-1.,0.,0.));
#424=DIRECTION('',(0.,0.,1.));
#425=DIRECTION('',(-1.,0.,0.));
#426=DIRECTION('',(0.,0.,1.));
#427=DIRECTION('',(1.,0.,0.));
#428=DIRECTION('',(0.,0.,1.));
#429=DIRECTION('',(1.,0.,0.));
#430=DIRECTION('',(0.,0.,1.));
#431=DIRECTION('',(-1.,0.,0.));
#432=DIRECTION('',(0.,0.,1.));
#433=DIRECTION('',(-1.,0.,0.));
#434=DIRECTION('',(0.,0.,1.));
#435=DIRECTION('',(-1.,0.,0.));
#436=DIRECTION('',(0.,0.,1.));
#437=DIRECTION('',(-1.,0.,0.));
#438=DIRECTION('',(0.,0.,-1.));
#439=DIRECTION('',(-1.,0.,0.));
#440=DIRECTION('',(0.,0.,-1.));
#441=DIRECTION('',(1.,0.,0.));
#442=DIRECTION('',(0.,0.,1.));
#443=DIRECTION('',(0.707106781186547,0.,0.707106781186548));
#444=DIRECTION('',(-0.707106781186548,0.,0.707106781186547));
#445=DIRECTION('',(0.,0.,-1.));
#446=DIRECTION('',(0.,0.,1.));
#447=DIRECTION('',(-2.64204134232936E-15,-0.707106781186547,0.707106781186548));
#448=DIRECTION('',(2.64204134232937E-15,0.707106781186548,0.707106781186547));
#449=DIRECTION('',(0.,0.,-1.));
#450=DIRECTION('',(0.,0.,1.));
#451=DIRECTION('',(-0.707106781186547,1.65668806430732E-15,0.707106781186548));
#452=DIRECTION('',(0.707106781186548,-1.65668806430732E-15,0.707106781186547));
#453=DIRECTION('',(0.,0.,-1.));
#454=DIRECTION('',(0.,0.,1.));
#455=DIRECTION('',(8.28344032153662E-16,0.707106781186547,0.707106781186548));
#456=DIRECTION('',(-8.28344032153662E-16,-0.707106781186548,0.707106781186547));
#457=DIRECTION('',(0.,0.,-1.));
#458=DIRECTION('',(0.,0.,1.));
#459=DIRECTION('',(1.,0.,0.));
#460=DIRECTION('',(-7.47559725803503E-17,0.,1.));
#461=DIRECTION('',(-1.,0.,0.));
#462=DIRECTION('',(0.,0.,-1.));
#463=DIRECTION('',(-1.,0.,0.));
#464=DIRECTION('',(7.47559725803503E-17,0.,-1.));
#465=DIRECTION('',(-1.,0.,0.));
#466=DIRECTION('',(7.47559725803503E-17,0.,-1.));
#467=DIRECTION('',(-1.,0.,0.));
#468=DIRECTION('',(7.47559725803503E-17,0.,-1.));
#469=DIRECTION('',(-1.,0.,0.));
#470=DIRECTION('',(7.47559725803503E-17,0.,-1.));
#471=DIRECTION('',(-1.,0.,0.));
#472=DIRECTION('',(2.05010613818159E-16,0.,-1.));
#473=DIRECTION('',(-1.,0.,-2.05010613818159E-16));
#474=DIRECTION('',(0.,0.,-1.));
#475=DIRECTION('',(-1.,0.,1.73022489125953E-17));
#476=DIRECTION('',(2.34291072916505E-15,1.,0.));
#477=DIRECTION('',(-0.707106781186547,1.65668806430732E-15,0.707106781186548));
#478=DIRECTION('',(-0.707106781186548,1.65666091955785E-15,-0.707106781186547));
#479=DIRECTION('',(-1.,2.34291072916505E-15,0.));
#480=DIRECTION('',(0.,0.,-1.));
#481=DIRECTION('',(-1.,3.7364106986726E-15,0.));
#482=DIRECTION('',(-2.64204134232936E-15,-0.707106781186547,0.707106781186548));
#483=DIRECTION('',(-2.64198385391268E-15,-0.707106781186548,-0.707106781186547));
#484=DIRECTION('',(-3.7364106986726E-15,-1.,0.));
#485=DIRECTION('',(0.,0.,-1.));
#486=DIRECTION('',(1.,-1.17145536458252E-15,0.));
#487=DIRECTION('',(8.28344032153662E-16,0.707106781186547,0.707106781186548));
#488=DIRECTION('',(8.28330459778925E-16,0.707106781186548,-0.707106781186547));
#489=DIRECTION('',(1.17145536458252E-15,1.,0.));
#490=DIRECTION('',(0.,0.,-1.));
#491=DIRECTION('',(0.,-1.,0.));
#492=DIRECTION('',(1.,0.,0.));
#493=DIRECTION('',(0.,0.,-1.));
#494=DIRECTION('',(0.707106781186547,0.,0.707106781186548));
#495=DIRECTION('',(0.707106781186548,0.,-0.707106781186547));
#496=DIRECTION('',(0.,0.,-1.));
#497=DIRECTION('',(-1.,0.,0.));
#498=DIRECTION('',(0.,0.,-1.));
#499=DIRECTION('',(1.,0.,0.));
#500=DIRECTION('',(0.,0.,1.));
#501=DIRECTION('',(1.,0.,0.));
#502=DIRECTION('',(0.,0.,1.));
#503=DIRECTION('',(1.,0.,0.));
#504=DIRECTION('',(0.,0.,1.));
#505=DIRECTION('',(1.,0.,0.));
#506=DIRECTION('',(8.77400487833488E-17,0.,-1.));
#507=DIRECTION('',(1.,0.,0.));
#508=DIRECTION('',(-8.77400487833488E-17,0.,1.));
#509=DIRECTION('',(1.,0.,8.32667268468867E-17));
#510=DIRECTION('',(0.,0.,1.));
#511=DIRECTION('',(-1.,0.,0.));
#512=DIRECTION('',(-2.87822480608049E-16,0.,1.));
#513=DIRECTION('',(1.,0.,3.3236179344667E-16));
#514=DIRECTION('',(0.,0.,1.));
#515=DIRECTION('',(1.,0.,2.08108167176933E-16));
#516=CARTESIAN_POINT('',(0.,0.,0.));
#517=CARTESIAN_POINT('',(0.,0.,-20.));
#518=CARTESIAN_POINT('CRP',(-2.04152526186923,0.,-63.));
#519=CARTESIAN_POINT('CIP_DCSYS',(0.,0.,-63.));
#520=CARTESIAN_POINT('',(-2.04152526186923,0.,-56.));
#521=CARTESIAN_POINT('',(-1.36101684124615,0.,-56.));
#522=CARTESIAN_POINT('',(-0.680508420623075,0.,-56.));
#523=CARTESIAN_POINT('',(0.,0.,-56.));
#524=CARTESIAN_POINT('',(0.,0.,-58.3666666666667));
#525=CARTESIAN_POINT('',(0.,0.,-60.7333333333333));
#526=CARTESIAN_POINT('',(0.,0.,-63.1));
#527=CARTESIAN_POINT('',(-0.451666666666654,0.,-63.1));
#528=CARTESIAN_POINT('',(-0.903333333333308,0.,-63.1));
#529=CARTESIAN_POINT('',(-1.35499999999996,0.,-63.1));
#530=CARTESIAN_POINT('',(-1.48818782027064,0.,-62.9668121797293));
#531=CARTESIAN_POINT('',(-1.62137564054132,0.,-62.8336243594586));
#532=CARTESIAN_POINT('',(-1.75456346081201,0.,-62.700436539188));
#533=CARTESIAN_POINT('',(-1.85021739449775,0.,-62.3402910261253));
#534=CARTESIAN_POINT('',(-1.94587132818349,0.,-61.9801455130627));
#535=CARTESIAN_POINT('',(-2.04152526186923,0.,-61.62));
#536=CARTESIAN_POINT('',(-2.04152526186923,0.,-59.7466666666667));
#537=CARTESIAN_POINT('',(-2.04152526186923,0.,-57.8733333333333));
#538=CARTESIAN_POINT('',(-2.04152526186923,0.,-56.));
#539=CARTESIAN_POINT('',(0.,0.,0.));
#540=CARTESIAN_POINT('',(0.,0.,-20.));
#541=CARTESIAN_POINT('',(0.,0.,-63.));
#542=CARTESIAN_POINT('',(0.,0.,-55.8614359353945));
#543=CARTESIAN_POINT('',(-2.04152526186923,0.,-55.8614359353945));
#544=CARTESIAN_POINT('',(0.,0.,-56.));
#545=CARTESIAN_POINT('',(-2.04152526186923,0.,-56.));
#546=CARTESIAN_POINT('',(0.,0.,20.9080749503476));
#547=CARTESIAN_POINT('',(0.,0.,0.));
#548=CARTESIAN_POINT('',(0.343999999999999,0.,0.));
#549=CARTESIAN_POINT('',(0.,0.,-1.));
#550=CARTESIAN_POINT('',(0.838949342932299,-1.05,-1.0000000000005));
#551=CARTESIAN_POINT('',(1.05,-0.838949342928403,-1.));
#552=CARTESIAN_POINT('',(1.05,-0.838949342929271,-0.999999999999034));
#553=CARTESIAN_POINT('',(1.05,-0.585919744616817,-0.842054304131619));
#554=CARTESIAN_POINT('',(1.05,-0.299410555982455,-0.706051999821329));
#555=CARTESIAN_POINT('',(1.05,0.299045729496395,-0.705948031868759));
#556=CARTESIAN_POINT('',(1.05,0.585696885189698,-0.841915191209157));
#557=CARTESIAN_POINT('',(1.05,0.838949342928406,-0.999999999999999));
#558=CARTESIAN_POINT('',(1.05,0.838949342928403,-1.));
#559=CARTESIAN_POINT('',(0.,0.,-1.));
#560=CARTESIAN_POINT('',(0.838949342928404,1.05,-1.));
#561=CARTESIAN_POINT('',(0.838949342929273,1.05,-0.999999999999035));
#562=CARTESIAN_POINT('',(0.585919744616819,1.05,-0.84205430413162));
#563=CARTESIAN_POINT('',(0.299410555982457,1.05,-0.706051999821329));
#564=CARTESIAN_POINT('',(-0.299045729496394,1.05,-0.705948031868759));
#565=CARTESIAN_POINT('',(-0.585696885189697,1.05,-0.841915191209156));
#566=CARTESIAN_POINT('',(-0.838949342928404,1.05,-0.999999999999999));
#567=CARTESIAN_POINT('',(-0.838949342928402,1.05,-1.));
#568=CARTESIAN_POINT('',(0.,0.,-1.));
#569=CARTESIAN_POINT('',(-1.05,0.838949342928406,-1.));
#570=CARTESIAN_POINT('',(-1.05,0.838949342928408,-0.999999999999999));
#571=CARTESIAN_POINT('',(-1.05,0.585696885189236,-0.841915191208867));
#572=CARTESIAN_POINT('',(-1.05,0.299045729495288,-0.70594803186829));
#573=CARTESIAN_POINT('',(-1.05,-0.299410555984638,-0.706051999821799));
#574=CARTESIAN_POINT('',(-1.05,-0.58591974461932,-0.842054304132864));
#575=CARTESIAN_POINT('',(-1.05,-0.838949342932055,-1.00000000000077));
#576=CARTESIAN_POINT('',(-1.05,-0.838949342932301,-1.0000000000005));
#577=CARTESIAN_POINT('',(0.,0.,-1.));
#578=CARTESIAN_POINT('',(-0.838949342928407,-1.05,-1.));
#579=CARTESIAN_POINT('',(-0.838949342928409,-1.05,-0.999999999999999));
#580=CARTESIAN_POINT('',(-0.585696885189237,-1.05,-0.841915191208866));
#581=CARTESIAN_POINT('',(-0.29904572949529,-1.05,-0.70594803186829));
#582=CARTESIAN_POINT('',(0.299410555984636,-1.05,-0.706051999821799));
#583=CARTESIAN_POINT('',(0.585919744619317,-1.05,-0.842054304132863));
#584=CARTESIAN_POINT('',(0.838949342932052,-1.05,-1.00000000000077));
#585=CARTESIAN_POINT('',(0.,0.,0.));
#586=CARTESIAN_POINT('',(0.,0.,-5.5));
#587=CARTESIAN_POINT('',(1.344,0.,-5.5));
#588=CARTESIAN_POINT('',(1.05,0.838949342928403,20.9080749503476));
#589=CARTESIAN_POINT('',(1.05,0.838949342928405,-5.));
#590=CARTESIAN_POINT('',(0.,0.,-3.95));
#591=CARTESIAN_POINT('',(1.05,-0.838949342928405,-5.));
#592=CARTESIAN_POINT('',(1.05,-0.838949342928403,20.9080749503476));
#593=CARTESIAN_POINT('',(0.838949342928399,-1.05,20.9080749503476));
#594=CARTESIAN_POINT('',(0.838949342928401,-1.05,-5.));
#595=CARTESIAN_POINT('',(0.,0.,-3.95));
#596=CARTESIAN_POINT('',(-0.838949342928409,-1.05,-5.));
#597=CARTESIAN_POINT('',(-0.838949342928407,-1.05,20.9080749503476));
#598=CARTESIAN_POINT('',(-1.05,-0.838949342928401,20.9080749503476));
#599=CARTESIAN_POINT('',(-1.05,-0.838949342928403,-5.));
#600=CARTESIAN_POINT('',(0.,0.,-3.95));
#601=CARTESIAN_POINT('',(-1.05,0.838949342928407,-5.));
#602=CARTESIAN_POINT('',(-1.05,0.838949342928406,20.9080749503476));
#603=CARTESIAN_POINT('',(-0.838949342928402,1.05,20.9080749503476));
#604=CARTESIAN_POINT('',(-0.838949342928404,1.05,-5.));
#605=CARTESIAN_POINT('',(0.,0.,-3.95));
#606=CARTESIAN_POINT('',(0.838949342928406,1.05,-5.));
#607=CARTESIAN_POINT('',(0.838949342928404,1.05,20.9080749503476));
#608=CARTESIAN_POINT('',(0.,0.,20.9080749503476));
#609=CARTESIAN_POINT('',(5.5560509164007E-15,0.,-54.6163069912825));
#610=CARTESIAN_POINT('',(-1.39999999999999,0.,-54.6163069912825));
#611=CARTESIAN_POINT('',(0.,0.,-5.556));
#612=CARTESIAN_POINT('',(-1.4,0.,-5.556));
#613=CARTESIAN_POINT('',(5.55111512312578E-15,0.,-54.5502815874981));
#614=CARTESIAN_POINT('',(5.57473990954579E-15,0.,-54.8663069912825));
#615=CARTESIAN_POINT('',(-1.46698729810777,0.,-54.8663069912825));
#616=CARTESIAN_POINT('',(5.56606631764185E-15,0.,-54.7502815874981));
#617=CARTESIAN_POINT('',(5.5560509164007E-15,0.,-54.6163069912825));
#618=CARTESIAN_POINT('',(1.6,0.,1.64008491054528E-16));
#619=CARTESIAN_POINT('',(0.,0.,-6.756));
#620=CARTESIAN_POINT('',(-1.04999999999999,3.15,-5.));
#621=CARTESIAN_POINT('',(-1.04999999999999,3.15,-5.));
#622=CARTESIAN_POINT('',(-1.04999999999999,3.15,10.));
#623=CARTESIAN_POINT('',(-3.15,-1.04999999999999,-5.));
#624=CARTESIAN_POINT('',(-3.15,-1.04999999999999,-5.));
#625=CARTESIAN_POINT('',(-3.15,-1.04999999999999,10.));
#626=CARTESIAN_POINT('',(3.15,1.05,-5.));
#627=CARTESIAN_POINT('',(3.15,1.05,-5.));
#628=CARTESIAN_POINT('',(3.15,1.05,10.));
#629=CARTESIAN_POINT('',(1.05,-3.15,-5.));
#630=CARTESIAN_POINT('',(1.05,-3.15,10.));
#631=CARTESIAN_POINT('',(1.05,-3.15,-5.));
#632=CARTESIAN_POINT('',(0.,0.,-56.));
#633=CARTESIAN_POINT('',(0.,0.,-56.));
#634=CARTESIAN_POINT('',(2.04152526186923,0.,-56.));
#635=CARTESIAN_POINT('',(0.,0.,-56.));
#636=CARTESIAN_POINT('',(0.,0.,-61.62));
#637=CARTESIAN_POINT('',(2.04152526186923,0.,-61.62));
#638=CARTESIAN_POINT('',(0.,0.,20.9080749503476));
#639=CARTESIAN_POINT('',(1.83926560243953E-14,0.,-63.1));
#640=CARTESIAN_POINT('',(1.355,0.,-63.1));
#641=CARTESIAN_POINT('',(10.5,0.,-63.1));
#642=CARTESIAN_POINT('',(1.83132774597213E-14,0.,-62.700436539188));
#643=CARTESIAN_POINT('',(-1.754563460812,0.,-62.700436539188));
#644=CARTESIAN_POINT('',(1.82076576038526E-14,0.,-62.3334747381308));
#645=CARTESIAN_POINT('',(0.,0.,-65.));
#646=MECHANICAL_DESIGN_GEOMETRIC_PRESENTATION_REPRESENTATION('',(#341,#342,
#343,#344,#345,#346,#347,#348,#349),#647);
#647=(
GEOMETRIC_REPRESENTATION_CONTEXT(3)
GLOBAL_UNCERTAINTY_ASSIGNED_CONTEXT((#648))
GLOBAL_UNIT_ASSIGNED_CONTEXT((#654,#650,#649))
REPRESENTATION_CONTEXT('TOOL','TOP_LEVEL_ASSEMBLY_PART')
);
#648=UNCERTAINTY_MEASURE_WITH_UNIT(LENGTH_MEASURE(0.0508),#654,
'DISTANCE_ACCURACY_VALUE','Maximum Tolerance applied to model');
#649=(
NAMED_UNIT(*)
SI_UNIT($,.STERADIAN.)
SOLID_ANGLE_UNIT()
);
#650=(
CONVERSION_BASED_UNIT('DEGREE',#652)
NAMED_UNIT(#651)
PLANE_ANGLE_UNIT()
);
#651=DIMENSIONAL_EXPONENTS(0.,0.,0.,0.,0.,0.,0.);
#652=PLANE_ANGLE_MEASURE_WITH_UNIT(PLANE_ANGLE_MEASURE(0.0174532925),#653);
#653=(
NAMED_UNIT(*)
PLANE_ANGLE_UNIT()
SI_UNIT($,.RADIAN.)
);
#654=(
LENGTH_UNIT()
NAMED_UNIT(*)
SI_UNIT(.MILLI.,.METRE.)
);
ENDSEC;
END-ISO-10303-21;
