ISO-10303-21;
HEADER;
/* Generated by software containing ST-Developer
 * from STEP Tools, Inc. (www.steptools.com) 
 */
/* OPTION: using custom schema-name function */

FILE_DESCRIPTION(
/* description */ (''),
/* implementation_level */ '2;1');

FILE_NAME(
/* name */ 'TOOL.STP',
/* time_stamp */ '2022-10-08T19:48:45+02:00',
/* author */ (''),
/* organization */ ('SMS'),
/* preprocessor_version */ 'ST-DEVELOPER v16.7',
/* originating_system */ 'SIEMENS PLM Software NX 12.0',
/* authorisation */ '');

FILE_SCHEMA (('AUTOMOTIVE_DESIGN { 1 0 10303 214 3 1 1 1 }'));
ENDSEC;

DATA;
#10=CONSTRUCTIVE_GEOMETRY_REPRESENTATION_RELATIONSHIP(
'supplemental geometry','',#26,#11);
#11=CONSTRUCTIVE_GEOMETRY_REPRESENTATION('supplemental geometry',(#251,
#252,#253),#432);
#12=GEOMETRICALLY_BOUNDED_WIREFRAME_SHAPE_REPRESENTATION('Tool-None',(#27),
#432);
#13=SHAPE_REPRESENTATION_RELATIONSHIP('None',
'relationship between Tool-None and Tool-None',#26,#15);
#14=SHAPE_REPRESENTATION_RELATIONSHIP('None',
'relationship between Tool-None and Tool-None',#26,#12);
#15=ADVANCED_BREP_SHAPE_REPRESENTATION('Tool-None',(#38,#39),#432);
#16=SHAPE_DEFINITION_REPRESENTATION(#17,#26);
#17=PRODUCT_DEFINITION_SHAPE('','',#18);
#18=PRODUCT_DEFINITION(' ','',#20,#19);
#19=PRODUCT_DEFINITION_CONTEXT('part definition',#25,'design');
#20=PRODUCT_DEFINITION_FORMATION_WITH_SPECIFIED_SOURCE(' ',' ',#22,
 .NOT_KNOWN.);
#21=PRODUCT_RELATED_PRODUCT_CATEGORY('part','',(#22));
#22=PRODUCT('Tool','Tool',' ',(#23));
#23=PRODUCT_CONTEXT(' ',#25,'mechanical');
#24=APPLICATION_PROTOCOL_DEFINITION('international standard',
'automotive_design',2010,#25);
#25=APPLICATION_CONTEXT(
'core data for automotive mechanical design processes');
#26=SHAPE_REPRESENTATION('Tool-None',(#250),#432);
#27=GEOMETRIC_CURVE_SET('None',(#359,#360,#361,#219));
#28=SURFACE_STYLE_USAGE(.BOTH.,#30);
#29=SURFACE_STYLE_USAGE(.BOTH.,#31);
#30=SURFACE_SIDE_STYLE('',(#32));
#31=SURFACE_SIDE_STYLE('',(#33));
#32=SURFACE_STYLE_FILL_AREA(#34);
#33=SURFACE_STYLE_FILL_AREA(#35);
#34=FILL_AREA_STYLE('',(#36));
#35=FILL_AREA_STYLE('',(#37));
#36=FILL_AREA_STYLE_COLOUR('',#249);
#37=FILL_AREA_STYLE_COLOUR('',#249);
#38=MANIFOLD_SOLID_BREP('NOCUT',#40);
#39=MANIFOLD_SOLID_BREP('CUT',#41);
#40=CLOSED_SHELL('',(#58,#59,#60,#61,#62,#63,#64,#65,#66,#67,#68,#69));
#41=CLOSED_SHELL('',(#70,#71,#72,#73,#74));
#42=PLANE('',#270);
#43=PLANE('',#276);
#44=PLANE('',#278);
#45=PLANE('',#282);
#46=FACE_OUTER_BOUND('',#120,.T.);
#47=FACE_OUTER_BOUND('',#127,.T.);
#48=FACE_OUTER_BOUND('',#128,.T.);
#49=FACE_OUTER_BOUND('',#131,.T.);
#50=TOROIDAL_SURFACE('',#265,1.275,0.3);
#51=TOROIDAL_SURFACE('',#266,1.475,0.5);
#52=CONICAL_SURFACE('',#259,1.6,10.);
#53=CONICAL_SURFACE('',#264,0.974999999999995,31.0000000000002);
#54=CONICAL_SURFACE('',#272,0.343999999999999,45.);
#55=CONICAL_SURFACE('',#275,2.6,45.);
#56=CONICAL_SURFACE('',#284,1.36798371034146,45.);
#57=CONICAL_SURFACE('',#285,0.457123047836328,14.38291170377);
#58=ADVANCED_FACE('',(#80,#81),#75,.T.);
#59=ADVANCED_FACE('',(#82,#83),#52,.T.);
#60=ADVANCED_FACE('',(#84,#85),#76,.T.);
#61=ADVANCED_FACE('',(#86,#87),#53,.T.);
#62=ADVANCED_FACE('',(#88,#89),#50,.F.);
#63=ADVANCED_FACE('',(#90,#91),#51,.F.);
#64=ADVANCED_FACE('',(#92,#93),#77,.T.);
#65=ADVANCED_FACE('',(#46),#42,.F.);
#66=ADVANCED_FACE('',(#94,#95),#54,.T.);
#67=ADVANCED_FACE('',(#96,#97),#78,.T.);
#68=ADVANCED_FACE('',(#98,#99),#55,.T.);
#69=ADVANCED_FACE('',(#47),#43,.T.);
#70=ADVANCED_FACE('',(#48),#44,.T.);
#71=ADVANCED_FACE('',(#100,#101),#79,.T.);
#72=ADVANCED_FACE('',(#49),#45,.F.);
#73=ADVANCED_FACE('',(#102,#103),#56,.T.);
#74=ADVANCED_FACE('',(#104,#105),#57,.T.);
#75=CYLINDRICAL_SURFACE('',#256,1.28798371034148);
#76=CYLINDRICAL_SURFACE('',#262,0.974999999999996);
#77=CYLINDRICAL_SURFACE('',#268,1.4);
#78=CYLINDRICAL_SURFACE('',#274,1.344);
#79=CYLINDRICAL_SURFACE('',#280,1.28798371034148);
#80=FACE_BOUND('',#106,.T.);
#81=FACE_BOUND('',#107,.T.);
#82=FACE_BOUND('',#108,.T.);
#83=FACE_BOUND('',#109,.T.);
#84=FACE_BOUND('',#110,.T.);
#85=FACE_BOUND('',#111,.T.);
#86=FACE_BOUND('',#112,.T.);
#87=FACE_BOUND('',#113,.T.);
#88=FACE_BOUND('',#114,.T.);
#89=FACE_BOUND('',#115,.T.);
#90=FACE_BOUND('',#116,.T.);
#91=FACE_BOUND('',#117,.T.);
#92=FACE_BOUND('',#118,.T.);
#93=FACE_BOUND('',#119,.T.);
#94=FACE_BOUND('',#121,.T.);
#95=FACE_BOUND('',#122,.T.);
#96=FACE_BOUND('',#123,.T.);
#97=FACE_BOUND('',#124,.T.);
#98=FACE_BOUND('',#125,.T.);
#99=FACE_BOUND('',#126,.T.);
#100=FACE_BOUND('',#129,.T.);
#101=FACE_BOUND('',#130,.T.);
#102=FACE_BOUND('',#132,.T.);
#103=FACE_BOUND('',#133,.T.);
#104=FACE_BOUND('',#134,.T.);
#105=FACE_BOUND('',#135,.T.);
#106=EDGE_LOOP('',(#136));
#107=EDGE_LOOP('',(#137));
#108=EDGE_LOOP('',(#138));
#109=EDGE_LOOP('',(#139));
#110=EDGE_LOOP('',(#140));
#111=EDGE_LOOP('',(#141));
#112=EDGE_LOOP('',(#142));
#113=EDGE_LOOP('',(#143));
#114=EDGE_LOOP('',(#144));
#115=EDGE_LOOP('',(#145));
#116=EDGE_LOOP('',(#146));
#117=EDGE_LOOP('',(#147));
#118=EDGE_LOOP('',(#148));
#119=EDGE_LOOP('',(#149));
#120=EDGE_LOOP('',(#150));
#121=EDGE_LOOP('',(#151));
#122=EDGE_LOOP('',(#152));
#123=EDGE_LOOP('',(#153));
#124=EDGE_LOOP('',(#154));
#125=EDGE_LOOP('',(#155));
#126=EDGE_LOOP('',(#156));
#127=EDGE_LOOP('',(#157));
#128=EDGE_LOOP('',(#158));
#129=EDGE_LOOP('',(#159));
#130=EDGE_LOOP('',(#160));
#131=EDGE_LOOP('',(#161));
#132=EDGE_LOOP('',(#162));
#133=EDGE_LOOP('',(#163));
#134=EDGE_LOOP('',(#164));
#135=EDGE_LOOP('',(#165));
#136=ORIENTED_EDGE('',*,*,#181,.T.);
#137=ORIENTED_EDGE('',*,*,#182,.T.);
#138=ORIENTED_EDGE('',*,*,#183,.T.);
#139=ORIENTED_EDGE('',*,*,#184,.F.);
#140=ORIENTED_EDGE('',*,*,#185,.T.);
#141=ORIENTED_EDGE('',*,*,#186,.T.);
#142=ORIENTED_EDGE('',*,*,#187,.T.);
#143=ORIENTED_EDGE('',*,*,#181,.F.);
#144=ORIENTED_EDGE('',*,*,#186,.F.);
#145=ORIENTED_EDGE('',*,*,#187,.F.);
#146=ORIENTED_EDGE('',*,*,#183,.F.);
#147=ORIENTED_EDGE('',*,*,#185,.F.);
#148=ORIENTED_EDGE('',*,*,#184,.T.);
#149=ORIENTED_EDGE('',*,*,#188,.T.);
#150=ORIENTED_EDGE('',*,*,#189,.T.);
#151=ORIENTED_EDGE('',*,*,#189,.F.);
#152=ORIENTED_EDGE('',*,*,#190,.T.);
#153=ORIENTED_EDGE('',*,*,#191,.F.);
#154=ORIENTED_EDGE('',*,*,#190,.F.);
#155=ORIENTED_EDGE('',*,*,#191,.T.);
#156=ORIENTED_EDGE('',*,*,#188,.F.);
#157=ORIENTED_EDGE('',*,*,#182,.F.);
#158=ORIENTED_EDGE('',*,*,#192,.F.);
#159=ORIENTED_EDGE('',*,*,#193,.T.);
#160=ORIENTED_EDGE('',*,*,#192,.T.);
#161=ORIENTED_EDGE('',*,*,#194,.T.);
#162=ORIENTED_EDGE('',*,*,#194,.F.);
#163=ORIENTED_EDGE('',*,*,#195,.F.);
#164=ORIENTED_EDGE('',*,*,#195,.T.);
#165=ORIENTED_EDGE('',*,*,#193,.F.);
#166=VERTEX_POINT('',#385);
#167=VERTEX_POINT('',#387);
#168=VERTEX_POINT('',#390);
#169=VERTEX_POINT('',#392);
#170=VERTEX_POINT('',#395);
#171=VERTEX_POINT('',#397);
#172=VERTEX_POINT('',#400);
#173=VERTEX_POINT('',#405);
#174=VERTEX_POINT('',#408);
#175=VERTEX_POINT('',#411);
#176=VERTEX_POINT('',#414);
#177=VERTEX_POINT('',#419);
#178=VERTEX_POINT('',#422);
#179=VERTEX_POINT('',#425);
#180=VERTEX_POINT('',#428);
#181=EDGE_CURVE('',#166,#166,#196,.T.);
#182=EDGE_CURVE('',#167,#167,#197,.T.);
#183=EDGE_CURVE('',#168,#168,#198,.T.);
#184=EDGE_CURVE('',#169,#169,#199,.T.);
#185=EDGE_CURVE('',#170,#170,#200,.T.);
#186=EDGE_CURVE('',#171,#171,#201,.T.);
#187=EDGE_CURVE('',#172,#172,#202,.T.);
#188=EDGE_CURVE('',#173,#173,#203,.T.);
#189=EDGE_CURVE('',#174,#174,#204,.T.);
#190=EDGE_CURVE('',#175,#175,#205,.T.);
#191=EDGE_CURVE('',#176,#176,#206,.T.);
#192=EDGE_CURVE('',#177,#177,#207,.T.);
#193=EDGE_CURVE('',#178,#178,#208,.T.);
#194=EDGE_CURVE('',#179,#179,#209,.T.);
#195=EDGE_CURVE('',#180,#180,#210,.T.);
#196=CIRCLE('',#254,1.28798371034148);
#197=CIRCLE('',#255,1.28798371034148);
#198=CIRCLE('',#257,0.98259612349389);
#199=CIRCLE('',#258,1.4);
#200=CIRCLE('',#260,0.974999999999996);
#201=CIRCLE('',#261,0.974999999999996);
#202=CIRCLE('',#263,1.01784980978936);
#203=CIRCLE('',#267,1.4);
#204=CIRCLE('',#269,0.343999999999999);
#205=CIRCLE('',#271,1.344);
#206=CIRCLE('',#273,1.344);
#207=CIRCLE('',#277,1.28798371034148);
#208=CIRCLE('',#279,1.28798371034148);
#209=CIRCLE('',#281,0.649999999999989);
#210=CIRCLE('',#283,1.04587329753255);
#211=CURVE_STYLE('',#215,POSITIVE_LENGTH_MEASURE(0.18),#221);
#212=CURVE_STYLE('',#216,POSITIVE_LENGTH_MEASURE(0.13),#248);
#213=CURVE_STYLE('',#217,POSITIVE_LENGTH_MEASURE(0.18),#247);
#214=CURVE_STYLE('',#218,POSITIVE_LENGTH_MEASURE(0.18),#247);
#215=DRAUGHTING_PRE_DEFINED_CURVE_FONT('continuous');
#216=DRAUGHTING_PRE_DEFINED_CURVE_FONT('continuous');
#217=DRAUGHTING_PRE_DEFINED_CURVE_FONT('continuous');
#218=DRAUGHTING_PRE_DEFINED_CURVE_FONT('continuous');
#219=B_SPLINE_CURVE_WITH_KNOTS('CUTTING PART LINE',3,(#362,#363,#364,#365,
#366,#367,#368,#369,#370,#371,#372,#373,#374,#375,#376,#377,#378,#379,#380),
 .UNSPECIFIED.,.T.,.F.,(4,3,3,3,3,3,4),(0.,0.124653531694016,0.521459388676806,
0.58436763428635,0.638550930752706,0.732881910918825,1.),.UNSPECIFIED.);
#220=DRAUGHTING_PRE_DEFINED_COLOUR('white');
#221=DRAUGHTING_PRE_DEFINED_COLOUR('blue');
#222=PRESENTATION_LAYER_ASSIGNMENT('1','Layer 1',(#359,#360,#361,#219,#251,
#252,#253,#38,#39));
#223=STYLED_ITEM('',(#232),#359);
#224=STYLED_ITEM('',(#233),#360);
#225=STYLED_ITEM('',(#234),#361);
#226=STYLED_ITEM('',(#235),#219);
#227=STYLED_ITEM('',(#236),#251);
#228=STYLED_ITEM('',(#237),#252);
#229=STYLED_ITEM('',(#238),#253);
#230=STYLED_ITEM('',(#239),#38);
#231=STYLED_ITEM('',(#240),#39);
#232=PRESENTATION_STYLE_ASSIGNMENT((#241));
#233=PRESENTATION_STYLE_ASSIGNMENT((#242));
#234=PRESENTATION_STYLE_ASSIGNMENT((#243));
#235=PRESENTATION_STYLE_ASSIGNMENT((#211));
#236=PRESENTATION_STYLE_ASSIGNMENT((#212));
#237=PRESENTATION_STYLE_ASSIGNMENT((#213));
#238=PRESENTATION_STYLE_ASSIGNMENT((#214));
#239=PRESENTATION_STYLE_ASSIGNMENT((#28));
#240=PRESENTATION_STYLE_ASSIGNMENT((#29));
#241=POINT_STYLE('',#244,POSITIVE_LENGTH_MEASURE(3.),#247);
#242=POINT_STYLE('',#245,POSITIVE_LENGTH_MEASURE(3.),#220);
#243=POINT_STYLE('',#246,POSITIVE_LENGTH_MEASURE(3.),#247);
#244=PRE_DEFINED_POINT_MARKER_SYMBOL('plus');
#245=PRE_DEFINED_POINT_MARKER_SYMBOL('plus');
#246=PRE_DEFINED_POINT_MARKER_SYMBOL('plus');
#247=COLOUR_RGB('Medium Maroon',0.6,0.4,0.4);
#248=COLOUR_RGB('Silver Gray',0.6,0.6,0.6);
#249=COLOUR_RGB('Pale Sky',0.882337682154574,0.960769054703594,1.);
#250=AXIS2_PLACEMENT_3D('',#358,#286,#287);
#251=AXIS2_PLACEMENT_3D('PCS',#381,#288,#289);
#252=AXIS2_PLACEMENT_3D('MCS',#382,#290,#291);
#253=AXIS2_PLACEMENT_3D('CIP',#383,#292,#293);
#254=AXIS2_PLACEMENT_3D('',#384,#294,#295);
#255=AXIS2_PLACEMENT_3D('',#386,#296,#297);
#256=AXIS2_PLACEMENT_3D('',#388,#298,#299);
#257=AXIS2_PLACEMENT_3D('',#389,#300,#301);
#258=AXIS2_PLACEMENT_3D('',#391,#302,#303);
#259=AXIS2_PLACEMENT_3D('',#393,#304,#305);
#260=AXIS2_PLACEMENT_3D('',#394,#306,#307);
#261=AXIS2_PLACEMENT_3D('',#396,#308,#309);
#262=AXIS2_PLACEMENT_3D('',#398,#310,#311);
#263=AXIS2_PLACEMENT_3D('',#399,#312,#313);
#264=AXIS2_PLACEMENT_3D('',#401,#314,#315);
#265=AXIS2_PLACEMENT_3D('',#402,#316,#317);
#266=AXIS2_PLACEMENT_3D('',#403,#318,#319);
#267=AXIS2_PLACEMENT_3D('',#404,#320,#321);
#268=AXIS2_PLACEMENT_3D('',#406,#322,#323);
#269=AXIS2_PLACEMENT_3D('',#407,#324,#325);
#270=AXIS2_PLACEMENT_3D('',#409,#326,#327);
#271=AXIS2_PLACEMENT_3D('',#410,#328,#329);
#272=AXIS2_PLACEMENT_3D('',#412,#330,#331);
#273=AXIS2_PLACEMENT_3D('',#413,#332,#333);
#274=AXIS2_PLACEMENT_3D('',#415,#334,#335);
#275=AXIS2_PLACEMENT_3D('',#416,#336,#337);
#276=AXIS2_PLACEMENT_3D('',#417,#338,#339);
#277=AXIS2_PLACEMENT_3D('',#418,#340,#341);
#278=AXIS2_PLACEMENT_3D('',#420,#342,#343);
#279=AXIS2_PLACEMENT_3D('',#421,#344,#345);
#280=AXIS2_PLACEMENT_3D('',#423,#346,#347);
#281=AXIS2_PLACEMENT_3D('',#424,#348,#349);
#282=AXIS2_PLACEMENT_3D('',#426,#350,#351);
#283=AXIS2_PLACEMENT_3D('',#427,#352,#353);
#284=AXIS2_PLACEMENT_3D('',#429,#354,#355);
#285=AXIS2_PLACEMENT_3D('',#430,#356,#357);
#286=DIRECTION('',(0.,0.,1.));
#287=DIRECTION('',(1.,0.,0.));
#288=DIRECTION('',(0.,0.,1.));
#289=DIRECTION('',(1.,0.,0.));
#290=DIRECTION('',(0.,0.,1.));
#291=DIRECTION('',(1.,0.,0.));
#292=DIRECTION('',(0.,0.,1.));
#293=DIRECTION('',(1.,0.,0.));
#294=DIRECTION('',(0.,0.,-1.));
#295=DIRECTION('',(-1.,0.,0.));
#296=DIRECTION('',(0.,0.,1.));
#297=DIRECTION('',(-1.,0.,0.));
#298=DIRECTION('',(0.,0.,1.));
#299=DIRECTION('',(1.,0.,0.));
#300=DIRECTION('',(-1.33832791736388E-16,0.,1.));
#301=DIRECTION('',(1.,0.,0.));
#302=DIRECTION('',(0.,0.,1.));
#303=DIRECTION('',(1.,0.,0.));
#304=DIRECTION('',(-1.33832791736388E-16,0.,1.));
#305=DIRECTION('',(1.,0.,3.8998548035144E-17));
#306=DIRECTION('',(1.33832791736388E-16,0.,-1.));
#307=DIRECTION('',(-1.,0.,0.));
#308=DIRECTION('',(-1.33832791736388E-16,0.,1.));
#309=DIRECTION('',(-1.,0.,0.));
#310=DIRECTION('',(1.33832791736388E-16,0.,-1.));
#311=DIRECTION('',(-1.,0.,0.));
#312=DIRECTION('',(1.33832791736388E-16,0.,-1.));
#313=DIRECTION('',(-1.,0.,0.));
#314=DIRECTION('',(1.33832791736388E-16,0.,-1.));
#315=DIRECTION('',(-1.,0.,-2.3059100141394E-17));
#316=DIRECTION('',(1.33832791736388E-16,0.,-1.));
#317=DIRECTION('',(-1.,0.,0.));
#318=DIRECTION('',(1.33832791736388E-16,0.,-1.));
#319=DIRECTION('',(-1.,0.,0.));
#320=DIRECTION('',(0.,0.,-1.));
#321=DIRECTION('',(-1.,0.,0.));
#322=DIRECTION('',(0.,0.,1.));
#323=DIRECTION('',(1.,0.,0.));
#324=DIRECTION('',(0.,0.,1.));
#325=DIRECTION('',(1.,0.,0.));
#326=DIRECTION('',(2.12304299207E-16,0.,-1.));
#327=DIRECTION('',(-1.,0.,-2.12304299207E-16));
#328=DIRECTION('',(0.,0.,1.));
#329=DIRECTION('',(-1.,0.,0.));
#330=DIRECTION('',(0.,0.,-1.));
#331=DIRECTION('',(-1.,0.,0.));
#332=DIRECTION('',(0.,0.,-1.));
#333=DIRECTION('',(1.,0.,0.));
#334=DIRECTION('',(0.,0.,1.));
#335=DIRECTION('',(1.,0.,0.));
#336=DIRECTION('',(0.,0.,-1.));
#337=DIRECTION('',(-1.,0.,1.73022489125953E-17));
#338=DIRECTION('',(0.,0.,-1.));
#339=DIRECTION('',(-1.,0.,0.));
#340=DIRECTION('',(0.,0.,-1.));
#341=DIRECTION('',(1.,0.,0.));
#342=DIRECTION('',(0.,0.,1.));
#343=DIRECTION('',(1.,0.,0.));
#344=DIRECTION('',(0.,0.,1.));
#345=DIRECTION('',(1.,0.,0.));
#346=DIRECTION('',(0.,0.,1.));
#347=DIRECTION('',(1.,0.,0.));
#348=DIRECTION('',(1.54774564896819E-16,0.,-1.));
#349=DIRECTION('',(1.,0.,0.));
#350=DIRECTION('',(-1.54774564896819E-16,0.,1.));
#351=DIRECTION('',(1.,0.,1.52655665885959E-16));
#352=DIRECTION('',(0.,0.,1.));
#353=DIRECTION('',(-1.,0.,0.));
#354=DIRECTION('',(-1.21736430364514E-16,0.,1.));
#355=DIRECTION('',(1.,0.,9.70118040869993E-17));
#356=DIRECTION('',(0.,0.,1.));
#357=DIRECTION('',(1.,0.,-1.89073917544353E-16));
#358=CARTESIAN_POINT('',(0.,0.,0.));
#359=CARTESIAN_POINT('',(0.,0.,-20.));
#360=CARTESIAN_POINT('CRP',(-1.28798371034148,0.,-50.));
#361=CARTESIAN_POINT('CIP_DCSYS',(0.,0.,-50.));
#362=CARTESIAN_POINT('',(-1.28798371034148,0.,-46.));
#363=CARTESIAN_POINT('',(-0.858655806894318,0.,-46.));
#364=CARTESIAN_POINT('',(-0.429327903447159,0.,-46.));
#365=CARTESIAN_POINT('',(0.,0.,-46.));
#366=CARTESIAN_POINT('',(0.,0.,-47.3666666666667));
#367=CARTESIAN_POINT('',(0.,0.,-48.7333333333333));
#368=CARTESIAN_POINT('',(0.,0.,-50.1));
#369=CARTESIAN_POINT('',(-0.216666666666658,0.,-50.1));
#370=CARTESIAN_POINT('',(-0.433333333333317,0.,-50.1));
#371=CARTESIAN_POINT('',(-0.649999999999975,0.,-50.1));
#372=CARTESIAN_POINT('',(-0.781957765844163,0.,-49.9680422341558));
#373=CARTESIAN_POINT('',(-0.91391553168835,0.,-49.8360844683116));
#374=CARTESIAN_POINT('',(-1.04587329753254,0.,-49.7041267024674));
#375=CARTESIAN_POINT('',(-1.12657676846886,0.,-49.389417801645));
#376=CARTESIAN_POINT('',(-1.20728023940517,0.,-49.0747089008225));
#377=CARTESIAN_POINT('',(-1.28798371034148,0.,-48.76));
#378=CARTESIAN_POINT('',(-1.28798371034148,0.,-47.84));
#379=CARTESIAN_POINT('',(-1.28798371034148,0.,-46.92));
#380=CARTESIAN_POINT('',(-1.28798371034148,0.,-46.));
#381=CARTESIAN_POINT('',(0.,0.,0.));
#382=CARTESIAN_POINT('',(0.,0.,-20.));
#383=CARTESIAN_POINT('',(0.,0.,-50.));
#384=CARTESIAN_POINT('',(0.,0.,-45.866857641412));
#385=CARTESIAN_POINT('',(-1.28798371034148,0.,-45.866857641412));
#386=CARTESIAN_POINT('',(0.,0.,-46.));
#387=CARTESIAN_POINT('',(-1.28798371034148,0.,-46.));
#388=CARTESIAN_POINT('',(0.,0.,20.9080749503476));
#389=CARTESIAN_POINT('',(4.03259099086802E-15,0.,-37.4569202429295));
#390=CARTESIAN_POINT('',(0.982596123493894,0.,-37.4569202429295));
#391=CARTESIAN_POINT('',(0.,0.,-35.0897052266625));
#392=CARTESIAN_POINT('',(1.4,0.,-35.0897052266625));
#393=CARTESIAN_POINT('',(3.56397930087205E-15,0.,-33.9554488627389));
#394=CARTESIAN_POINT('',(4.04421090106657E-15,0.,-37.543744331763));
#395=CARTESIAN_POINT('',(-0.974999999999992,0.,-37.543744331763));
#396=CARTESIAN_POINT('',(5.07726937612312E-15,0.,-45.2627679107628));
#397=CARTESIAN_POINT('',(-0.97499999999999,0.,-45.2627679107628));
#398=CARTESIAN_POINT('',(3.56397930087205E-15,0.,-33.9554488627389));
#399=CARTESIAN_POINT('',(5.09794807114784E-15,0.,-45.4172793332358));
#400=CARTESIAN_POINT('',(-1.01784980978936,0.,-45.4172793332358));
#401=CARTESIAN_POINT('',(5.08840391150768E-15,0.,-45.3459652739807));
#402=CARTESIAN_POINT('',(5.07726937612312E-15,0.,-45.2627679107628));
#403=CARTESIAN_POINT('',(4.04421090106657E-15,0.,-37.543744331763));
#404=CARTESIAN_POINT('',(0.,0.,-5.556));
#405=CARTESIAN_POINT('',(-1.4,0.,-5.556));
#406=CARTESIAN_POINT('',(0.,0.,20.9080749503476));
#407=CARTESIAN_POINT('',(0.,0.,0.));
#408=CARTESIAN_POINT('',(0.343999999999999,0.,0.));
#409=CARTESIAN_POINT('',(1.60000000000001,0.,1.698434393656E-16));
#410=CARTESIAN_POINT('',(0.,0.,-1.));
#411=CARTESIAN_POINT('',(-1.344,0.,-1.));
#412=CARTESIAN_POINT('',(0.,0.,0.));
#413=CARTESIAN_POINT('',(0.,0.,-5.5));
#414=CARTESIAN_POINT('',(1.344,0.,-5.5));
#415=CARTESIAN_POINT('',(0.,0.,20.9080749503476));
#416=CARTESIAN_POINT('',(0.,0.,-6.756));
#417=CARTESIAN_POINT('',(0.,0.,-46.));
#418=CARTESIAN_POINT('',(0.,0.,-46.));
#419=CARTESIAN_POINT('',(1.28798371034148,0.,-46.));
#420=CARTESIAN_POINT('',(0.,0.,-46.));
#421=CARTESIAN_POINT('',(0.,0.,-48.76));
#422=CARTESIAN_POINT('',(1.28798371034148,0.,-48.76));
#423=CARTESIAN_POINT('',(0.,0.,20.9080749503476));
#424=CARTESIAN_POINT('',(1.43197342766048E-14,0.,-50.1));
#425=CARTESIAN_POINT('',(0.650000000000004,0.,-50.1));
#426=CARTESIAN_POINT('',(10.5,0.,-50.1));
#427=CARTESIAN_POINT('',(1.42500672870406E-14,0.,-49.7041267024674));
#428=CARTESIAN_POINT('',(-1.04587329753254,0.,-49.7041267024674));
#429=CARTESIAN_POINT('',(1.4210854715202E-14,0.,-49.3820162896585));
#430=CARTESIAN_POINT('',(0.,0.,-52.));
#431=MECHANICAL_DESIGN_GEOMETRIC_PRESENTATION_REPRESENTATION('',(#223,#224,
#225,#226,#227,#228,#229,#230,#231),#432);
#432=(
GEOMETRIC_REPRESENTATION_CONTEXT(3)
GLOBAL_UNCERTAINTY_ASSIGNED_CONTEXT((#433))
GLOBAL_UNIT_ASSIGNED_CONTEXT((#439,#435,#434))
REPRESENTATION_CONTEXT('TOOL','TOP_LEVEL_ASSEMBLY_PART')
);
#433=UNCERTAINTY_MEASURE_WITH_UNIT(LENGTH_MEASURE(2.E-5),#439,
'DISTANCE_ACCURACY_VALUE','Maximum Tolerance applied to model');
#434=(
NAMED_UNIT(*)
SI_UNIT($,.STERADIAN.)
SOLID_ANGLE_UNIT()
);
#435=(
CONVERSION_BASED_UNIT('DEGREE',#437)
NAMED_UNIT(#436)
PLANE_ANGLE_UNIT()
);
#436=DIMENSIONAL_EXPONENTS(0.,0.,0.,0.,0.,0.,0.);
#437=PLANE_ANGLE_MEASURE_WITH_UNIT(PLANE_ANGLE_MEASURE(0.0174532925),#438);
#438=(
NAMED_UNIT(*)
PLANE_ANGLE_UNIT()
SI_UNIT($,.RADIAN.)
);
#439=(
LENGTH_UNIT()
NAMED_UNIT(*)
SI_UNIT(.MILLI.,.METRE.)
);
ENDSEC;
END-ISO-10303-21;
