ISO-10303-21;
HEADER;
/* Generated by software containing ST-Developer
 * from STEP Tools, Inc. (www.steptools.com) 
 */
/* OPTION: using custom schema-name function */

FILE_DESCRIPTION(
/* description */ (''),
/* implementation_level */ '2;1');

FILE_NAME(
/* name */ 'TOOL.STP',
/* time_stamp */ '2022-12-04T05:33:35+01:00',
/* author */ (''),
/* organization */ ('SMS'),
/* preprocessor_version */ 'ST-DEVELOPER v16.7',
/* originating_system */ 'SIEMENS PLM Software NX 12.0',
/* authorisation */ '');

FILE_SCHEMA (('AUTOMOTIVE_DESIGN { 1 0 10303 214 3 1 1 1 }'));
ENDSEC;

DATA;
#10=CONSTRUCTIVE_GEOMETRY_REPRESENTATION_RELATIONSHIP(
'supplemental geometry','',#26,#11);
#11=CONSTRUCTIVE_GEOMETRY_REPRESENTATION('supplemental geometry',(#373,
#374,#375),#648);
#12=GEOMETRICALLY_BOUNDED_WIREFRAME_SHAPE_REPRESENTATION('Tool-None',(#27),
#648);
#13=SHAPE_REPRESENTATION_RELATIONSHIP('None',
'relationship between Tool-None and Tool-None',#26,#15);
#14=SHAPE_REPRESENTATION_RELATIONSHIP('None',
'relationship between Tool-None and Tool-None',#26,#12);
#15=ADVANCED_BREP_SHAPE_REPRESENTATION('Tool-None',(#39,#40),#648);
#16=SHAPE_DEFINITION_REPRESENTATION(#17,#26);
#17=PRODUCT_DEFINITION_SHAPE('','',#18);
#18=PRODUCT_DEFINITION(' ','',#20,#19);
#19=PRODUCT_DEFINITION_CONTEXT('part definition',#25,'design');
#20=PRODUCT_DEFINITION_FORMATION_WITH_SPECIFIED_SOURCE(' ',' ',#22,
 .NOT_KNOWN.);
#21=PRODUCT_RELATED_PRODUCT_CATEGORY('part','',(#22));
#22=PRODUCT('Tool','Tool',' ',(#23));
#23=PRODUCT_CONTEXT(' ',#25,'mechanical');
#24=APPLICATION_PROTOCOL_DEFINITION('international standard',
'automotive_design',2010,#25);
#25=APPLICATION_CONTEXT(
'core data for automotive mechanical design processes');
#26=SHAPE_REPRESENTATION('Tool-None',(#372),#648);
#27=GEOMETRIC_CURVE_SET('None',(#520,#521,#522,#336));
#28=VERTEX_LOOP('',#277);
#29=SURFACE_STYLE_USAGE(.BOTH.,#31);
#30=SURFACE_STYLE_USAGE(.BOTH.,#32);
#31=SURFACE_SIDE_STYLE('',(#33));
#32=SURFACE_SIDE_STYLE('',(#34));
#33=SURFACE_STYLE_FILL_AREA(#35);
#34=SURFACE_STYLE_FILL_AREA(#36);
#35=FILL_AREA_STYLE('',(#37));
#36=FILL_AREA_STYLE('',(#38));
#37=FILL_AREA_STYLE_COLOUR('',#370);
#38=FILL_AREA_STYLE_COLOUR('',#371);
#39=MANIFOLD_SOLID_BREP('NOCUT',#41);
#40=MANIFOLD_SOLID_BREP('CUT',#42);
#41=CLOSED_SHELL('',(#100,#101,#102,#103,#104,#105,#106,#107,#108,#109,
#110,#111,#112,#113,#114,#115,#116,#117));
#42=CLOSED_SHELL('',(#118,#119,#120,#121));
#43=FACE_OUTER_BOUND('',#162,.T.);
#44=FACE_OUTER_BOUND('',#165,.T.);
#45=FACE_OUTER_BOUND('',#166,.T.);
#46=FACE_OUTER_BOUND('',#167,.T.);
#47=FACE_OUTER_BOUND('',#168,.T.);
#48=FACE_OUTER_BOUND('',#169,.T.);
#49=FACE_OUTER_BOUND('',#170,.T.);
#50=FACE_OUTER_BOUND('',#171,.T.);
#51=FACE_OUTER_BOUND('',#172,.T.);
#52=FACE_OUTER_BOUND('',#173,.T.);
#53=FACE_OUTER_BOUND('',#174,.T.);
#54=PLANE('',#398);
#55=PLANE('',#399);
#56=PLANE('',#401);
#57=PLANE('',#402);
#58=PLANE('',#403);
#59=PLANE('',#404);
#60=PLANE('',#405);
#61=PLANE('',#406);
#62=PLANE('',#407);
#63=PLANE('',#408);
#64=PLANE('',#409);
#65=PLANE('',#411);
#66=TOROIDAL_SURFACE('',#397,4.99999999999999,1.5);
#67=ELLIPSE('',#386,4.7517575695736,3.36);
#68=ELLIPSE('',#387,4.7517575695736,3.36);
#69=ELLIPSE('',#388,4.7517575695736,3.36);
#70=ELLIPSE('',#389,4.7517575695736,3.36);
#71=LINE('',#588,#83);
#72=LINE('',#592,#84);
#73=LINE('',#593,#85);
#74=LINE('',#597,#86);
#75=LINE('',#598,#87);
#76=LINE('',#602,#88);
#77=LINE('',#603,#89);
#78=LINE('',#607,#90);
#79=LINE('',#623,#91);
#80=LINE('',#626,#92);
#81=LINE('',#629,#93);
#82=LINE('',#632,#94);
#83=VECTOR('',#445,1.);
#84=VECTOR('',#448,1.);
#85=VECTOR('',#449,1.);
#86=VECTOR('',#452,1.);
#87=VECTOR('',#453,1.);
#88=VECTOR('',#456,1.);
#89=VECTOR('',#457,1.);
#90=VECTOR('',#460,1.);
#91=VECTOR('',#483,1.);
#92=VECTOR('',#488,1.);
#93=VECTOR('',#493,1.);
#94=VECTOR('',#498,1.);
#95=CONICAL_SURFACE('',#384,1.96,45.);
#96=CONICAL_SURFACE('',#396,3.49999999999999,30.0000000000001);
#97=CONICAL_SURFACE('',#400,4.7,45.);
#98=CONICAL_SURFACE('',#415,4.00604205563735,8.2211471011019);
#99=CONICAL_SURFACE('',#416,5.07681168316154,44.9999999999999);
#100=ADVANCED_FACE('FACE1',(#126,#127),#122,.T.);
#101=ADVANCED_FACE('',(#128,#129),#95,.T.);
#102=ADVANCED_FACE('',(#130,#131),#123,.T.);
#103=ADVANCED_FACE('',(#132,#133),#124,.T.);
#104=ADVANCED_FACE('',(#134,#135),#96,.T.);
#105=ADVANCED_FACE('',(#136,#137),#66,.F.);
#106=ADVANCED_FACE('',(#138,#139),#54,.F.);
#107=ADVANCED_FACE('',(#43),#55,.F.);
#108=ADVANCED_FACE('',(#140,#141),#97,.T.);
#109=ADVANCED_FACE('',(#44),#56,.T.);
#110=ADVANCED_FACE('',(#45),#57,.T.);
#111=ADVANCED_FACE('',(#46),#58,.T.);
#112=ADVANCED_FACE('',(#47),#59,.T.);
#113=ADVANCED_FACE('',(#48),#60,.T.);
#114=ADVANCED_FACE('',(#49),#61,.T.);
#115=ADVANCED_FACE('',(#50),#62,.T.);
#116=ADVANCED_FACE('',(#51),#63,.T.);
#117=ADVANCED_FACE('',(#52),#64,.T.);
#118=ADVANCED_FACE('',(#53),#65,.T.);
#119=ADVANCED_FACE('FACE1',(#142,#143),#125,.T.);
#120=ADVANCED_FACE('',(#144,#145),#98,.T.);
#121=ADVANCED_FACE('',(#146,#147),#99,.T.);
#122=CYLINDRICAL_SURFACE('',#378,5.07681168316158);
#123=CYLINDRICAL_SURFACE('',#390,3.36);
#124=CYLINDRICAL_SURFACE('',#393,3.49999999999999);
#125=CYLINDRICAL_SURFACE('',#413,5.07681168316158);
#126=FACE_BOUND('',#148,.T.);
#127=FACE_BOUND('',#149,.T.);
#128=FACE_BOUND('',#150,.T.);
#129=FACE_BOUND('',#151,.T.);
#130=FACE_BOUND('',#152,.T.);
#131=FACE_BOUND('',#153,.T.);
#132=FACE_BOUND('',#154,.T.);
#133=FACE_BOUND('',#155,.T.);
#134=FACE_BOUND('',#156,.T.);
#135=FACE_BOUND('',#157,.T.);
#136=FACE_BOUND('',#158,.T.);
#137=FACE_BOUND('',#159,.T.);
#138=FACE_BOUND('',#160,.T.);
#139=FACE_BOUND('',#161,.T.);
#140=FACE_BOUND('',#163,.T.);
#141=FACE_BOUND('',#164,.T.);
#142=FACE_BOUND('',#175,.T.);
#143=FACE_BOUND('',#176,.T.);
#144=FACE_BOUND('',#177,.T.);
#145=FACE_BOUND('',#178,.T.);
#146=FACE_BOUND('',#179,.T.);
#147=FACE_BOUND('',#28,.T.);
#148=EDGE_LOOP('',(#180));
#149=EDGE_LOOP('',(#181));
#150=EDGE_LOOP('',(#182));
#151=EDGE_LOOP('',(#183,#184,#185,#186,#187,#188,#189,#190));
#152=EDGE_LOOP('',(#191));
#153=EDGE_LOOP('',(#192,#193,#194,#195,#196,#197,#198,#199,#200,#201,#202,
#203,#204,#205,#206,#207));
#154=EDGE_LOOP('',(#208));
#155=EDGE_LOOP('',(#209));
#156=EDGE_LOOP('',(#210));
#157=EDGE_LOOP('',(#211));
#158=EDGE_LOOP('',(#212));
#159=EDGE_LOOP('',(#213));
#160=EDGE_LOOP('',(#214));
#161=EDGE_LOOP('',(#215));
#162=EDGE_LOOP('',(#216));
#163=EDGE_LOOP('',(#217));
#164=EDGE_LOOP('',(#218));
#165=EDGE_LOOP('',(#219,#220,#221,#222));
#166=EDGE_LOOP('',(#223,#224));
#167=EDGE_LOOP('',(#225,#226,#227,#228));
#168=EDGE_LOOP('',(#229,#230));
#169=EDGE_LOOP('',(#231,#232));
#170=EDGE_LOOP('',(#233,#234,#235,#236));
#171=EDGE_LOOP('',(#237,#238,#239,#240));
#172=EDGE_LOOP('',(#241,#242));
#173=EDGE_LOOP('',(#243));
#174=EDGE_LOOP('',(#244));
#175=EDGE_LOOP('',(#245));
#176=EDGE_LOOP('',(#246));
#177=EDGE_LOOP('',(#247));
#178=EDGE_LOOP('',(#248));
#179=EDGE_LOOP('',(#249));
#180=ORIENTED_EDGE('',*,*,#278,.F.);
#181=ORIENTED_EDGE('',*,*,#279,.F.);
#182=ORIENTED_EDGE('',*,*,#280,.F.);
#183=ORIENTED_EDGE('',*,*,#281,.T.);
#184=ORIENTED_EDGE('',*,*,#282,.T.);
#185=ORIENTED_EDGE('',*,*,#283,.T.);
#186=ORIENTED_EDGE('',*,*,#284,.T.);
#187=ORIENTED_EDGE('',*,*,#285,.T.);
#188=ORIENTED_EDGE('',*,*,#286,.T.);
#189=ORIENTED_EDGE('',*,*,#287,.T.);
#190=ORIENTED_EDGE('',*,*,#288,.T.);
#191=ORIENTED_EDGE('',*,*,#289,.F.);
#192=ORIENTED_EDGE('',*,*,#290,.F.);
#193=ORIENTED_EDGE('',*,*,#291,.F.);
#194=ORIENTED_EDGE('',*,*,#292,.F.);
#195=ORIENTED_EDGE('',*,*,#281,.F.);
#196=ORIENTED_EDGE('',*,*,#293,.F.);
#197=ORIENTED_EDGE('',*,*,#294,.F.);
#198=ORIENTED_EDGE('',*,*,#295,.F.);
#199=ORIENTED_EDGE('',*,*,#287,.F.);
#200=ORIENTED_EDGE('',*,*,#296,.F.);
#201=ORIENTED_EDGE('',*,*,#297,.F.);
#202=ORIENTED_EDGE('',*,*,#298,.F.);
#203=ORIENTED_EDGE('',*,*,#285,.F.);
#204=ORIENTED_EDGE('',*,*,#299,.F.);
#205=ORIENTED_EDGE('',*,*,#300,.F.);
#206=ORIENTED_EDGE('',*,*,#301,.F.);
#207=ORIENTED_EDGE('',*,*,#283,.F.);
#208=ORIENTED_EDGE('',*,*,#302,.T.);
#209=ORIENTED_EDGE('',*,*,#303,.T.);
#210=ORIENTED_EDGE('',*,*,#304,.T.);
#211=ORIENTED_EDGE('',*,*,#305,.F.);
#212=ORIENTED_EDGE('',*,*,#302,.F.);
#213=ORIENTED_EDGE('',*,*,#304,.F.);
#214=ORIENTED_EDGE('',*,*,#305,.T.);
#215=ORIENTED_EDGE('',*,*,#278,.T.);
#216=ORIENTED_EDGE('',*,*,#280,.T.);
#217=ORIENTED_EDGE('',*,*,#289,.T.);
#218=ORIENTED_EDGE('',*,*,#303,.F.);
#219=ORIENTED_EDGE('',*,*,#299,.T.);
#220=ORIENTED_EDGE('',*,*,#284,.F.);
#221=ORIENTED_EDGE('',*,*,#301,.T.);
#222=ORIENTED_EDGE('',*,*,#306,.F.);
#223=ORIENTED_EDGE('',*,*,#300,.T.);
#224=ORIENTED_EDGE('',*,*,#306,.T.);
#225=ORIENTED_EDGE('',*,*,#293,.T.);
#226=ORIENTED_EDGE('',*,*,#288,.F.);
#227=ORIENTED_EDGE('',*,*,#295,.T.);
#228=ORIENTED_EDGE('',*,*,#307,.F.);
#229=ORIENTED_EDGE('',*,*,#294,.T.);
#230=ORIENTED_EDGE('',*,*,#307,.T.);
#231=ORIENTED_EDGE('',*,*,#297,.T.);
#232=ORIENTED_EDGE('',*,*,#308,.T.);
#233=ORIENTED_EDGE('',*,*,#296,.T.);
#234=ORIENTED_EDGE('',*,*,#286,.F.);
#235=ORIENTED_EDGE('',*,*,#298,.T.);
#236=ORIENTED_EDGE('',*,*,#308,.F.);
#237=ORIENTED_EDGE('',*,*,#290,.T.);
#238=ORIENTED_EDGE('',*,*,#282,.F.);
#239=ORIENTED_EDGE('',*,*,#292,.T.);
#240=ORIENTED_EDGE('',*,*,#309,.F.);
#241=ORIENTED_EDGE('',*,*,#291,.T.);
#242=ORIENTED_EDGE('',*,*,#309,.T.);
#243=ORIENTED_EDGE('',*,*,#279,.T.);
#244=ORIENTED_EDGE('',*,*,#310,.T.);
#245=ORIENTED_EDGE('',*,*,#311,.T.);
#246=ORIENTED_EDGE('',*,*,#310,.F.);
#247=ORIENTED_EDGE('',*,*,#312,.T.);
#248=ORIENTED_EDGE('',*,*,#311,.F.);
#249=ORIENTED_EDGE('',*,*,#312,.F.);
#250=VERTEX_POINT('',#543);
#251=VERTEX_POINT('',#545);
#252=VERTEX_POINT('',#548);
#253=VERTEX_POINT('',#550);
#254=VERTEX_POINT('',#551);
#255=VERTEX_POINT('',#558);
#256=VERTEX_POINT('',#560);
#257=VERTEX_POINT('',#567);
#258=VERTEX_POINT('',#569);
#259=VERTEX_POINT('',#576);
#260=VERTEX_POINT('',#578);
#261=VERTEX_POINT('',#587);
#262=VERTEX_POINT('',#589);
#263=VERTEX_POINT('',#591);
#264=VERTEX_POINT('',#594);
#265=VERTEX_POINT('',#596);
#266=VERTEX_POINT('',#599);
#267=VERTEX_POINT('',#601);
#268=VERTEX_POINT('',#604);
#269=VERTEX_POINT('',#606);
#270=VERTEX_POINT('',#610);
#271=VERTEX_POINT('',#612);
#272=VERTEX_POINT('',#615);
#273=VERTEX_POINT('',#617);
#274=VERTEX_POINT('',#637);
#275=VERTEX_POINT('',#640);
#276=VERTEX_POINT('',#643);
#277=VERTEX_POINT('',#645);
#278=EDGE_CURVE('',#250,#250,#313,.T.);
#279=EDGE_CURVE('',#251,#251,#314,.T.);
#280=EDGE_CURVE('',#252,#252,#315,.T.);
#281=EDGE_CURVE('',#253,#254,#316,.T.);
#282=EDGE_CURVE('',#254,#255,#337,.T.);
#283=EDGE_CURVE('',#255,#256,#317,.T.);
#284=EDGE_CURVE('',#256,#257,#338,.T.);
#285=EDGE_CURVE('',#257,#258,#318,.T.);
#286=EDGE_CURVE('',#258,#259,#339,.T.);
#287=EDGE_CURVE('',#259,#260,#319,.T.);
#288=EDGE_CURVE('',#260,#253,#340,.T.);
#289=EDGE_CURVE('',#261,#261,#320,.T.);
#290=EDGE_CURVE('',#262,#255,#71,.T.);
#291=EDGE_CURVE('',#263,#262,#67,.T.);
#292=EDGE_CURVE('',#254,#263,#72,.T.);
#293=EDGE_CURVE('',#264,#253,#73,.T.);
#294=EDGE_CURVE('',#265,#264,#68,.T.);
#295=EDGE_CURVE('',#260,#265,#74,.T.);
#296=EDGE_CURVE('',#266,#259,#75,.T.);
#297=EDGE_CURVE('',#267,#266,#69,.T.);
#298=EDGE_CURVE('',#258,#267,#76,.T.);
#299=EDGE_CURVE('',#268,#257,#77,.T.);
#300=EDGE_CURVE('',#269,#268,#70,.T.);
#301=EDGE_CURVE('',#256,#269,#78,.T.);
#302=EDGE_CURVE('',#270,#270,#321,.T.);
#303=EDGE_CURVE('',#271,#271,#322,.T.);
#304=EDGE_CURVE('',#272,#272,#323,.T.);
#305=EDGE_CURVE('',#273,#273,#324,.T.);
#306=EDGE_CURVE('',#268,#269,#79,.T.);
#307=EDGE_CURVE('',#264,#265,#80,.T.);
#308=EDGE_CURVE('',#266,#267,#81,.T.);
#309=EDGE_CURVE('',#262,#263,#82,.T.);
#310=EDGE_CURVE('',#274,#274,#325,.T.);
#311=EDGE_CURVE('',#275,#275,#326,.T.);
#312=EDGE_CURVE('',#276,#276,#327,.T.);
#313=CIRCLE('',#376,5.07681168316157);
#314=CIRCLE('',#377,5.07681168316158);
#315=CIRCLE('',#379,1.96);
#316=CIRCLE('',#380,3.36);
#317=CIRCLE('',#381,3.36);
#318=CIRCLE('',#382,3.36);
#319=CIRCLE('',#383,3.36);
#320=CIRCLE('',#385,3.36);
#321=CIRCLE('',#391,3.49999999999999);
#322=CIRCLE('',#392,3.5);
#323=CIRCLE('',#394,3.70096189432333);
#324=CIRCLE('',#395,4.90181168316156);
#325=CIRCLE('',#410,5.07681168316158);
#326=CIRCLE('',#412,5.07681168316158);
#327=CIRCLE('',#414,4.31610979267069);
#328=CURVE_STYLE('',#332,POSITIVE_LENGTH_MEASURE(0.18),#342);
#329=CURVE_STYLE('',#333,POSITIVE_LENGTH_MEASURE(0.13),#369);
#330=CURVE_STYLE('',#334,POSITIVE_LENGTH_MEASURE(0.18),#368);
#331=CURVE_STYLE('',#335,POSITIVE_LENGTH_MEASURE(0.18),#368);
#332=DRAUGHTING_PRE_DEFINED_CURVE_FONT('continuous');
#333=DRAUGHTING_PRE_DEFINED_CURVE_FONT('continuous');
#334=DRAUGHTING_PRE_DEFINED_CURVE_FONT('continuous');
#335=DRAUGHTING_PRE_DEFINED_CURVE_FONT('continuous');
#336=B_SPLINE_CURVE_WITH_KNOTS('CUTTING PART LINE',3,(#523,#524,#525,#526,
#527,#528,#529,#530,#531,#532,#533,#534,#535,#536,#537,#538),
 .UNSPECIFIED.,.T.,.F.,(4,3,3,3,3,4),(0.,0.103782356700689,0.349372093607252,
0.448413915813183,0.880921035508986,1.),.UNSPECIFIED.);
#337=B_SPLINE_CURVE_WITH_KNOTS('',3,(#552,#553,#554,#555,#556,#557),
 .UNSPECIFIED.,.F.,.F.,(4,2,4),(0.,0.5,1.),.UNSPECIFIED.);
#338=B_SPLINE_CURVE_WITH_KNOTS('',3,(#561,#562,#563,#564,#565,#566),
 .UNSPECIFIED.,.F.,.F.,(4,2,4),(0.,0.5,1.),.UNSPECIFIED.);
#339=B_SPLINE_CURVE_WITH_KNOTS('',3,(#570,#571,#572,#573,#574,#575),
 .UNSPECIFIED.,.F.,.F.,(4,2,4),(0.,0.5,1.),.UNSPECIFIED.);
#340=B_SPLINE_CURVE_WITH_KNOTS('',3,(#579,#580,#581,#582,#583,#584),
 .UNSPECIFIED.,.F.,.F.,(4,2,4),(0.,0.5,1.),.UNSPECIFIED.);
#341=DRAUGHTING_PRE_DEFINED_COLOUR('white');
#342=DRAUGHTING_PRE_DEFINED_COLOUR('blue');
#343=PRESENTATION_LAYER_ASSIGNMENT('1','Layer 1',(#520,#521,#522,#336,#373,
#374,#375,#39,#40));
#344=STYLED_ITEM('',(#353),#520);
#345=STYLED_ITEM('',(#354),#521);
#346=STYLED_ITEM('',(#355),#522);
#347=STYLED_ITEM('',(#356),#336);
#348=STYLED_ITEM('',(#357),#373);
#349=STYLED_ITEM('',(#358),#374);
#350=STYLED_ITEM('',(#359),#375);
#351=STYLED_ITEM('',(#360),#39);
#352=STYLED_ITEM('',(#361),#40);
#353=PRESENTATION_STYLE_ASSIGNMENT((#362));
#354=PRESENTATION_STYLE_ASSIGNMENT((#363));
#355=PRESENTATION_STYLE_ASSIGNMENT((#364));
#356=PRESENTATION_STYLE_ASSIGNMENT((#328));
#357=PRESENTATION_STYLE_ASSIGNMENT((#329));
#358=PRESENTATION_STYLE_ASSIGNMENT((#330));
#359=PRESENTATION_STYLE_ASSIGNMENT((#331));
#360=PRESENTATION_STYLE_ASSIGNMENT((#29));
#361=PRESENTATION_STYLE_ASSIGNMENT((#30));
#362=POINT_STYLE('',#365,POSITIVE_LENGTH_MEASURE(3.),#368);
#363=POINT_STYLE('',#366,POSITIVE_LENGTH_MEASURE(3.),#341);
#364=POINT_STYLE('',#367,POSITIVE_LENGTH_MEASURE(3.),#368);
#365=PRE_DEFINED_POINT_MARKER_SYMBOL('plus');
#366=PRE_DEFINED_POINT_MARKER_SYMBOL('plus');
#367=PRE_DEFINED_POINT_MARKER_SYMBOL('plus');
#368=COLOUR_RGB('Medium Maroon',0.6,0.4,0.4);
#369=COLOUR_RGB('Silver Gray',0.6,0.6,0.6);
#370=COLOUR_RGB('TLS_NOCUT',0.498023956664378,0.498023956664378,0.498023956664378);
#371=COLOUR_RGB('TLS_CUT',0.8,0.8,0.8);
#372=AXIS2_PLACEMENT_3D('',#519,#417,#418);
#373=AXIS2_PLACEMENT_3D('PCS',#539,#419,#420);
#374=AXIS2_PLACEMENT_3D('MCS',#540,#421,#422);
#375=AXIS2_PLACEMENT_3D('CIP',#541,#423,#424);
#376=AXIS2_PLACEMENT_3D('',#542,#425,#426);
#377=AXIS2_PLACEMENT_3D('',#544,#427,#428);
#378=AXIS2_PLACEMENT_3D('',#546,#429,#430);
#379=AXIS2_PLACEMENT_3D('',#547,#431,#432);
#380=AXIS2_PLACEMENT_3D('',#549,#433,#434);
#381=AXIS2_PLACEMENT_3D('',#559,#435,#436);
#382=AXIS2_PLACEMENT_3D('',#568,#437,#438);
#383=AXIS2_PLACEMENT_3D('',#577,#439,#440);
#384=AXIS2_PLACEMENT_3D('',#585,#441,#442);
#385=AXIS2_PLACEMENT_3D('',#586,#443,#444);
#386=AXIS2_PLACEMENT_3D('',#590,#446,#447);
#387=AXIS2_PLACEMENT_3D('',#595,#450,#451);
#388=AXIS2_PLACEMENT_3D('',#600,#454,#455);
#389=AXIS2_PLACEMENT_3D('',#605,#458,#459);
#390=AXIS2_PLACEMENT_3D('',#608,#461,#462);
#391=AXIS2_PLACEMENT_3D('',#609,#463,#464);
#392=AXIS2_PLACEMENT_3D('',#611,#465,#466);
#393=AXIS2_PLACEMENT_3D('',#613,#467,#468);
#394=AXIS2_PLACEMENT_3D('',#614,#469,#470);
#395=AXIS2_PLACEMENT_3D('',#616,#471,#472);
#396=AXIS2_PLACEMENT_3D('',#618,#473,#474);
#397=AXIS2_PLACEMENT_3D('',#619,#475,#476);
#398=AXIS2_PLACEMENT_3D('',#620,#477,#478);
#399=AXIS2_PLACEMENT_3D('',#621,#479,#480);
#400=AXIS2_PLACEMENT_3D('',#622,#481,#482);
#401=AXIS2_PLACEMENT_3D('',#624,#484,#485);
#402=AXIS2_PLACEMENT_3D('',#625,#486,#487);
#403=AXIS2_PLACEMENT_3D('',#627,#489,#490);
#404=AXIS2_PLACEMENT_3D('',#628,#491,#492);
#405=AXIS2_PLACEMENT_3D('',#630,#494,#495);
#406=AXIS2_PLACEMENT_3D('',#631,#496,#497);
#407=AXIS2_PLACEMENT_3D('',#633,#499,#500);
#408=AXIS2_PLACEMENT_3D('',#634,#501,#502);
#409=AXIS2_PLACEMENT_3D('',#635,#503,#504);
#410=AXIS2_PLACEMENT_3D('',#636,#505,#506);
#411=AXIS2_PLACEMENT_3D('',#638,#507,#508);
#412=AXIS2_PLACEMENT_3D('',#639,#509,#510);
#413=AXIS2_PLACEMENT_3D('',#641,#511,#512);
#414=AXIS2_PLACEMENT_3D('',#642,#513,#514);
#415=AXIS2_PLACEMENT_3D('',#644,#515,#516);
#416=AXIS2_PLACEMENT_3D('',#646,#517,#518);
#417=DIRECTION('',(0.,0.,1.));
#418=DIRECTION('',(1.,0.,0.));
#419=DIRECTION('',(0.,0.,1.));
#420=DIRECTION('',(1.,0.,0.));
#421=DIRECTION('',(0.,0.,1.));
#422=DIRECTION('',(1.,0.,0.));
#423=DIRECTION('',(0.,0.,1.));
#424=DIRECTION('',(1.,0.,0.));
#425=DIRECTION('',(0.,0.,1.));
#426=DIRECTION('',(1.,0.,0.));
#427=DIRECTION('',(0.,0.,-1.));
#428=DIRECTION('',(-1.,0.,0.));
#429=DIRECTION('',(0.,0.,1.));
#430=DIRECTION('',(1.,0.,0.));
#431=DIRECTION('',(0.,0.,1.));
#432=DIRECTION('',(1.,0.,0.));
#433=DIRECTION('',(0.,0.,1.));
#434=DIRECTION('',(-1.,0.,0.));
#435=DIRECTION('',(0.,0.,1.));
#436=DIRECTION('',(-1.,0.,0.));
#437=DIRECTION('',(0.,0.,1.));
#438=DIRECTION('',(-1.,0.,0.));
#439=DIRECTION('',(0.,0.,1.));
#440=DIRECTION('',(-1.,0.,0.));
#441=DIRECTION('',(0.,0.,-1.));
#442=DIRECTION('',(-1.,0.,0.));
#443=DIRECTION('',(0.,0.,-1.));
#444=DIRECTION('',(1.,0.,0.));
#445=DIRECTION('',(0.,0.,1.));
#446=DIRECTION('',(0.707106781186548,0.,0.707106781186547));
#447=DIRECTION('',(-0.707106781186547,0.,0.707106781186548));
#448=DIRECTION('',(0.,0.,-1.));
#449=DIRECTION('',(0.,0.,1.));
#450=DIRECTION('',(-2.64204134232937E-15,-0.707106781186548,0.707106781186547));
#451=DIRECTION('',(2.64204134232936E-15,0.707106781186547,0.707106781186548));
#452=DIRECTION('',(0.,0.,-1.));
#453=DIRECTION('',(0.,0.,1.));
#454=DIRECTION('',(-0.707106781186548,1.65668806430732E-15,0.707106781186547));
#455=DIRECTION('',(0.707106781186547,-1.65668806430732E-15,0.707106781186548));
#456=DIRECTION('',(0.,0.,-1.));
#457=DIRECTION('',(0.,0.,1.));
#458=DIRECTION('',(8.28344032153662E-16,0.707106781186548,0.707106781186547));
#459=DIRECTION('',(-8.28344032153662E-16,-0.707106781186547,0.707106781186548));
#460=DIRECTION('',(0.,0.,-1.));
#461=DIRECTION('',(0.,0.,1.));
#462=DIRECTION('',(1.,0.,0.));
#463=DIRECTION('',(-6.90351042373889E-17,0.,1.));
#464=DIRECTION('',(-1.,0.,0.));
#465=DIRECTION('',(0.,0.,-1.));
#466=DIRECTION('',(-1.,0.,0.));
#467=DIRECTION('',(6.90351042373889E-17,0.,-1.));
#468=DIRECTION('',(-1.,0.,0.));
#469=DIRECTION('',(6.90351042373889E-17,0.,-1.));
#470=DIRECTION('',(-1.,0.,0.));
#471=DIRECTION('',(6.90351042373889E-17,0.,-1.));
#472=DIRECTION('',(-1.,0.,0.));
#473=DIRECTION('',(6.90351042373889E-17,0.,-1.));
#474=DIRECTION('',(-1.,0.,-1.43353169075838E-16));
#475=DIRECTION('',(6.90351042373889E-17,0.,-1.));
#476=DIRECTION('',(-1.,0.,0.));
#477=DIRECTION('',(0.,0.,-1.));
#478=DIRECTION('',(-1.,0.,0.));
#479=DIRECTION('',(1.98377303087098E-16,0.,-1.));
#480=DIRECTION('',(-1.,0.,-1.98377303087098E-16));
#481=DIRECTION('',(0.,0.,-1.));
#482=DIRECTION('',(-1.,0.,-3.45321683283927E-17));
#483=DIRECTION('',(1.,-1.17145536458252E-15,0.));
#484=DIRECTION('',(1.17145536458252E-15,1.,0.));
#485=DIRECTION('',(0.,0.,-1.));
#486=DIRECTION('',(8.28344032153662E-16,0.707106781186548,0.707106781186547));
#487=DIRECTION('',(8.29197821516914E-16,0.707106781186547,-0.707106781186548));
#488=DIRECTION('',(-1.,3.7364106986726E-15,0.));
#489=DIRECTION('',(-3.7364106986726E-15,-1.,0.));
#490=DIRECTION('',(0.,0.,-1.));
#491=DIRECTION('',(-2.64204134232936E-15,-0.707106781186548,0.707106781186547));
#492=DIRECTION('',(-2.64198385391268E-15,-0.707106781186547,-0.707106781186548));
#493=DIRECTION('',(2.34291072916505E-15,1.,0.));
#494=DIRECTION('',(-0.707106781186548,1.65668806430732E-15,0.707106781186547));
#495=DIRECTION('',(-0.707106781186547,1.65666091955785E-15,-0.707106781186548));
#496=DIRECTION('',(-1.,2.34291072916505E-15,0.));
#497=DIRECTION('',(0.,0.,-1.));
#498=DIRECTION('',(0.,-1.,0.));
#499=DIRECTION('',(1.,0.,0.));
#500=DIRECTION('',(0.,0.,-1.));
#501=DIRECTION('',(0.707106781186548,0.,0.707106781186547));
#502=DIRECTION('',(0.707106781186547,0.,-0.707106781186548));
#503=DIRECTION('',(0.,0.,-1.));
#504=DIRECTION('',(-1.,0.,0.));
#505=DIRECTION('',(0.,0.,1.));
#506=DIRECTION('',(1.,0.,0.));
#507=DIRECTION('',(0.,0.,1.));
#508=DIRECTION('',(1.,0.,0.));
#509=DIRECTION('',(0.,0.,1.));
#510=DIRECTION('',(1.,0.,0.));
#511=DIRECTION('',(0.,0.,1.));
#512=DIRECTION('',(1.,0.,0.));
#513=DIRECTION('',(0.,0.,1.));
#514=DIRECTION('',(-1.,0.,0.));
#515=DIRECTION('',(0.,0.,1.));
#516=DIRECTION('',(1.,0.,1.8692509650391E-16));
#517=DIRECTION('',(-3.38961890959356E-16,0.,1.));
#518=DIRECTION('',(1.,0.,3.17576841759189E-16));
#519=CARTESIAN_POINT('',(0.,0.,0.));
#520=CARTESIAN_POINT('',(0.,0.,-23.));
#521=CARTESIAN_POINT('CRP',(-4.90181168316157,0.,-90.));
#522=CARTESIAN_POINT('CIP_DCSYS',(0.,0.,-90.));
#523=CARTESIAN_POINT('',(-4.31610979267069,0.,-89.8538902073293));
#524=CARTESIAN_POINT('',(-4.56967708950099,0.,-88.0988438292857));
#525=CARTESIAN_POINT('',(-4.82324438633128,0.,-86.3437974512421));
#526=CARTESIAN_POINT('',(-5.07681168316158,0.,-84.5887510731986));
#527=CARTESIAN_POINT('',(-5.07681168316158,0.,-80.3925007154657));
#528=CARTESIAN_POINT('',(-5.07681168316158,0.,-76.1962503577329));
#529=CARTESIAN_POINT('',(-5.07681168316158,0.,-72.));
#530=CARTESIAN_POINT('',(-3.38454112210772,0.,-72.));
#531=CARTESIAN_POINT('',(-1.69227056105386,0.,-72.));
#532=CARTESIAN_POINT('',(0.,0.,-72.));
#533=CARTESIAN_POINT('',(0.,0.,-79.39));
#534=CARTESIAN_POINT('',(0.,0.,-86.78));
#535=CARTESIAN_POINT('',(-8.88178419700125E-15,0.,-94.1699999999999));
#536=CARTESIAN_POINT('',(-1.43870326422357,0.,-92.7312967357764));
#537=CARTESIAN_POINT('',(-2.87740652844712,0.,-91.2925934715528));
#538=CARTESIAN_POINT('',(-4.31610979267067,0.,-89.8538902073293));
#539=CARTESIAN_POINT('',(0.,0.,0.));
#540=CARTESIAN_POINT('',(0.,0.,-23.));
#541=CARTESIAN_POINT('',(0.,0.,-90.));
#542=CARTESIAN_POINT('',(0.,0.,-71.6968911086755));
#543=CARTESIAN_POINT('',(5.07681168316157,0.,-71.6968911086755));
#544=CARTESIAN_POINT('',(0.,0.,-72.));
#545=CARTESIAN_POINT('',(-5.07681168316158,0.,-72.));
#546=CARTESIAN_POINT('',(0.,0.,-89.0931883168384));
#547=CARTESIAN_POINT('',(0.,0.,0.));
#548=CARTESIAN_POINT('',(1.96,0.,0.));
#549=CARTESIAN_POINT('',(0.,0.,-1.4));
#550=CARTESIAN_POINT('',(1.93056986405589,-2.75000000000001,-1.40000000000001));
#551=CARTESIAN_POINT('',(2.75,-1.93056986405569,-1.40000000000001));
#552=CARTESIAN_POINT('',(2.75,-1.9305698640557,-1.4));
#553=CARTESIAN_POINT('',(2.75,-1.33868652327764,-1.05991900573133));
#554=CARTESIAN_POINT('',(2.75,-0.679895816961771,-0.790039297381964));
#555=CARTESIAN_POINT('',(2.75,0.679577884616834,-0.789960711807218));
#556=CARTESIAN_POINT('',(2.75,1.33903216041099,-1.06011759996745));
#557=CARTESIAN_POINT('',(2.75,1.93056986405593,-1.4000000000001));
#558=CARTESIAN_POINT('',(2.75,1.93056986405599,-1.40000000000002));
#559=CARTESIAN_POINT('',(0.,0.,-1.4));
#560=CARTESIAN_POINT('',(1.93056986405569,2.75,-1.4));
#561=CARTESIAN_POINT('',(1.9305698640557,2.75,-1.4));
#562=CARTESIAN_POINT('',(1.33868652327764,2.75,-1.05991900573133));
#563=CARTESIAN_POINT('',(0.679895816961772,2.75,-0.790039297381964));
#564=CARTESIAN_POINT('',(-0.679577884616833,2.75,-0.789960711807219));
#565=CARTESIAN_POINT('',(-1.33903216041098,2.75,-1.06011759996745));
#566=CARTESIAN_POINT('',(-1.93056986405592,2.75,-1.4000000000001));
#567=CARTESIAN_POINT('',(-1.93056986405599,2.75,-1.40000000000002));
#568=CARTESIAN_POINT('',(0.,0.,-1.4));
#569=CARTESIAN_POINT('',(-2.75,1.9305698640557,-1.40000000000001));
#570=CARTESIAN_POINT('',(-2.75,1.93056986405572,-1.39999999999998));
#571=CARTESIAN_POINT('',(-2.75,1.33903216041077,-1.06011759996735));
#572=CARTESIAN_POINT('',(-2.75,0.679577884616617,-0.789960711807166));
#573=CARTESIAN_POINT('',(-2.75,-0.679895816961962,-0.790039297382015));
#574=CARTESIAN_POINT('',(-2.75,-1.3386865232778,-1.05991900573141));
#575=CARTESIAN_POINT('',(-2.75,-1.93056986405584,-1.40000000000008));
#576=CARTESIAN_POINT('',(-2.75,-1.93056986405589,-1.40000000000001));
#577=CARTESIAN_POINT('',(0.,0.,-1.4));
#578=CARTESIAN_POINT('',(-1.9305698640557,-2.74999999999999,-1.4));
#579=CARTESIAN_POINT('',(-1.93056986405572,-2.74999999999999,-1.39999999999998));
#580=CARTESIAN_POINT('',(-1.33903216041078,-2.75,-1.06011759996735));
#581=CARTESIAN_POINT('',(-0.679577884616619,-2.75,-0.789960711807166));
#582=CARTESIAN_POINT('',(0.679895816961959,-2.75,-0.790039297382016));
#583=CARTESIAN_POINT('',(1.3386865232778,-2.75000000000001,-1.05991900573141));
#584=CARTESIAN_POINT('',(1.93056986405584,-2.75000000000001,-1.40000000000008));
#585=CARTESIAN_POINT('',(0.,0.,0.));
#586=CARTESIAN_POINT('',(0.,0.,-8.8));
#587=CARTESIAN_POINT('',(3.36,0.,-8.8));
#588=CARTESIAN_POINT('',(2.75,1.93056986405569,20.9080749503476));
#589=CARTESIAN_POINT('',(2.75,1.93056986405569,-8.));
#590=CARTESIAN_POINT('',(0.,0.,-5.25));
#591=CARTESIAN_POINT('',(2.75,-1.93056986405569,-8.));
#592=CARTESIAN_POINT('',(2.75,-1.93056986405569,20.9080749503476));
#593=CARTESIAN_POINT('',(1.93056986405568,-2.75000000000001,20.9080749503476));
#594=CARTESIAN_POINT('',(1.93056986405568,-2.75000000000001,-8.));
#595=CARTESIAN_POINT('',(0.,0.,-5.25));
#596=CARTESIAN_POINT('',(-1.9305698640557,-2.74999999999999,-8.));
#597=CARTESIAN_POINT('',(-1.9305698640557,-2.74999999999999,20.9080749503476));
#598=CARTESIAN_POINT('',(-2.75,-1.93056986405568,20.9080749503476));
#599=CARTESIAN_POINT('',(-2.75,-1.93056986405568,-8.));
#600=CARTESIAN_POINT('',(0.,0.,-5.25));
#601=CARTESIAN_POINT('',(-2.75,1.9305698640557,-8.));
#602=CARTESIAN_POINT('',(-2.75,1.9305698640557,20.9080749503476));
#603=CARTESIAN_POINT('',(-1.93056986405569,2.75,20.9080749503476));
#604=CARTESIAN_POINT('',(-1.93056986405569,2.75,-8.));
#605=CARTESIAN_POINT('',(0.,0.,-5.25));
#606=CARTESIAN_POINT('',(1.93056986405569,2.75,-8.));
#607=CARTESIAN_POINT('',(1.93056986405569,2.75,20.9080749503476));
#608=CARTESIAN_POINT('',(0.,0.,20.9080749503476));
#609=CARTESIAN_POINT('',(7.34114617442376E-15,0.,-68.8669582621493));
#610=CARTESIAN_POINT('',(-3.49999999999999,0.,-68.8669582621493));
#611=CARTESIAN_POINT('',(0.,0.,-8.94));
#612=CARTESIAN_POINT('',(-3.5,0.,-8.94));
#613=CARTESIAN_POINT('',(7.32747196252603E-15,0.,-68.668882050796));
#614=CARTESIAN_POINT('',(7.3929225026018E-15,0.,-69.6169582621493));
#615=CARTESIAN_POINT('',(-3.70096189432333,0.,-69.6169582621493));
#616=CARTESIAN_POINT('',(7.5365108834685E-15,0.,-71.6968911086755));
#617=CARTESIAN_POINT('',(-4.90181168316156,0.,-71.6968911086755));
#618=CARTESIAN_POINT('',(7.36889302506847E-15,0.,-69.268882050796));
#619=CARTESIAN_POINT('',(7.34114617442376E-15,0.,-68.8669582621493));
#620=CARTESIAN_POINT('',(5.07681168316157,0.,-71.6968911086755));
#621=CARTESIAN_POINT('',(3.7,0.,3.66998010711131E-16));
#622=CARTESIAN_POINT('',(0.,0.,-10.14));
#623=CARTESIAN_POINT('',(8.25,2.74999999999999,-8.));
#624=CARTESIAN_POINT('',(8.25,2.74999999999999,10.));
#625=CARTESIAN_POINT('',(8.25,2.74999999999999,-8.));
#626=CARTESIAN_POINT('',(-8.25000000000001,-2.74999999999997,-8.));
#627=CARTESIAN_POINT('',(-8.25000000000001,-2.74999999999997,10.));
#628=CARTESIAN_POINT('',(-8.25000000000001,-2.74999999999997,-8.));
#629=CARTESIAN_POINT('',(-2.74999999999998,8.25000000000001,-8.));
#630=CARTESIAN_POINT('',(-2.74999999999998,8.25000000000001,-8.));
#631=CARTESIAN_POINT('',(-2.74999999999998,8.25000000000001,10.));
#632=CARTESIAN_POINT('',(2.75,-8.25,-8.));
#633=CARTESIAN_POINT('',(2.75,-8.25,10.));
#634=CARTESIAN_POINT('',(2.75,-8.25,-8.));
#635=CARTESIAN_POINT('',(0.,0.,-72.));
#636=CARTESIAN_POINT('',(0.,0.,-72.));
#637=CARTESIAN_POINT('',(5.07681168316158,0.,-72.));
#638=CARTESIAN_POINT('',(0.,0.,-72.));
#639=CARTESIAN_POINT('',(0.,0.,-84.5887510731986));
#640=CARTESIAN_POINT('',(5.07681168316158,0.,-84.5887510731986));
#641=CARTESIAN_POINT('',(0.,0.,-89.0931883168384));
#642=CARTESIAN_POINT('',(2.64591123324108E-14,0.,-89.8538902073293));
#643=CARTESIAN_POINT('',(-4.31610979267067,0.,-89.8538902073293));
#644=CARTESIAN_POINT('',(0.,0.,-92.));
#645=CARTESIAN_POINT('',(2.75335310107039E-14,0.,-94.17));
#646=CARTESIAN_POINT('',(2.62012633811537E-14,0.,-89.0931883168384));
#647=MECHANICAL_DESIGN_GEOMETRIC_PRESENTATION_REPRESENTATION('',(#344,#345,
#346,#347,#348,#349,#350,#351,#352),#648);
#648=(
GEOMETRIC_REPRESENTATION_CONTEXT(3)
GLOBAL_UNCERTAINTY_ASSIGNED_CONTEXT((#649))
GLOBAL_UNIT_ASSIGNED_CONTEXT((#655,#651,#650))
REPRESENTATION_CONTEXT('TOOL','TOP_LEVEL_ASSEMBLY_PART')
);
#649=UNCERTAINTY_MEASURE_WITH_UNIT(LENGTH_MEASURE(0.0508),#655,
'DISTANCE_ACCURACY_VALUE','Maximum Tolerance applied to model');
#650=(
NAMED_UNIT(*)
SI_UNIT($,.STERADIAN.)
SOLID_ANGLE_UNIT()
);
#651=(
CONVERSION_BASED_UNIT('DEGREE',#653)
NAMED_UNIT(#652)
PLANE_ANGLE_UNIT()
);
#652=DIMENSIONAL_EXPONENTS(0.,0.,0.,0.,0.,0.,0.);
#653=PLANE_ANGLE_MEASURE_WITH_UNIT(PLANE_ANGLE_MEASURE(0.0174532925),#654);
#654=(
NAMED_UNIT(*)
PLANE_ANGLE_UNIT()
SI_UNIT($,.RADIAN.)
);
#655=(
LENGTH_UNIT()
NAMED_UNIT(*)
SI_UNIT(.MILLI.,.METRE.)
);
ENDSEC;
END-ISO-10303-21;
