ISO-10303-21;
HEADER;
/* Generated by software containing ST-Developer
 * from STEP Tools, Inc. (www.steptools.com) 
 */
/* OPTION: using custom schema-name function */

FILE_DESCRIPTION(
/* description */ (''),
/* implementation_level */ '2;1');

FILE_NAME(
/* name */ 'TOOL.STP',
/* time_stamp */ '2022-12-04T05:36:29+01:00',
/* author */ (''),
/* organization */ ('SMS'),
/* preprocessor_version */ 'ST-DEVELOPER v16.7',
/* originating_system */ 'SIEMENS PLM Software NX 12.0',
/* authorisation */ '');

FILE_SCHEMA (('AUTOMOTIVE_DESIGN { 1 0 10303 214 3 1 1 1 }'));
ENDSEC;

DATA;
#10=CONSTRUCTIVE_GEOMETRY_REPRESENTATION_RELATIONSHIP(
'supplemental geometry','',#26,#11);
#11=CONSTRUCTIVE_GEOMETRY_REPRESENTATION('supplemental geometry',(#362,
#363,#364),#628);
#12=GEOMETRICALLY_BOUNDED_WIREFRAME_SHAPE_REPRESENTATION('Tool-None',(#27),
#628);
#13=SHAPE_REPRESENTATION_RELATIONSHIP('None',
'relationship between Tool-None and Tool-None',#26,#15);
#14=SHAPE_REPRESENTATION_RELATIONSHIP('None',
'relationship between Tool-None and Tool-None',#26,#12);
#15=ADVANCED_BREP_SHAPE_REPRESENTATION('Tool-None',(#39,#40),#628);
#16=SHAPE_DEFINITION_REPRESENTATION(#17,#26);
#17=PRODUCT_DEFINITION_SHAPE('','',#18);
#18=PRODUCT_DEFINITION(' ','',#20,#19);
#19=PRODUCT_DEFINITION_CONTEXT('part definition',#25,'design');
#20=PRODUCT_DEFINITION_FORMATION_WITH_SPECIFIED_SOURCE(' ',' ',#22,
 .NOT_KNOWN.);
#21=PRODUCT_RELATED_PRODUCT_CATEGORY('part','',(#22));
#22=PRODUCT('Tool','Tool',' ',(#23));
#23=PRODUCT_CONTEXT(' ',#25,'mechanical');
#24=APPLICATION_PROTOCOL_DEFINITION('international standard',
'automotive_design',2010,#25);
#25=APPLICATION_CONTEXT(
'core data for automotive mechanical design processes');
#26=SHAPE_REPRESENTATION('Tool-None',(#361),#628);
#27=GEOMETRIC_CURVE_SET('None',(#503,#504,#505,#325));
#28=VERTEX_LOOP('',#268);
#29=SURFACE_STYLE_USAGE(.BOTH.,#31);
#30=SURFACE_STYLE_USAGE(.BOTH.,#32);
#31=SURFACE_SIDE_STYLE('',(#33));
#32=SURFACE_SIDE_STYLE('',(#34));
#33=SURFACE_STYLE_FILL_AREA(#35);
#34=SURFACE_STYLE_FILL_AREA(#36);
#35=FILL_AREA_STYLE('',(#37));
#36=FILL_AREA_STYLE('',(#38));
#37=FILL_AREA_STYLE_COLOUR('',#359);
#38=FILL_AREA_STYLE_COLOUR('',#360);
#39=MANIFOLD_SOLID_BREP('NOCUT',#41);
#40=MANIFOLD_SOLID_BREP('CUT',#42);
#41=CLOSED_SHELL('',(#99,#100,#101,#102,#103,#104,#105,#106,#107,#108,#109,
#110,#111,#112,#113,#114,#115));
#42=CLOSED_SHELL('',(#116,#117,#118,#119));
#43=PLANE('',#386);
#44=PLANE('',#388);
#45=PLANE('',#389);
#46=PLANE('',#390);
#47=PLANE('',#391);
#48=PLANE('',#392);
#49=PLANE('',#393);
#50=PLANE('',#394);
#51=PLANE('',#395);
#52=PLANE('',#396);
#53=PLANE('',#398);
#54=FACE_OUTER_BOUND('',#156,.T.);
#55=FACE_OUTER_BOUND('',#159,.T.);
#56=FACE_OUTER_BOUND('',#160,.T.);
#57=FACE_OUTER_BOUND('',#161,.T.);
#58=FACE_OUTER_BOUND('',#162,.T.);
#59=FACE_OUTER_BOUND('',#163,.T.);
#60=FACE_OUTER_BOUND('',#164,.T.);
#61=FACE_OUTER_BOUND('',#165,.T.);
#62=FACE_OUTER_BOUND('',#166,.T.);
#63=FACE_OUTER_BOUND('',#167,.T.);
#64=FACE_OUTER_BOUND('',#168,.T.);
#65=TOROIDAL_SURFACE('',#385,3.34999999999999,1.1);
#66=ELLIPSE('',#375,3.05470129472588,2.16);
#67=ELLIPSE('',#376,3.05470129472588,2.16);
#68=ELLIPSE('',#377,3.05470129472588,2.16);
#69=ELLIPSE('',#378,3.05470129472588,2.16);
#70=LINE('',#571,#82);
#71=LINE('',#575,#83);
#72=LINE('',#576,#84);
#73=LINE('',#580,#85);
#74=LINE('',#581,#86);
#75=LINE('',#585,#87);
#76=LINE('',#586,#88);
#77=LINE('',#590,#89);
#78=LINE('',#603,#90);
#79=LINE('',#606,#91);
#80=LINE('',#609,#92);
#81=LINE('',#612,#93);
#82=VECTOR('',#432,1.);
#83=VECTOR('',#435,1.);
#84=VECTOR('',#436,1.);
#85=VECTOR('',#439,1.);
#86=VECTOR('',#440,1.);
#87=VECTOR('',#443,1.);
#88=VECTOR('',#444,1.);
#89=VECTOR('',#447,1.);
#90=VECTOR('',#466,1.);
#91=VECTOR('',#471,1.);
#92=VECTOR('',#476,1.);
#93=VECTOR('',#481,1.);
#94=CONICAL_SURFACE('',#373,1.16,45.);
#95=CONICAL_SURFACE('',#384,2.24999999999999,29.9999999999997);
#96=CONICAL_SURFACE('',#387,3.45,45.);
#97=CONICAL_SURFACE('',#402,3.1508578515075,45.);
#98=CONICAL_SURFACE('',#403,2.2297937455288,8.53654425634642);
#99=ADVANCED_FACE('',(#124,#125),#120,.T.);
#100=ADVANCED_FACE('',(#126,#127),#94,.T.);
#101=ADVANCED_FACE('',(#128,#129),#121,.T.);
#102=ADVANCED_FACE('',(#130,#131),#122,.T.);
#103=ADVANCED_FACE('',(#132,#133),#95,.T.);
#104=ADVANCED_FACE('',(#134,#135),#65,.F.);
#105=ADVANCED_FACE('',(#54),#43,.F.);
#106=ADVANCED_FACE('',(#136,#137),#96,.T.);
#107=ADVANCED_FACE('',(#55),#44,.T.);
#108=ADVANCED_FACE('',(#56),#45,.T.);
#109=ADVANCED_FACE('',(#57),#46,.T.);
#110=ADVANCED_FACE('',(#58),#47,.T.);
#111=ADVANCED_FACE('',(#59),#48,.T.);
#112=ADVANCED_FACE('',(#60),#49,.T.);
#113=ADVANCED_FACE('',(#61),#50,.T.);
#114=ADVANCED_FACE('',(#62),#51,.T.);
#115=ADVANCED_FACE('',(#63),#52,.T.);
#116=ADVANCED_FACE('',(#64),#53,.T.);
#117=ADVANCED_FACE('',(#138,#139),#123,.T.);
#118=ADVANCED_FACE('',(#140,#141),#97,.T.);
#119=ADVANCED_FACE('',(#142,#143),#98,.T.);
#120=CYLINDRICAL_SURFACE('',#367,3.05085785150753);
#121=CYLINDRICAL_SURFACE('',#379,2.16);
#122=CYLINDRICAL_SURFACE('',#382,2.24999999999999);
#123=CYLINDRICAL_SURFACE('',#400,3.05085785150753);
#124=FACE_BOUND('',#144,.T.);
#125=FACE_BOUND('',#145,.T.);
#126=FACE_BOUND('',#146,.T.);
#127=FACE_BOUND('',#147,.T.);
#128=FACE_BOUND('',#148,.T.);
#129=FACE_BOUND('',#149,.T.);
#130=FACE_BOUND('',#150,.T.);
#131=FACE_BOUND('',#151,.T.);
#132=FACE_BOUND('',#152,.T.);
#133=FACE_BOUND('',#153,.T.);
#134=FACE_BOUND('',#154,.T.);
#135=FACE_BOUND('',#155,.T.);
#136=FACE_BOUND('',#157,.T.);
#137=FACE_BOUND('',#158,.T.);
#138=FACE_BOUND('',#169,.T.);
#139=FACE_BOUND('',#170,.T.);
#140=FACE_BOUND('',#171,.T.);
#141=FACE_BOUND('',#28,.T.);
#142=FACE_BOUND('',#172,.T.);
#143=FACE_BOUND('',#173,.T.);
#144=EDGE_LOOP('',(#174));
#145=EDGE_LOOP('',(#175));
#146=EDGE_LOOP('',(#176));
#147=EDGE_LOOP('',(#177,#178,#179,#180,#181,#182,#183,#184));
#148=EDGE_LOOP('',(#185));
#149=EDGE_LOOP('',(#186,#187,#188,#189,#190,#191,#192,#193,#194,#195,#196,
#197,#198,#199,#200,#201));
#150=EDGE_LOOP('',(#202));
#151=EDGE_LOOP('',(#203));
#152=EDGE_LOOP('',(#204));
#153=EDGE_LOOP('',(#205));
#154=EDGE_LOOP('',(#206));
#155=EDGE_LOOP('',(#207));
#156=EDGE_LOOP('',(#208));
#157=EDGE_LOOP('',(#209));
#158=EDGE_LOOP('',(#210));
#159=EDGE_LOOP('',(#211,#212,#213,#214));
#160=EDGE_LOOP('',(#215,#216));
#161=EDGE_LOOP('',(#217,#218,#219,#220));
#162=EDGE_LOOP('',(#221,#222));
#163=EDGE_LOOP('',(#223,#224));
#164=EDGE_LOOP('',(#225,#226,#227,#228));
#165=EDGE_LOOP('',(#229,#230,#231,#232));
#166=EDGE_LOOP('',(#233,#234));
#167=EDGE_LOOP('',(#235));
#168=EDGE_LOOP('',(#236));
#169=EDGE_LOOP('',(#237));
#170=EDGE_LOOP('',(#238));
#171=EDGE_LOOP('',(#239));
#172=EDGE_LOOP('',(#240));
#173=EDGE_LOOP('',(#241));
#174=ORIENTED_EDGE('',*,*,#269,.T.);
#175=ORIENTED_EDGE('',*,*,#270,.T.);
#176=ORIENTED_EDGE('',*,*,#271,.F.);
#177=ORIENTED_EDGE('',*,*,#272,.T.);
#178=ORIENTED_EDGE('',*,*,#273,.T.);
#179=ORIENTED_EDGE('',*,*,#274,.T.);
#180=ORIENTED_EDGE('',*,*,#275,.T.);
#181=ORIENTED_EDGE('',*,*,#276,.T.);
#182=ORIENTED_EDGE('',*,*,#277,.T.);
#183=ORIENTED_EDGE('',*,*,#278,.T.);
#184=ORIENTED_EDGE('',*,*,#279,.T.);
#185=ORIENTED_EDGE('',*,*,#280,.F.);
#186=ORIENTED_EDGE('',*,*,#281,.F.);
#187=ORIENTED_EDGE('',*,*,#282,.F.);
#188=ORIENTED_EDGE('',*,*,#283,.F.);
#189=ORIENTED_EDGE('',*,*,#272,.F.);
#190=ORIENTED_EDGE('',*,*,#284,.F.);
#191=ORIENTED_EDGE('',*,*,#285,.F.);
#192=ORIENTED_EDGE('',*,*,#286,.F.);
#193=ORIENTED_EDGE('',*,*,#278,.F.);
#194=ORIENTED_EDGE('',*,*,#287,.F.);
#195=ORIENTED_EDGE('',*,*,#288,.F.);
#196=ORIENTED_EDGE('',*,*,#289,.F.);
#197=ORIENTED_EDGE('',*,*,#276,.F.);
#198=ORIENTED_EDGE('',*,*,#290,.F.);
#199=ORIENTED_EDGE('',*,*,#291,.F.);
#200=ORIENTED_EDGE('',*,*,#292,.F.);
#201=ORIENTED_EDGE('',*,*,#274,.F.);
#202=ORIENTED_EDGE('',*,*,#293,.T.);
#203=ORIENTED_EDGE('',*,*,#294,.T.);
#204=ORIENTED_EDGE('',*,*,#295,.T.);
#205=ORIENTED_EDGE('',*,*,#269,.F.);
#206=ORIENTED_EDGE('',*,*,#293,.F.);
#207=ORIENTED_EDGE('',*,*,#295,.F.);
#208=ORIENTED_EDGE('',*,*,#271,.T.);
#209=ORIENTED_EDGE('',*,*,#280,.T.);
#210=ORIENTED_EDGE('',*,*,#294,.F.);
#211=ORIENTED_EDGE('',*,*,#290,.T.);
#212=ORIENTED_EDGE('',*,*,#275,.F.);
#213=ORIENTED_EDGE('',*,*,#292,.T.);
#214=ORIENTED_EDGE('',*,*,#296,.F.);
#215=ORIENTED_EDGE('',*,*,#291,.T.);
#216=ORIENTED_EDGE('',*,*,#296,.T.);
#217=ORIENTED_EDGE('',*,*,#284,.T.);
#218=ORIENTED_EDGE('',*,*,#279,.F.);
#219=ORIENTED_EDGE('',*,*,#286,.T.);
#220=ORIENTED_EDGE('',*,*,#297,.F.);
#221=ORIENTED_EDGE('',*,*,#285,.T.);
#222=ORIENTED_EDGE('',*,*,#297,.T.);
#223=ORIENTED_EDGE('',*,*,#288,.T.);
#224=ORIENTED_EDGE('',*,*,#298,.T.);
#225=ORIENTED_EDGE('',*,*,#287,.T.);
#226=ORIENTED_EDGE('',*,*,#277,.F.);
#227=ORIENTED_EDGE('',*,*,#289,.T.);
#228=ORIENTED_EDGE('',*,*,#298,.F.);
#229=ORIENTED_EDGE('',*,*,#281,.T.);
#230=ORIENTED_EDGE('',*,*,#273,.F.);
#231=ORIENTED_EDGE('',*,*,#283,.T.);
#232=ORIENTED_EDGE('',*,*,#299,.F.);
#233=ORIENTED_EDGE('',*,*,#282,.T.);
#234=ORIENTED_EDGE('',*,*,#299,.T.);
#235=ORIENTED_EDGE('',*,*,#270,.F.);
#236=ORIENTED_EDGE('',*,*,#300,.F.);
#237=ORIENTED_EDGE('',*,*,#301,.T.);
#238=ORIENTED_EDGE('',*,*,#300,.T.);
#239=ORIENTED_EDGE('',*,*,#302,.F.);
#240=ORIENTED_EDGE('',*,*,#302,.T.);
#241=ORIENTED_EDGE('',*,*,#301,.F.);
#242=VERTEX_POINT('',#526);
#243=VERTEX_POINT('',#528);
#244=VERTEX_POINT('',#531);
#245=VERTEX_POINT('',#533);
#246=VERTEX_POINT('',#534);
#247=VERTEX_POINT('',#541);
#248=VERTEX_POINT('',#543);
#249=VERTEX_POINT('',#550);
#250=VERTEX_POINT('',#552);
#251=VERTEX_POINT('',#559);
#252=VERTEX_POINT('',#561);
#253=VERTEX_POINT('',#570);
#254=VERTEX_POINT('',#572);
#255=VERTEX_POINT('',#574);
#256=VERTEX_POINT('',#577);
#257=VERTEX_POINT('',#579);
#258=VERTEX_POINT('',#582);
#259=VERTEX_POINT('',#584);
#260=VERTEX_POINT('',#587);
#261=VERTEX_POINT('',#589);
#262=VERTEX_POINT('',#593);
#263=VERTEX_POINT('',#595);
#264=VERTEX_POINT('',#598);
#265=VERTEX_POINT('',#617);
#266=VERTEX_POINT('',#620);
#267=VERTEX_POINT('',#623);
#268=VERTEX_POINT('',#624);
#269=EDGE_CURVE('',#242,#242,#303,.T.);
#270=EDGE_CURVE('',#243,#243,#304,.T.);
#271=EDGE_CURVE('',#244,#244,#305,.T.);
#272=EDGE_CURVE('',#245,#246,#306,.T.);
#273=EDGE_CURVE('',#246,#247,#326,.T.);
#274=EDGE_CURVE('',#247,#248,#307,.T.);
#275=EDGE_CURVE('',#248,#249,#327,.T.);
#276=EDGE_CURVE('',#249,#250,#308,.T.);
#277=EDGE_CURVE('',#250,#251,#328,.T.);
#278=EDGE_CURVE('',#251,#252,#309,.T.);
#279=EDGE_CURVE('',#252,#245,#329,.T.);
#280=EDGE_CURVE('',#253,#253,#310,.T.);
#281=EDGE_CURVE('',#254,#247,#70,.T.);
#282=EDGE_CURVE('',#255,#254,#66,.T.);
#283=EDGE_CURVE('',#246,#255,#71,.T.);
#284=EDGE_CURVE('',#256,#245,#72,.T.);
#285=EDGE_CURVE('',#257,#256,#67,.T.);
#286=EDGE_CURVE('',#252,#257,#73,.T.);
#287=EDGE_CURVE('',#258,#251,#74,.T.);
#288=EDGE_CURVE('',#259,#258,#68,.T.);
#289=EDGE_CURVE('',#250,#259,#75,.T.);
#290=EDGE_CURVE('',#260,#249,#76,.T.);
#291=EDGE_CURVE('',#261,#260,#69,.T.);
#292=EDGE_CURVE('',#248,#261,#77,.T.);
#293=EDGE_CURVE('',#262,#262,#311,.T.);
#294=EDGE_CURVE('',#263,#263,#312,.T.);
#295=EDGE_CURVE('',#264,#264,#313,.T.);
#296=EDGE_CURVE('',#260,#261,#78,.T.);
#297=EDGE_CURVE('',#256,#257,#79,.T.);
#298=EDGE_CURVE('',#258,#259,#80,.T.);
#299=EDGE_CURVE('',#254,#255,#81,.T.);
#300=EDGE_CURVE('',#265,#265,#314,.T.);
#301=EDGE_CURVE('',#266,#266,#315,.T.);
#302=EDGE_CURVE('',#267,#267,#316,.T.);
#303=CIRCLE('',#365,3.05085785150753);
#304=CIRCLE('',#366,3.05085785150753);
#305=CIRCLE('',#368,1.16);
#306=CIRCLE('',#369,2.16);
#307=CIRCLE('',#370,2.16);
#308=CIRCLE('',#371,2.16);
#309=CIRCLE('',#372,2.16);
#310=CIRCLE('',#374,2.16);
#311=CIRCLE('',#380,2.24999999999999);
#312=CIRCLE('',#381,2.25);
#313=CIRCLE('',#383,2.39737205583711);
#314=CIRCLE('',#397,3.05085785150753);
#315=CIRCLE('',#399,3.05085785150753);
#316=CIRCLE('',#401,2.56532266844267);
#317=CURVE_STYLE('',#321,POSITIVE_LENGTH_MEASURE(0.18),#331);
#318=CURVE_STYLE('',#322,POSITIVE_LENGTH_MEASURE(0.13),#358);
#319=CURVE_STYLE('',#323,POSITIVE_LENGTH_MEASURE(0.18),#357);
#320=CURVE_STYLE('',#324,POSITIVE_LENGTH_MEASURE(0.18),#357);
#321=DRAUGHTING_PRE_DEFINED_CURVE_FONT('continuous');
#322=DRAUGHTING_PRE_DEFINED_CURVE_FONT('continuous');
#323=DRAUGHTING_PRE_DEFINED_CURVE_FONT('continuous');
#324=DRAUGHTING_PRE_DEFINED_CURVE_FONT('continuous');
#325=B_SPLINE_CURVE_WITH_KNOTS('CUTTING PART LINE',3,(#506,#507,#508,#509,
#510,#511,#512,#513,#514,#515,#516,#517,#518,#519,#520,#521),
 .UNSPECIFIED.,.T.,.F.,(4,3,3,3,3,4),(0.,0.0786107316878515,0.525148737210724,
0.618628340827214,0.702909220792627,1.),.UNSPECIFIED.);
#326=B_SPLINE_CURVE_WITH_KNOTS('',3,(#535,#536,#537,#538,#539,#540),
 .UNSPECIFIED.,.F.,.F.,(4,2,4),(0.,0.5,1.),.UNSPECIFIED.);
#327=B_SPLINE_CURVE_WITH_KNOTS('',3,(#544,#545,#546,#547,#548,#549),
 .UNSPECIFIED.,.F.,.F.,(4,2,4),(0.,0.5,1.),.UNSPECIFIED.);
#328=B_SPLINE_CURVE_WITH_KNOTS('',3,(#553,#554,#555,#556,#557,#558),
 .UNSPECIFIED.,.F.,.F.,(4,2,4),(0.,0.5,1.),.UNSPECIFIED.);
#329=B_SPLINE_CURVE_WITH_KNOTS('',3,(#562,#563,#564,#565,#566,#567),
 .UNSPECIFIED.,.F.,.F.,(4,2,4),(0.,0.5,1.),.UNSPECIFIED.);
#330=DRAUGHTING_PRE_DEFINED_COLOUR('white');
#331=DRAUGHTING_PRE_DEFINED_COLOUR('blue');
#332=PRESENTATION_LAYER_ASSIGNMENT('1','Layer 1',(#503,#504,#505,#325,#362,
#363,#364,#39,#40));
#333=STYLED_ITEM('',(#342),#503);
#334=STYLED_ITEM('',(#343),#504);
#335=STYLED_ITEM('',(#344),#505);
#336=STYLED_ITEM('',(#345),#325);
#337=STYLED_ITEM('',(#346),#362);
#338=STYLED_ITEM('',(#347),#363);
#339=STYLED_ITEM('',(#348),#364);
#340=STYLED_ITEM('',(#349),#39);
#341=STYLED_ITEM('',(#350),#40);
#342=PRESENTATION_STYLE_ASSIGNMENT((#351));
#343=PRESENTATION_STYLE_ASSIGNMENT((#352));
#344=PRESENTATION_STYLE_ASSIGNMENT((#353));
#345=PRESENTATION_STYLE_ASSIGNMENT((#317));
#346=PRESENTATION_STYLE_ASSIGNMENT((#318));
#347=PRESENTATION_STYLE_ASSIGNMENT((#319));
#348=PRESENTATION_STYLE_ASSIGNMENT((#320));
#349=PRESENTATION_STYLE_ASSIGNMENT((#29));
#350=PRESENTATION_STYLE_ASSIGNMENT((#30));
#351=POINT_STYLE('',#354,POSITIVE_LENGTH_MEASURE(3.),#357);
#352=POINT_STYLE('',#355,POSITIVE_LENGTH_MEASURE(3.),#330);
#353=POINT_STYLE('',#356,POSITIVE_LENGTH_MEASURE(3.),#357);
#354=PRE_DEFINED_POINT_MARKER_SYMBOL('plus');
#355=PRE_DEFINED_POINT_MARKER_SYMBOL('plus');
#356=PRE_DEFINED_POINT_MARKER_SYMBOL('plus');
#357=COLOUR_RGB('Medium Maroon',0.6,0.4,0.4);
#358=COLOUR_RGB('Silver Gray',0.6,0.6,0.6);
#359=COLOUR_RGB('TLS_NOCUT',0.498023956664378,0.498023956664378,0.498023956664378);
#360=COLOUR_RGB('TLS_CUT',0.8,0.8,0.8);
#361=AXIS2_PLACEMENT_3D('',#502,#404,#405);
#362=AXIS2_PLACEMENT_3D('PCS',#522,#406,#407);
#363=AXIS2_PLACEMENT_3D('MCS',#523,#408,#409);
#364=AXIS2_PLACEMENT_3D('CIP',#524,#410,#411);
#365=AXIS2_PLACEMENT_3D('',#525,#412,#413);
#366=AXIS2_PLACEMENT_3D('',#527,#414,#415);
#367=AXIS2_PLACEMENT_3D('',#529,#416,#417);
#368=AXIS2_PLACEMENT_3D('',#530,#418,#419);
#369=AXIS2_PLACEMENT_3D('',#532,#420,#421);
#370=AXIS2_PLACEMENT_3D('',#542,#422,#423);
#371=AXIS2_PLACEMENT_3D('',#551,#424,#425);
#372=AXIS2_PLACEMENT_3D('',#560,#426,#427);
#373=AXIS2_PLACEMENT_3D('',#568,#428,#429);
#374=AXIS2_PLACEMENT_3D('',#569,#430,#431);
#375=AXIS2_PLACEMENT_3D('',#573,#433,#434);
#376=AXIS2_PLACEMENT_3D('',#578,#437,#438);
#377=AXIS2_PLACEMENT_3D('',#583,#441,#442);
#378=AXIS2_PLACEMENT_3D('',#588,#445,#446);
#379=AXIS2_PLACEMENT_3D('',#591,#448,#449);
#380=AXIS2_PLACEMENT_3D('',#592,#450,#451);
#381=AXIS2_PLACEMENT_3D('',#594,#452,#453);
#382=AXIS2_PLACEMENT_3D('',#596,#454,#455);
#383=AXIS2_PLACEMENT_3D('',#597,#456,#457);
#384=AXIS2_PLACEMENT_3D('',#599,#458,#459);
#385=AXIS2_PLACEMENT_3D('',#600,#460,#461);
#386=AXIS2_PLACEMENT_3D('',#601,#462,#463);
#387=AXIS2_PLACEMENT_3D('',#602,#464,#465);
#388=AXIS2_PLACEMENT_3D('',#604,#467,#468);
#389=AXIS2_PLACEMENT_3D('',#605,#469,#470);
#390=AXIS2_PLACEMENT_3D('',#607,#472,#473);
#391=AXIS2_PLACEMENT_3D('',#608,#474,#475);
#392=AXIS2_PLACEMENT_3D('',#610,#477,#478);
#393=AXIS2_PLACEMENT_3D('',#611,#479,#480);
#394=AXIS2_PLACEMENT_3D('',#613,#482,#483);
#395=AXIS2_PLACEMENT_3D('',#614,#484,#485);
#396=AXIS2_PLACEMENT_3D('',#615,#486,#487);
#397=AXIS2_PLACEMENT_3D('',#616,#488,#489);
#398=AXIS2_PLACEMENT_3D('',#618,#490,#491);
#399=AXIS2_PLACEMENT_3D('',#619,#492,#493);
#400=AXIS2_PLACEMENT_3D('',#621,#494,#495);
#401=AXIS2_PLACEMENT_3D('',#622,#496,#497);
#402=AXIS2_PLACEMENT_3D('',#625,#498,#499);
#403=AXIS2_PLACEMENT_3D('',#626,#500,#501);
#404=DIRECTION('',(0.,0.,1.));
#405=DIRECTION('',(1.,0.,0.));
#406=DIRECTION('',(0.,0.,1.));
#407=DIRECTION('',(1.,0.,0.));
#408=DIRECTION('',(0.,0.,1.));
#409=DIRECTION('',(1.,0.,0.));
#410=DIRECTION('',(0.,0.,1.));
#411=DIRECTION('',(1.,0.,0.));
#412=DIRECTION('',(0.,0.,-1.));
#413=DIRECTION('',(-1.,0.,0.));
#414=DIRECTION('',(0.,0.,1.));
#415=DIRECTION('',(-1.,0.,0.));
#416=DIRECTION('',(0.,0.,1.));
#417=DIRECTION('',(1.,0.,0.));
#418=DIRECTION('',(0.,0.,1.));
#419=DIRECTION('',(1.,0.,0.));
#420=DIRECTION('',(0.,0.,1.));
#421=DIRECTION('',(-1.,0.,0.));
#422=DIRECTION('',(0.,0.,1.));
#423=DIRECTION('',(-1.,0.,0.));
#424=DIRECTION('',(0.,0.,1.));
#425=DIRECTION('',(-1.,0.,0.));
#426=DIRECTION('',(0.,0.,1.));
#427=DIRECTION('',(-1.,0.,0.));
#428=DIRECTION('',(0.,0.,-1.));
#429=DIRECTION('',(-1.,0.,0.));
#430=DIRECTION('',(0.,0.,-1.));
#431=DIRECTION('',(1.,0.,0.));
#432=DIRECTION('',(0.,0.,1.));
#433=DIRECTION('',(0.707106781186547,0.,0.707106781186548));
#434=DIRECTION('',(-0.707106781186548,0.,0.707106781186547));
#435=DIRECTION('',(0.,0.,-1.));
#436=DIRECTION('',(0.,0.,1.));
#437=DIRECTION('',(-2.64204134232936E-15,-0.707106781186547,0.707106781186548));
#438=DIRECTION('',(2.64204134232937E-15,0.707106781186548,0.707106781186547));
#439=DIRECTION('',(0.,0.,-1.));
#440=DIRECTION('',(0.,0.,1.));
#441=DIRECTION('',(-0.707106781186547,1.65668806430732E-15,0.707106781186548));
#442=DIRECTION('',(0.707106781186548,-1.65668806430733E-15,0.707106781186547));
#443=DIRECTION('',(0.,0.,-1.));
#444=DIRECTION('',(0.,0.,1.));
#445=DIRECTION('',(8.28344032153662E-16,0.707106781186547,0.707106781186548));
#446=DIRECTION('',(-8.28344032153663E-16,-0.707106781186548,0.707106781186547));
#447=DIRECTION('',(0.,0.,-1.));
#448=DIRECTION('',(0.,0.,1.));
#449=DIRECTION('',(1.,0.,0.));
#450=DIRECTION('',(-1.75171902672288E-16,0.,1.));
#451=DIRECTION('',(-1.,0.,0.));
#452=DIRECTION('',(0.,0.,-1.));
#453=DIRECTION('',(-1.,0.,0.));
#454=DIRECTION('',(1.75171902672288E-16,0.,-1.));
#455=DIRECTION('',(-1.,0.,0.));
#456=DIRECTION('',(1.75171902672288E-16,0.,-1.));
#457=DIRECTION('',(-1.,0.,0.));
#458=DIRECTION('',(1.75171902672288E-16,0.,-1.));
#459=DIRECTION('',(-1.,0.,-2.39437221573724E-17));
#460=DIRECTION('',(1.75171902672288E-16,0.,-1.));
#461=DIRECTION('',(-1.,0.,0.));
#462=DIRECTION('',(3.02055201845243E-16,0.,-1.));
#463=DIRECTION('',(-1.,0.,-3.02055201845243E-16));
#464=DIRECTION('',(0.,0.,-1.));
#465=DIRECTION('',(-1.,0.,5.18627776962521E-17));
#466=DIRECTION('',(1.,-1.17145536458252E-15,0.));
#467=DIRECTION('',(1.17145536458252E-15,1.,0.));
#468=DIRECTION('',(0.,0.,-1.));
#469=DIRECTION('',(8.28344032153662E-16,0.707106781186547,0.707106781186548));
#470=DIRECTION('',(8.28330459778925E-16,0.707106781186548,-0.707106781186547));
#471=DIRECTION('',(-1.,3.7364106986726E-15,0.));
#472=DIRECTION('',(-3.7364106986726E-15,-1.,0.));
#473=DIRECTION('',(0.,0.,-1.));
#474=DIRECTION('',(-2.64204134232936E-15,-0.707106781186547,0.707106781186548));
#475=DIRECTION('',(-2.64198385391268E-15,-0.707106781186548,-0.707106781186547));
#476=DIRECTION('',(2.34291072916505E-15,1.,0.));
#477=DIRECTION('',(-0.707106781186547,1.65668806430732E-15,0.707106781186548));
#478=DIRECTION('',(-0.707106781186548,1.65666091955785E-15,-0.707106781186547));
#479=DIRECTION('',(-1.,2.34291072916505E-15,0.));
#480=DIRECTION('',(0.,0.,-1.));
#481=DIRECTION('',(0.,-1.,0.));
#482=DIRECTION('',(1.,0.,0.));
#483=DIRECTION('',(0.,0.,-1.));
#484=DIRECTION('',(0.707106781186547,0.,0.707106781186548));
#485=DIRECTION('',(0.707106781186548,0.,-0.707106781186547));
#486=DIRECTION('',(0.,0.,-1.));
#487=DIRECTION('',(-1.,0.,0.));
#488=DIRECTION('',(0.,0.,-1.));
#489=DIRECTION('',(1.,0.,0.));
#490=DIRECTION('',(0.,0.,1.));
#491=DIRECTION('',(1.,0.,0.));
#492=DIRECTION('',(0.,0.,1.));
#493=DIRECTION('',(1.,0.,0.));
#494=DIRECTION('',(0.,0.,1.));
#495=DIRECTION('',(1.,0.,0.));
#496=DIRECTION('',(0.,0.,1.));
#497=DIRECTION('',(-1.,0.,0.));
#498=DIRECTION('',(-3.34738005679716E-16,0.,1.));
#499=DIRECTION('',(1.,0.,3.87357550040918E-16));
#500=DIRECTION('',(0.,0.,1.));
#501=DIRECTION('',(1.,0.,1.82203396592569E-16));
#502=CARTESIAN_POINT('',(0.,0.,0.));
#503=CARTESIAN_POINT('',(0.,0.,-21.));
#504=CARTESIAN_POINT('CRP',(-3.05085785150753,0.,-80.));
#505=CARTESIAN_POINT('CIP_DCSYS',(0.,0.,-80.));
#506=CARTESIAN_POINT('',(-3.05085785150753,0.,-65.));
#507=CARTESIAN_POINT('',(-2.03390523433835,0.,-65.));
#508=CARTESIAN_POINT('',(-1.01695261716918,0.,-65.));
#509=CARTESIAN_POINT('',(0.,0.,-65.));
#510=CARTESIAN_POINT('',(0.,0.,-70.7766666666667));
#511=CARTESIAN_POINT('',(0.,0.,-76.5533333333333));
#512=CARTESIAN_POINT('',(-1.33226762955019E-15,0.,-82.33));
#513=CARTESIAN_POINT('',(-0.855107556147553,0.,-81.4748924438524));
#514=CARTESIAN_POINT('',(-1.7102151122951,0.,-80.6197848877049));
#515=CARTESIAN_POINT('',(-2.56532266844266,0.,-79.7646773315573));
#516=CARTESIAN_POINT('',(-2.72716772946429,0.,-78.6864515543715));
#517=CARTESIAN_POINT('',(-2.88901279048591,0.,-77.6082257771858));
#518=CARTESIAN_POINT('',(-3.05085785150753,0.,-76.53));
#519=CARTESIAN_POINT('',(-3.05085785150753,0.,-72.6866666666667));
#520=CARTESIAN_POINT('',(-3.05085785150753,0.,-68.8433333333333));
#521=CARTESIAN_POINT('',(-3.05085785150753,0.,-65.));
#522=CARTESIAN_POINT('',(0.,0.,0.));
#523=CARTESIAN_POINT('',(0.,0.,-21.));
#524=CARTESIAN_POINT('',(0.,0.,-80.));
#525=CARTESIAN_POINT('',(0.,0.,-64.8267949192431));
#526=CARTESIAN_POINT('',(-3.05085785150753,0.,-64.8267949192431));
#527=CARTESIAN_POINT('',(0.,0.,-65.));
#528=CARTESIAN_POINT('',(-3.05085785150753,0.,-65.));
#529=CARTESIAN_POINT('',(0.,0.,20.9080749503476));
#530=CARTESIAN_POINT('',(0.,0.,0.));
#531=CARTESIAN_POINT('',(1.16,0.,0.));
#532=CARTESIAN_POINT('',(0.,0.,-1.));
#533=CARTESIAN_POINT('',(1.33251641640935,-1.70000000000001,-1.00000000000002));
#534=CARTESIAN_POINT('',(1.7,-1.33251641640919,-1.));
#535=CARTESIAN_POINT('',(1.7,-1.33251641640919,-1.));
#536=CARTESIAN_POINT('',(1.7,-0.927505629332625,-0.750146517313734));
#537=CARTESIAN_POINT('',(1.7,-0.475124470804366,-0.540151516942148));
#538=CARTESIAN_POINT('',(1.7,0.474039593259608,-0.539848656140097));
#539=CARTESIAN_POINT('',(1.7,0.930788901058469,-0.752171986514761));
#540=CARTESIAN_POINT('',(1.7,1.33251641640919,-1.));
#541=CARTESIAN_POINT('',(1.7,1.33251641640919,-1.));
#542=CARTESIAN_POINT('',(0.,0.,-1.));
#543=CARTESIAN_POINT('',(1.3325164164092,1.7,-1.));
#544=CARTESIAN_POINT('',(1.3325164164092,1.7,-1.));
#545=CARTESIAN_POINT('',(0.927505629332628,1.7,-0.750146517313734));
#546=CARTESIAN_POINT('',(0.475124470804368,1.7,-0.540151516942148));
#547=CARTESIAN_POINT('',(-0.474039593259606,1.7,-0.539848656140097));
#548=CARTESIAN_POINT('',(-0.930788901058466,1.7,-0.752171986514761));
#549=CARTESIAN_POINT('',(-1.33251641640919,1.7,-1.));
#550=CARTESIAN_POINT('',(-1.33251641640919,1.7,-1.));
#551=CARTESIAN_POINT('',(0.,0.,-1.));
#552=CARTESIAN_POINT('',(-1.7,1.3325164164092,-1.));
#553=CARTESIAN_POINT('',(-1.7,1.3325164164092,-1.));
#554=CARTESIAN_POINT('',(-1.7,0.930788901058452,-0.752171986514749));
#555=CARTESIAN_POINT('',(-1.7,0.474039593259564,-0.539848656140077));
#556=CARTESIAN_POINT('',(-1.7,-0.475124470804455,-0.540151516942168));
#557=CARTESIAN_POINT('',(-1.7,-0.927505629332729,-0.750146517313786));
#558=CARTESIAN_POINT('',(-1.7,-1.33251641640931,-1.00000000000007));
#559=CARTESIAN_POINT('',(-1.7,-1.33251641640935,-1.00000000000002));
#560=CARTESIAN_POINT('',(0.,0.,-1.));
#561=CARTESIAN_POINT('',(-1.3325164164092,-1.7,-1.));
#562=CARTESIAN_POINT('',(-1.3325164164092,-1.7,-1.));
#563=CARTESIAN_POINT('',(-0.930788901058455,-1.7,-0.752171986514749));
#564=CARTESIAN_POINT('',(-0.474039593259566,-1.7,-0.539848656140077));
#565=CARTESIAN_POINT('',(0.475124470804453,-1.7,-0.540151516942168));
#566=CARTESIAN_POINT('',(0.927505629332727,-1.7,-0.750146517313786));
#567=CARTESIAN_POINT('',(1.33251641640931,-1.70000000000001,-1.00000000000007));
#568=CARTESIAN_POINT('',(0.,0.,0.));
#569=CARTESIAN_POINT('',(0.,0.,-6.6));
#570=CARTESIAN_POINT('',(2.16,0.,-6.6));
#571=CARTESIAN_POINT('',(1.7,1.33251641640919,20.9080749503476));
#572=CARTESIAN_POINT('',(1.7,1.33251641640919,-6.));
#573=CARTESIAN_POINT('',(0.,0.,-4.3));
#574=CARTESIAN_POINT('',(1.7,-1.33251641640919,-6.));
#575=CARTESIAN_POINT('',(1.7,-1.33251641640919,20.9080749503476));
#576=CARTESIAN_POINT('',(1.33251641640919,-1.70000000000001,20.9080749503476));
#577=CARTESIAN_POINT('',(1.33251641640919,-1.70000000000001,-6.));
#578=CARTESIAN_POINT('',(0.,0.,-4.3));
#579=CARTESIAN_POINT('',(-1.3325164164092,-1.7,-6.));
#580=CARTESIAN_POINT('',(-1.3325164164092,-1.7,20.9080749503476));
#581=CARTESIAN_POINT('',(-1.7,-1.33251641640919,20.9080749503476));
#582=CARTESIAN_POINT('',(-1.7,-1.33251641640919,-6.));
#583=CARTESIAN_POINT('',(0.,0.,-4.3));
#584=CARTESIAN_POINT('',(-1.7,1.3325164164092,-6.));
#585=CARTESIAN_POINT('',(-1.7,1.3325164164092,20.9080749503476));
#586=CARTESIAN_POINT('',(-1.33251641640919,1.7,20.9080749503476));
#587=CARTESIAN_POINT('',(-1.33251641640919,1.7,-6.));
#588=CARTESIAN_POINT('',(0.,0.,-4.3));
#589=CARTESIAN_POINT('',(1.3325164164092,1.7,-6.));
#590=CARTESIAN_POINT('',(1.3325164164092,1.7,20.9080749503476));
#591=CARTESIAN_POINT('',(0.,0.,20.9080749503476));
#592=CARTESIAN_POINT('',(6.68678289808332E-15,0.,-63.1449243191174));
#593=CARTESIAN_POINT('',(-2.24999999999999,0.,-63.1449243191174));
#594=CARTESIAN_POINT('',(0.,0.,-6.69));
#595=CARTESIAN_POINT('',(-2.25,0.,-6.69));
#596=CARTESIAN_POINT('',(6.66133814775094E-15,0.,-62.9996684307916));
#597=CARTESIAN_POINT('',(6.78312744455308E-15,0.,-63.6949243191174));
#598=CARTESIAN_POINT('',(-2.3973720558371,0.,-63.6949243191174));
#599=CARTESIAN_POINT('',(6.73841378492674E-15,0.,-63.4396684307916));
#600=CARTESIAN_POINT('',(6.68678289808332E-15,0.,-63.1449243191174));
#601=CARTESIAN_POINT('',(2.45,0.,3.70017622260423E-16));
#602=CARTESIAN_POINT('',(0.,0.,-7.89000000000001));
#603=CARTESIAN_POINT('',(5.1,1.69999999999999,-6.));
#604=CARTESIAN_POINT('',(5.1,1.69999999999999,10.));
#605=CARTESIAN_POINT('',(5.1,1.69999999999999,-6.));
#606=CARTESIAN_POINT('',(-5.10000000000001,-1.69999999999998,-6.));
#607=CARTESIAN_POINT('',(-5.10000000000001,-1.69999999999998,10.));
#608=CARTESIAN_POINT('',(-5.10000000000001,-1.69999999999998,-6.));
#609=CARTESIAN_POINT('',(-1.69999999999999,5.1,-6.));
#610=CARTESIAN_POINT('',(-1.69999999999999,5.1,-6.));
#611=CARTESIAN_POINT('',(-1.69999999999999,5.1,10.));
#612=CARTESIAN_POINT('',(1.7,-5.1,-6.));
#613=CARTESIAN_POINT('',(1.7,-5.1,10.));
#614=CARTESIAN_POINT('',(1.7,-5.1,-6.));
#615=CARTESIAN_POINT('',(0.,0.,-65.));
#616=CARTESIAN_POINT('',(0.,0.,-65.));
#617=CARTESIAN_POINT('',(3.05085785150753,0.,-65.));
#618=CARTESIAN_POINT('',(0.,0.,-65.));
#619=CARTESIAN_POINT('',(0.,0.,-76.53));
#620=CARTESIAN_POINT('',(3.05085785150753,0.,-76.53));
#621=CARTESIAN_POINT('',(0.,0.,20.9080749503476));
#622=CARTESIAN_POINT('',(2.32886397916377E-14,0.,-79.7646773315573));
#623=CARTESIAN_POINT('',(-2.56532266844265,0.,-79.7646773315573));
#624=CARTESIAN_POINT('',(2.39808173319034E-14,0.,-82.33));
#625=CARTESIAN_POINT('',(2.30926389122033E-14,0.,-79.1791421484925));
#626=CARTESIAN_POINT('',(0.,0.,-82.));
#627=MECHANICAL_DESIGN_GEOMETRIC_PRESENTATION_REPRESENTATION('',(#333,#334,
#335,#336,#337,#338,#339,#340,#341),#628);
#628=(
GEOMETRIC_REPRESENTATION_CONTEXT(3)
GLOBAL_UNCERTAINTY_ASSIGNED_CONTEXT((#629))
GLOBAL_UNIT_ASSIGNED_CONTEXT((#635,#631,#630))
REPRESENTATION_CONTEXT('TOOL','TOP_LEVEL_ASSEMBLY_PART')
);
#629=UNCERTAINTY_MEASURE_WITH_UNIT(LENGTH_MEASURE(0.0508),#635,
'DISTANCE_ACCURACY_VALUE','Maximum Tolerance applied to model');
#630=(
NAMED_UNIT(*)
SI_UNIT($,.STERADIAN.)
SOLID_ANGLE_UNIT()
);
#631=(
CONVERSION_BASED_UNIT('DEGREE',#633)
NAMED_UNIT(#632)
PLANE_ANGLE_UNIT()
);
#632=DIMENSIONAL_EXPONENTS(0.,0.,0.,0.,0.,0.,0.);
#633=PLANE_ANGLE_MEASURE_WITH_UNIT(PLANE_ANGLE_MEASURE(0.0174532925),#634);
#634=(
NAMED_UNIT(*)
PLANE_ANGLE_UNIT()
SI_UNIT($,.RADIAN.)
);
#635=(
LENGTH_UNIT()
NAMED_UNIT(*)
SI_UNIT(.MILLI.,.METRE.)
);
ENDSEC;
END-ISO-10303-21;
