ISO-10303-21;
HEADER;
/* Generated by software containing ST-Developer
 * from STEP Tools, Inc. (www.steptools.com) 
 */
/* OPTION: using custom schema-name function */

FILE_DESCRIPTION(
/* description */ (''),
/* implementation_level */ '2;1');

FILE_NAME(
/* name */ 'TOOL.STP',
/* time_stamp */ '2023-04-19T07:18:00+02:00',
/* author */ (''),
/* organization */ ('SMS'),
/* preprocessor_version */ 'ST-DEVELOPER v16.7',
/* originating_system */ 'SIEMENS PLM Software NX 12.0',
/* authorisation */ '');

FILE_SCHEMA (('AUTOMOTIVE_DESIGN { 1 0 10303 214 3 1 1 1 }'));
ENDSEC;

DATA;
#10=CONSTRUCTIVE_GEOMETRY_REPRESENTATION_RELATIONSHIP(
'supplemental geometry','',#26,#11);
#11=CONSTRUCTIVE_GEOMETRY_REPRESENTATION('supplemental geometry',(#359,
#360,#361),#627);
#12=GEOMETRICALLY_BOUNDED_WIREFRAME_SHAPE_REPRESENTATION('Tool-None',(#27),
#627);
#13=SHAPE_REPRESENTATION_RELATIONSHIP('None',
'relationship between Tool-None and Tool-None',#26,#15);
#14=SHAPE_REPRESENTATION_RELATIONSHIP('None',
'relationship between Tool-None and Tool-None',#26,#12);
#15=ADVANCED_BREP_SHAPE_REPRESENTATION('Tool-None',(#38,#39),#627);
#16=SHAPE_DEFINITION_REPRESENTATION(#17,#26);
#17=PRODUCT_DEFINITION_SHAPE('','',#18);
#18=PRODUCT_DEFINITION(' ','',#20,#19);
#19=PRODUCT_DEFINITION_CONTEXT('part definition',#25,'design');
#20=PRODUCT_DEFINITION_FORMATION_WITH_SPECIFIED_SOURCE(' ',' ',#22,
 .NOT_KNOWN.);
#21=PRODUCT_RELATED_PRODUCT_CATEGORY('part','',(#22));
#22=PRODUCT('Tool','Tool',' ',(#23));
#23=PRODUCT_CONTEXT(' ',#25,'mechanical');
#24=APPLICATION_PROTOCOL_DEFINITION('international standard',
'automotive_design',2010,#25);
#25=APPLICATION_CONTEXT(
'core data for automotive mechanical design processes');
#26=SHAPE_REPRESENTATION('Tool-None',(#358),#627);
#27=GEOMETRIC_CURVE_SET('None',(#500,#501,#502,#322));
#28=SURFACE_STYLE_USAGE(.BOTH.,#30);
#29=SURFACE_STYLE_USAGE(.BOTH.,#31);
#30=SURFACE_SIDE_STYLE('',(#32));
#31=SURFACE_SIDE_STYLE('',(#33));
#32=SURFACE_STYLE_FILL_AREA(#34);
#33=SURFACE_STYLE_FILL_AREA(#35);
#34=FILL_AREA_STYLE('',(#36));
#35=FILL_AREA_STYLE('',(#37));
#36=FILL_AREA_STYLE_COLOUR('',#356);
#37=FILL_AREA_STYLE_COLOUR('',#357);
#38=MANIFOLD_SOLID_BREP('NOCUT',#40);
#39=MANIFOLD_SOLID_BREP('CUT',#41);
#40=CLOSED_SHELL('',(#98,#99,#100,#101,#102,#103,#104,#105,#106,#107,#108,
#109,#110,#111,#112,#113));
#41=CLOSED_SHELL('',(#114,#115,#116,#117,#118));
#42=PLANE('',#381);
#43=PLANE('',#383);
#44=PLANE('',#384);
#45=PLANE('',#385);
#46=PLANE('',#386);
#47=PLANE('',#387);
#48=PLANE('',#388);
#49=PLANE('',#389);
#50=PLANE('',#390);
#51=PLANE('',#391);
#52=PLANE('',#393);
#53=PLANE('',#400);
#54=FACE_OUTER_BOUND('',#152,.T.);
#55=FACE_OUTER_BOUND('',#155,.T.);
#56=FACE_OUTER_BOUND('',#156,.T.);
#57=FACE_OUTER_BOUND('',#157,.T.);
#58=FACE_OUTER_BOUND('',#158,.T.);
#59=FACE_OUTER_BOUND('',#159,.T.);
#60=FACE_OUTER_BOUND('',#160,.T.);
#61=FACE_OUTER_BOUND('',#161,.T.);
#62=FACE_OUTER_BOUND('',#162,.T.);
#63=FACE_OUTER_BOUND('',#163,.T.);
#64=FACE_OUTER_BOUND('',#164,.T.);
#65=FACE_OUTER_BOUND('',#171,.T.);
#66=TOROIDAL_SURFACE('',#380,4.59999999999999,1.1);
#67=CYLINDRICAL_SURFACE('',#373,3.36);
#68=CYLINDRICAL_SURFACE('',#376,3.49999999999999);
#69=CYLINDRICAL_SURFACE('',#397,5.07506342767823);
#70=ELLIPSE('',#369,4.7517575695736,3.36);
#71=ELLIPSE('',#370,4.7517575695736,3.36);
#72=ELLIPSE('',#371,4.7517575695736,3.36);
#73=ELLIPSE('',#372,4.7517575695736,3.36);
#74=LINE('',#566,#86);
#75=LINE('',#570,#87);
#76=LINE('',#571,#88);
#77=LINE('',#575,#89);
#78=LINE('',#576,#90);
#79=LINE('',#580,#91);
#80=LINE('',#581,#92);
#81=LINE('',#585,#93);
#82=LINE('',#600,#94);
#83=LINE('',#603,#95);
#84=LINE('',#606,#96);
#85=LINE('',#609,#97);
#86=VECTOR('',#423,1.);
#87=VECTOR('',#426,1.);
#88=VECTOR('',#427,1.);
#89=VECTOR('',#430,1.);
#90=VECTOR('',#431,1.);
#91=VECTOR('',#434,1.);
#92=VECTOR('',#435,1.);
#93=VECTOR('',#438,1.);
#94=VECTOR('',#459,1.);
#95=VECTOR('',#464,1.);
#96=VECTOR('',#469,1.);
#97=VECTOR('',#474,1.);
#98=ADVANCED_FACE('',(#124,#125),#119,.T.);
#99=ADVANCED_FACE('',(#126,#127),#67,.T.);
#100=ADVANCED_FACE('',(#128,#129),#68,.T.);
#101=ADVANCED_FACE('',(#130,#131),#120,.T.);
#102=ADVANCED_FACE('',(#132,#133),#66,.F.);
#103=ADVANCED_FACE('',(#54),#42,.F.);
#104=ADVANCED_FACE('',(#134,#135),#121,.T.);
#105=ADVANCED_FACE('',(#55),#43,.T.);
#106=ADVANCED_FACE('',(#56),#44,.T.);
#107=ADVANCED_FACE('',(#57),#45,.T.);
#108=ADVANCED_FACE('',(#58),#46,.T.);
#109=ADVANCED_FACE('',(#59),#47,.T.);
#110=ADVANCED_FACE('',(#60),#48,.T.);
#111=ADVANCED_FACE('',(#61),#49,.T.);
#112=ADVANCED_FACE('',(#62),#50,.T.);
#113=ADVANCED_FACE('',(#63),#51,.T.);
#114=ADVANCED_FACE('',(#64),#52,.T.);
#115=ADVANCED_FACE('',(#136,#137),#122,.T.);
#116=ADVANCED_FACE('',(#138,#139),#69,.T.);
#117=ADVANCED_FACE('',(#140,#141),#123,.T.);
#118=ADVANCED_FACE('',(#65),#53,.F.);
#119=CONICAL_SURFACE('',#367,1.96,45.);
#120=CONICAL_SURFACE('',#379,3.49999999999999,29.9999999999998);
#121=CONICAL_SURFACE('',#382,4.7,44.9999999999999);
#122=CONICAL_SURFACE('',#395,3.87107030759478,8.00000000000004);
#123=CONICAL_SURFACE('',#399,3.87449932532493,14.1844603700893);
#124=FACE_BOUND('',#142,.T.);
#125=FACE_BOUND('',#143,.T.);
#126=FACE_BOUND('',#144,.T.);
#127=FACE_BOUND('',#145,.T.);
#128=FACE_BOUND('',#146,.T.);
#129=FACE_BOUND('',#147,.T.);
#130=FACE_BOUND('',#148,.T.);
#131=FACE_BOUND('',#149,.T.);
#132=FACE_BOUND('',#150,.T.);
#133=FACE_BOUND('',#151,.T.);
#134=FACE_BOUND('',#153,.T.);
#135=FACE_BOUND('',#154,.T.);
#136=FACE_BOUND('',#165,.T.);
#137=FACE_BOUND('',#166,.T.);
#138=FACE_BOUND('',#167,.T.);
#139=FACE_BOUND('',#168,.T.);
#140=FACE_BOUND('',#169,.T.);
#141=FACE_BOUND('',#170,.T.);
#142=EDGE_LOOP('',(#172));
#143=EDGE_LOOP('',(#173,#174,#175,#176,#177,#178,#179,#180));
#144=EDGE_LOOP('',(#181));
#145=EDGE_LOOP('',(#182,#183,#184,#185,#186,#187,#188,#189,#190,#191,#192,
#193,#194,#195,#196,#197));
#146=EDGE_LOOP('',(#198));
#147=EDGE_LOOP('',(#199));
#148=EDGE_LOOP('',(#200));
#149=EDGE_LOOP('',(#201));
#150=EDGE_LOOP('',(#202));
#151=EDGE_LOOP('',(#203));
#152=EDGE_LOOP('',(#204));
#153=EDGE_LOOP('',(#205));
#154=EDGE_LOOP('',(#206));
#155=EDGE_LOOP('',(#207,#208,#209,#210));
#156=EDGE_LOOP('',(#211,#212));
#157=EDGE_LOOP('',(#213,#214,#215,#216));
#158=EDGE_LOOP('',(#217,#218));
#159=EDGE_LOOP('',(#219,#220));
#160=EDGE_LOOP('',(#221,#222,#223,#224));
#161=EDGE_LOOP('',(#225,#226,#227,#228));
#162=EDGE_LOOP('',(#229,#230));
#163=EDGE_LOOP('',(#231));
#164=EDGE_LOOP('',(#232));
#165=EDGE_LOOP('',(#233));
#166=EDGE_LOOP('',(#234));
#167=EDGE_LOOP('',(#235));
#168=EDGE_LOOP('',(#236));
#169=EDGE_LOOP('',(#237));
#170=EDGE_LOOP('',(#238));
#171=EDGE_LOOP('',(#239));
#172=ORIENTED_EDGE('',*,*,#266,.F.);
#173=ORIENTED_EDGE('',*,*,#267,.T.);
#174=ORIENTED_EDGE('',*,*,#268,.T.);
#175=ORIENTED_EDGE('',*,*,#269,.T.);
#176=ORIENTED_EDGE('',*,*,#270,.T.);
#177=ORIENTED_EDGE('',*,*,#271,.T.);
#178=ORIENTED_EDGE('',*,*,#272,.T.);
#179=ORIENTED_EDGE('',*,*,#273,.T.);
#180=ORIENTED_EDGE('',*,*,#274,.T.);
#181=ORIENTED_EDGE('',*,*,#275,.F.);
#182=ORIENTED_EDGE('',*,*,#276,.F.);
#183=ORIENTED_EDGE('',*,*,#277,.F.);
#184=ORIENTED_EDGE('',*,*,#278,.F.);
#185=ORIENTED_EDGE('',*,*,#267,.F.);
#186=ORIENTED_EDGE('',*,*,#279,.F.);
#187=ORIENTED_EDGE('',*,*,#280,.F.);
#188=ORIENTED_EDGE('',*,*,#281,.F.);
#189=ORIENTED_EDGE('',*,*,#273,.F.);
#190=ORIENTED_EDGE('',*,*,#282,.F.);
#191=ORIENTED_EDGE('',*,*,#283,.F.);
#192=ORIENTED_EDGE('',*,*,#284,.F.);
#193=ORIENTED_EDGE('',*,*,#271,.F.);
#194=ORIENTED_EDGE('',*,*,#285,.F.);
#195=ORIENTED_EDGE('',*,*,#286,.F.);
#196=ORIENTED_EDGE('',*,*,#287,.F.);
#197=ORIENTED_EDGE('',*,*,#269,.F.);
#198=ORIENTED_EDGE('',*,*,#288,.T.);
#199=ORIENTED_EDGE('',*,*,#289,.T.);
#200=ORIENTED_EDGE('',*,*,#290,.T.);
#201=ORIENTED_EDGE('',*,*,#291,.F.);
#202=ORIENTED_EDGE('',*,*,#288,.F.);
#203=ORIENTED_EDGE('',*,*,#290,.F.);
#204=ORIENTED_EDGE('',*,*,#266,.T.);
#205=ORIENTED_EDGE('',*,*,#275,.T.);
#206=ORIENTED_EDGE('',*,*,#289,.F.);
#207=ORIENTED_EDGE('',*,*,#285,.T.);
#208=ORIENTED_EDGE('',*,*,#270,.F.);
#209=ORIENTED_EDGE('',*,*,#287,.T.);
#210=ORIENTED_EDGE('',*,*,#292,.F.);
#211=ORIENTED_EDGE('',*,*,#286,.T.);
#212=ORIENTED_EDGE('',*,*,#292,.T.);
#213=ORIENTED_EDGE('',*,*,#279,.T.);
#214=ORIENTED_EDGE('',*,*,#274,.F.);
#215=ORIENTED_EDGE('',*,*,#281,.T.);
#216=ORIENTED_EDGE('',*,*,#293,.F.);
#217=ORIENTED_EDGE('',*,*,#280,.T.);
#218=ORIENTED_EDGE('',*,*,#293,.T.);
#219=ORIENTED_EDGE('',*,*,#283,.T.);
#220=ORIENTED_EDGE('',*,*,#294,.T.);
#221=ORIENTED_EDGE('',*,*,#282,.T.);
#222=ORIENTED_EDGE('',*,*,#272,.F.);
#223=ORIENTED_EDGE('',*,*,#284,.T.);
#224=ORIENTED_EDGE('',*,*,#294,.F.);
#225=ORIENTED_EDGE('',*,*,#276,.T.);
#226=ORIENTED_EDGE('',*,*,#268,.F.);
#227=ORIENTED_EDGE('',*,*,#278,.T.);
#228=ORIENTED_EDGE('',*,*,#295,.F.);
#229=ORIENTED_EDGE('',*,*,#277,.T.);
#230=ORIENTED_EDGE('',*,*,#295,.T.);
#231=ORIENTED_EDGE('',*,*,#291,.T.);
#232=ORIENTED_EDGE('',*,*,#296,.T.);
#233=ORIENTED_EDGE('',*,*,#296,.F.);
#234=ORIENTED_EDGE('',*,*,#297,.T.);
#235=ORIENTED_EDGE('',*,*,#297,.F.);
#236=ORIENTED_EDGE('',*,*,#298,.T.);
#237=ORIENTED_EDGE('',*,*,#299,.T.);
#238=ORIENTED_EDGE('',*,*,#298,.F.);
#239=ORIENTED_EDGE('',*,*,#299,.F.);
#240=VERTEX_POINT('',#526);
#241=VERTEX_POINT('',#528);
#242=VERTEX_POINT('',#529);
#243=VERTEX_POINT('',#536);
#244=VERTEX_POINT('',#538);
#245=VERTEX_POINT('',#545);
#246=VERTEX_POINT('',#547);
#247=VERTEX_POINT('',#554);
#248=VERTEX_POINT('',#556);
#249=VERTEX_POINT('',#565);
#250=VERTEX_POINT('',#567);
#251=VERTEX_POINT('',#569);
#252=VERTEX_POINT('',#572);
#253=VERTEX_POINT('',#574);
#254=VERTEX_POINT('',#577);
#255=VERTEX_POINT('',#579);
#256=VERTEX_POINT('',#582);
#257=VERTEX_POINT('',#584);
#258=VERTEX_POINT('',#588);
#259=VERTEX_POINT('',#590);
#260=VERTEX_POINT('',#593);
#261=VERTEX_POINT('',#595);
#262=VERTEX_POINT('',#614);
#263=VERTEX_POINT('',#617);
#264=VERTEX_POINT('',#620);
#265=VERTEX_POINT('',#623);
#266=EDGE_CURVE('',#240,#240,#300,.T.);
#267=EDGE_CURVE('',#241,#242,#301,.T.);
#268=EDGE_CURVE('',#242,#243,#323,.T.);
#269=EDGE_CURVE('',#243,#244,#302,.T.);
#270=EDGE_CURVE('',#244,#245,#324,.T.);
#271=EDGE_CURVE('',#245,#246,#303,.T.);
#272=EDGE_CURVE('',#246,#247,#325,.T.);
#273=EDGE_CURVE('',#247,#248,#304,.T.);
#274=EDGE_CURVE('',#248,#241,#326,.T.);
#275=EDGE_CURVE('',#249,#249,#305,.T.);
#276=EDGE_CURVE('',#250,#243,#74,.T.);
#277=EDGE_CURVE('',#251,#250,#70,.T.);
#278=EDGE_CURVE('',#242,#251,#75,.T.);
#279=EDGE_CURVE('',#252,#241,#76,.T.);
#280=EDGE_CURVE('',#253,#252,#71,.T.);
#281=EDGE_CURVE('',#248,#253,#77,.T.);
#282=EDGE_CURVE('',#254,#247,#78,.T.);
#283=EDGE_CURVE('',#255,#254,#72,.T.);
#284=EDGE_CURVE('',#246,#255,#79,.T.);
#285=EDGE_CURVE('',#256,#245,#80,.T.);
#286=EDGE_CURVE('',#257,#256,#73,.T.);
#287=EDGE_CURVE('',#244,#257,#81,.T.);
#288=EDGE_CURVE('',#258,#258,#306,.T.);
#289=EDGE_CURVE('',#259,#259,#307,.T.);
#290=EDGE_CURVE('',#260,#260,#308,.T.);
#291=EDGE_CURVE('',#261,#261,#309,.T.);
#292=EDGE_CURVE('',#256,#257,#82,.T.);
#293=EDGE_CURVE('',#252,#253,#83,.T.);
#294=EDGE_CURVE('',#254,#255,#84,.T.);
#295=EDGE_CURVE('',#250,#251,#85,.T.);
#296=EDGE_CURVE('',#262,#262,#310,.T.);
#297=EDGE_CURVE('',#263,#263,#311,.T.);
#298=EDGE_CURVE('',#264,#264,#312,.T.);
#299=EDGE_CURVE('',#265,#265,#313,.T.);
#300=CIRCLE('',#362,1.96);
#301=CIRCLE('',#363,3.36);
#302=CIRCLE('',#364,3.36);
#303=CIRCLE('',#365,3.36);
#304=CIRCLE('',#366,3.36);
#305=CIRCLE('',#368,3.36);
#306=CIRCLE('',#374,3.49999999999999);
#307=CIRCLE('',#375,3.5);
#308=CIRCLE('',#377,3.64737205583711);
#309=CIRCLE('',#378,3.87107030759476);
#310=CIRCLE('',#392,3.87107030759478);
#311=CIRCLE('',#394,5.07506342767823);
#312=CIRCLE('',#396,5.07506342767823);
#313=CIRCLE('',#398,4.35472496626625);
#314=CURVE_STYLE('',#318,POSITIVE_LENGTH_MEASURE(0.18),#328);
#315=CURVE_STYLE('',#319,POSITIVE_LENGTH_MEASURE(0.13),#355);
#316=CURVE_STYLE('',#320,POSITIVE_LENGTH_MEASURE(0.18),#354);
#317=CURVE_STYLE('',#321,POSITIVE_LENGTH_MEASURE(0.18),#354);
#318=DRAUGHTING_PRE_DEFINED_CURVE_FONT('continuous');
#319=DRAUGHTING_PRE_DEFINED_CURVE_FONT('continuous');
#320=DRAUGHTING_PRE_DEFINED_CURVE_FONT('continuous');
#321=DRAUGHTING_PRE_DEFINED_CURVE_FONT('continuous');
#322=B_SPLINE_CURVE_WITH_KNOTS('CUTTING PART LINE',3,(#503,#504,#505,#506,
#507,#508,#509,#510,#511,#512,#513,#514,#515,#516,#517,#518,#519,#520,#521),
 .UNSPECIFIED.,.T.,.F.,(4,3,3,3,3,3,4),(0.,0.1939713715083,0.280767428133674,
0.686600569905045,0.784240996125649,0.850152417224231,1.),.UNSPECIFIED.);
#323=B_SPLINE_CURVE_WITH_KNOTS('',3,(#530,#531,#532,#533,#534,#535),
 .UNSPECIFIED.,.F.,.F.,(4,2,4),(0.,0.5,1.),.UNSPECIFIED.);
#324=B_SPLINE_CURVE_WITH_KNOTS('',3,(#539,#540,#541,#542,#543,#544),
 .UNSPECIFIED.,.F.,.F.,(4,2,4),(0.,0.5,1.),.UNSPECIFIED.);
#325=B_SPLINE_CURVE_WITH_KNOTS('',3,(#548,#549,#550,#551,#552,#553),
 .UNSPECIFIED.,.F.,.F.,(4,2,4),(0.,0.5,1.),.UNSPECIFIED.);
#326=B_SPLINE_CURVE_WITH_KNOTS('',3,(#557,#558,#559,#560,#561,#562),
 .UNSPECIFIED.,.F.,.F.,(4,2,4),(0.,0.5,1.),.UNSPECIFIED.);
#327=DRAUGHTING_PRE_DEFINED_COLOUR('white');
#328=DRAUGHTING_PRE_DEFINED_COLOUR('blue');
#329=PRESENTATION_LAYER_ASSIGNMENT('1','Layer 1',(#500,#501,#502,#322,#359,
#360,#361,#38,#39));
#330=STYLED_ITEM('',(#339),#500);
#331=STYLED_ITEM('',(#340),#501);
#332=STYLED_ITEM('',(#341),#502);
#333=STYLED_ITEM('',(#342),#322);
#334=STYLED_ITEM('',(#343),#359);
#335=STYLED_ITEM('',(#344),#360);
#336=STYLED_ITEM('',(#345),#361);
#337=STYLED_ITEM('',(#346),#38);
#338=STYLED_ITEM('',(#347),#39);
#339=PRESENTATION_STYLE_ASSIGNMENT((#348));
#340=PRESENTATION_STYLE_ASSIGNMENT((#349));
#341=PRESENTATION_STYLE_ASSIGNMENT((#350));
#342=PRESENTATION_STYLE_ASSIGNMENT((#314));
#343=PRESENTATION_STYLE_ASSIGNMENT((#315));
#344=PRESENTATION_STYLE_ASSIGNMENT((#316));
#345=PRESENTATION_STYLE_ASSIGNMENT((#317));
#346=PRESENTATION_STYLE_ASSIGNMENT((#28));
#347=PRESENTATION_STYLE_ASSIGNMENT((#29));
#348=POINT_STYLE('',#351,POSITIVE_LENGTH_MEASURE(3.),#354);
#349=POINT_STYLE('',#352,POSITIVE_LENGTH_MEASURE(3.),#327);
#350=POINT_STYLE('',#353,POSITIVE_LENGTH_MEASURE(3.),#354);
#351=PRE_DEFINED_POINT_MARKER_SYMBOL('plus');
#352=PRE_DEFINED_POINT_MARKER_SYMBOL('plus');
#353=PRE_DEFINED_POINT_MARKER_SYMBOL('plus');
#354=COLOUR_RGB('Medium Maroon',0.6,0.4,0.4);
#355=COLOUR_RGB('Silver Gray',0.6,0.6,0.6);
#356=COLOUR_RGB('TLS_NOCUT',0.498023956664378,0.498023956664378,0.498023956664378);
#357=COLOUR_RGB('TLS_CUT',0.8,0.8,0.8);
#358=AXIS2_PLACEMENT_3D('',#499,#401,#402);
#359=AXIS2_PLACEMENT_3D('PCS',#522,#403,#404);
#360=AXIS2_PLACEMENT_3D('MCS',#523,#405,#406);
#361=AXIS2_PLACEMENT_3D('CIP',#524,#407,#408);
#362=AXIS2_PLACEMENT_3D('',#525,#409,#410);
#363=AXIS2_PLACEMENT_3D('',#527,#411,#412);
#364=AXIS2_PLACEMENT_3D('',#537,#413,#414);
#365=AXIS2_PLACEMENT_3D('',#546,#415,#416);
#366=AXIS2_PLACEMENT_3D('',#555,#417,#418);
#367=AXIS2_PLACEMENT_3D('',#563,#419,#420);
#368=AXIS2_PLACEMENT_3D('',#564,#421,#422);
#369=AXIS2_PLACEMENT_3D('',#568,#424,#425);
#370=AXIS2_PLACEMENT_3D('',#573,#428,#429);
#371=AXIS2_PLACEMENT_3D('',#578,#432,#433);
#372=AXIS2_PLACEMENT_3D('',#583,#436,#437);
#373=AXIS2_PLACEMENT_3D('',#586,#439,#440);
#374=AXIS2_PLACEMENT_3D('',#587,#441,#442);
#375=AXIS2_PLACEMENT_3D('',#589,#443,#444);
#376=AXIS2_PLACEMENT_3D('',#591,#445,#446);
#377=AXIS2_PLACEMENT_3D('',#592,#447,#448);
#378=AXIS2_PLACEMENT_3D('',#594,#449,#450);
#379=AXIS2_PLACEMENT_3D('',#596,#451,#452);
#380=AXIS2_PLACEMENT_3D('',#597,#453,#454);
#381=AXIS2_PLACEMENT_3D('',#598,#455,#456);
#382=AXIS2_PLACEMENT_3D('',#599,#457,#458);
#383=AXIS2_PLACEMENT_3D('',#601,#460,#461);
#384=AXIS2_PLACEMENT_3D('',#602,#462,#463);
#385=AXIS2_PLACEMENT_3D('',#604,#465,#466);
#386=AXIS2_PLACEMENT_3D('',#605,#467,#468);
#387=AXIS2_PLACEMENT_3D('',#607,#470,#471);
#388=AXIS2_PLACEMENT_3D('',#608,#472,#473);
#389=AXIS2_PLACEMENT_3D('',#610,#475,#476);
#390=AXIS2_PLACEMENT_3D('',#611,#477,#478);
#391=AXIS2_PLACEMENT_3D('',#612,#479,#480);
#392=AXIS2_PLACEMENT_3D('',#613,#481,#482);
#393=AXIS2_PLACEMENT_3D('',#615,#483,#484);
#394=AXIS2_PLACEMENT_3D('',#616,#485,#486);
#395=AXIS2_PLACEMENT_3D('',#618,#487,#488);
#396=AXIS2_PLACEMENT_3D('',#619,#489,#490);
#397=AXIS2_PLACEMENT_3D('',#621,#491,#492);
#398=AXIS2_PLACEMENT_3D('',#622,#493,#494);
#399=AXIS2_PLACEMENT_3D('',#624,#495,#496);
#400=AXIS2_PLACEMENT_3D('',#625,#497,#498);
#401=DIRECTION('',(0.,0.,1.));
#402=DIRECTION('',(1.,0.,0.));
#403=DIRECTION('',(0.,0.,1.));
#404=DIRECTION('',(1.,0.,0.));
#405=DIRECTION('',(0.,0.,1.));
#406=DIRECTION('',(1.,0.,0.));
#407=DIRECTION('',(0.,0.,1.));
#408=DIRECTION('',(1.,0.,0.));
#409=DIRECTION('',(0.,0.,1.));
#410=DIRECTION('',(1.,0.,0.));
#411=DIRECTION('',(0.,0.,1.));
#412=DIRECTION('',(-1.,0.,0.));
#413=DIRECTION('',(0.,0.,1.));
#414=DIRECTION('',(-1.,0.,0.));
#415=DIRECTION('',(0.,0.,1.));
#416=DIRECTION('',(-1.,0.,0.));
#417=DIRECTION('',(0.,0.,1.));
#418=DIRECTION('',(-1.,0.,0.));
#419=DIRECTION('',(0.,0.,-1.));
#420=DIRECTION('',(-1.,0.,0.));
#421=DIRECTION('',(0.,0.,-1.));
#422=DIRECTION('',(1.,0.,0.));
#423=DIRECTION('',(0.,0.,1.));
#424=DIRECTION('',(0.707106781186548,0.,0.707106781186547));
#425=DIRECTION('',(-0.707106781186547,0.,0.707106781186548));
#426=DIRECTION('',(0.,0.,-1.));
#427=DIRECTION('',(0.,0.,1.));
#428=DIRECTION('',(-2.64204134232937E-15,-0.707106781186548,0.707106781186547));
#429=DIRECTION('',(2.64204134232936E-15,0.707106781186547,0.707106781186548));
#430=DIRECTION('',(0.,0.,-1.));
#431=DIRECTION('',(0.,0.,1.));
#432=DIRECTION('',(-0.707106781186548,1.65668806430732E-15,0.707106781186547));
#433=DIRECTION('',(0.707106781186547,-1.65668806430732E-15,0.707106781186548));
#434=DIRECTION('',(0.,0.,-1.));
#435=DIRECTION('',(0.,0.,1.));
#436=DIRECTION('',(8.28344032153662E-16,0.707106781186548,0.707106781186547));
#437=DIRECTION('',(-8.28344032153662E-16,-0.707106781186547,0.707106781186548));
#438=DIRECTION('',(0.,0.,-1.));
#439=DIRECTION('',(0.,0.,1.));
#440=DIRECTION('',(1.,0.,0.));
#441=DIRECTION('',(-4.10163508961406E-16,0.,1.));
#442=DIRECTION('',(-1.,0.,0.));
#443=DIRECTION('',(0.,0.,-1.));
#444=DIRECTION('',(-1.,0.,0.));
#445=DIRECTION('',(4.10163508961406E-16,0.,-1.));
#446=DIRECTION('',(-1.,0.,0.));
#447=DIRECTION('',(4.10163508961406E-16,0.,-1.));
#448=DIRECTION('',(-1.,0.,0.));
#449=DIRECTION('',(0.,0.,-1.));
#450=DIRECTION('',(-1.,0.,0.));
#451=DIRECTION('',(4.10163508961406E-16,0.,-1.));
#452=DIRECTION('',(-1.,0.,-5.73412676303359E-16));
#453=DIRECTION('',(4.10163508961406E-16,0.,-1.));
#454=DIRECTION('',(-1.,0.,0.));
#455=DIRECTION('',(5.35404963138196E-16,0.,-1.));
#456=DIRECTION('',(-1.,0.,-5.35404963138196E-16));
#457=DIRECTION('',(0.,0.,-1.));
#458=DIRECTION('',(-1.,0.,8.28772039881428E-17));
#459=DIRECTION('',(1.,-1.17145536458252E-15,0.));
#460=DIRECTION('',(1.17145536458252E-15,1.,0.));
#461=DIRECTION('',(0.,0.,-1.));
#462=DIRECTION('',(8.28344032153662E-16,0.707106781186548,0.707106781186547));
#463=DIRECTION('',(8.29197821516914E-16,0.707106781186547,-0.707106781186548));
#464=DIRECTION('',(-1.,3.7364106986726E-15,0.));
#465=DIRECTION('',(-3.7364106986726E-15,-1.,0.));
#466=DIRECTION('',(0.,0.,-1.));
#467=DIRECTION('',(-2.64204134232936E-15,-0.707106781186548,0.707106781186547));
#468=DIRECTION('',(-2.64198385391268E-15,-0.707106781186547,-0.707106781186548));
#469=DIRECTION('',(2.34291072916505E-15,1.,0.));
#470=DIRECTION('',(-0.707106781186548,1.65668806430732E-15,0.707106781186547));
#471=DIRECTION('',(-0.707106781186547,1.65666091955785E-15,-0.707106781186548));
#472=DIRECTION('',(-1.,2.34291072916505E-15,0.));
#473=DIRECTION('',(0.,0.,-1.));
#474=DIRECTION('',(0.,-1.,0.));
#475=DIRECTION('',(1.,0.,0.));
#476=DIRECTION('',(0.,0.,-1.));
#477=DIRECTION('',(0.707106781186548,0.,0.707106781186547));
#478=DIRECTION('',(0.707106781186547,0.,-0.707106781186548));
#479=DIRECTION('',(0.,0.,-1.));
#480=DIRECTION('',(-1.,0.,0.));
#481=DIRECTION('',(0.,0.,1.));
#482=DIRECTION('',(1.,0.,0.));
#483=DIRECTION('',(0.,0.,1.));
#484=DIRECTION('',(1.,0.,0.));
#485=DIRECTION('',(0.,0.,1.));
#486=DIRECTION('',(-1.,0.,0.));
#487=DIRECTION('',(0.,0.,-1.));
#488=DIRECTION('',(-1.,0.,-3.84394563782112E-16));
#489=DIRECTION('',(0.,0.,1.));
#490=DIRECTION('',(1.,0.,0.));
#491=DIRECTION('',(0.,0.,1.));
#492=DIRECTION('',(1.,0.,0.));
#493=DIRECTION('',(-1.11184555555029E-16,0.,1.));
#494=DIRECTION('',(1.,0.,0.));
#495=DIRECTION('',(0.,0.,1.));
#496=DIRECTION('',(1.,0.,1.0815623295298E-16));
#497=DIRECTION('',(-1.11184555555029E-16,0.,1.));
#498=DIRECTION('',(1.,0.,1.11022302462516E-16));
#499=CARTESIAN_POINT('',(0.,0.,0.));
#500=CARTESIAN_POINT('',(0.,0.,-23.));
#501=CARTESIAN_POINT('CRP',(-5.07506342767823,0.,-90.));
#502=CARTESIAN_POINT('CIP_DCSYS',(0.,0.,-90.));
#503=CARTESIAN_POINT('',(-5.07506342767823,0.,-80.5668561926006));
#504=CARTESIAN_POINT('',(-4.67373238765041,0.,-77.7112374617337));
#505=CARTESIAN_POINT('',(-4.2724013476226,0.,-74.8556187308669));
#506=CARTESIAN_POINT('',(-3.87107030759478,0.,-72.));
#507=CARTESIAN_POINT('',(-2.58071353839652,0.,-72.));
#508=CARTESIAN_POINT('',(-1.29035676919826,0.,-72.));
#509=CARTESIAN_POINT('',(0.,0.,-72.));
#510=CARTESIAN_POINT('',(0.,0.,-78.0333333333333));
#511=CARTESIAN_POINT('',(0.,0.,-84.0666666666667));
#512=CARTESIAN_POINT('',(0.,0.,-90.1));
#513=CARTESIAN_POINT('',(-1.45157498875542,0.,-90.1));
#514=CARTESIAN_POINT('',(-2.90314997751083,0.,-90.1));
#515=CARTESIAN_POINT('',(-4.35472496626625,0.,-90.1));
#516=CARTESIAN_POINT('',(-4.59483778673691,0.,-89.15));
#517=CARTESIAN_POINT('',(-4.83495060720757,0.,-88.2));
#518=CARTESIAN_POINT('',(-5.07506342767823,0.,-87.25));
#519=CARTESIAN_POINT('',(-5.07506342767823,0.,-85.0222853975335));
#520=CARTESIAN_POINT('',(-5.07506342767823,0.,-82.7945707950671));
#521=CARTESIAN_POINT('',(-5.07506342767823,0.,-80.5668561926006));
#522=CARTESIAN_POINT('',(0.,0.,0.));
#523=CARTESIAN_POINT('',(0.,0.,-23.));
#524=CARTESIAN_POINT('',(0.,0.,-90.));
#525=CARTESIAN_POINT('',(0.,0.,0.));
#526=CARTESIAN_POINT('',(1.96,0.,0.));
#527=CARTESIAN_POINT('',(0.,0.,-1.4));
#528=CARTESIAN_POINT('',(1.93056986405589,-2.75000000000001,-1.40000000000001));
#529=CARTESIAN_POINT('',(2.75,-1.93056986405569,-1.4));
#530=CARTESIAN_POINT('',(2.75,-1.93056986405569,-1.4));
#531=CARTESIAN_POINT('',(2.75,-1.33868652327764,-1.05991900573133));
#532=CARTESIAN_POINT('',(2.75,-0.679895816961769,-0.790039297381964));
#533=CARTESIAN_POINT('',(2.75,0.679577884616835,-0.789960711807218));
#534=CARTESIAN_POINT('',(2.75,1.33903216041099,-1.06011759996745));
#535=CARTESIAN_POINT('',(2.75,1.93056986405593,-1.4000000000001));
#536=CARTESIAN_POINT('',(2.75,1.93056986405599,-1.40000000000002));
#537=CARTESIAN_POINT('',(0.,0.,-1.4));
#538=CARTESIAN_POINT('',(1.93056986405569,2.75,-1.4));
#539=CARTESIAN_POINT('',(1.9305698640557,2.75,-1.4));
#540=CARTESIAN_POINT('',(1.33868652327764,2.75,-1.05991900573133));
#541=CARTESIAN_POINT('',(0.679895816961772,2.75,-0.790039297381964));
#542=CARTESIAN_POINT('',(-0.679577884616831,2.75,-0.789960711807218));
#543=CARTESIAN_POINT('',(-1.33903216041098,2.75,-1.06011759996745));
#544=CARTESIAN_POINT('',(-1.93056986405592,2.75,-1.4000000000001));
#545=CARTESIAN_POINT('',(-1.93056986405599,2.75,-1.40000000000002));
#546=CARTESIAN_POINT('',(0.,0.,-1.4));
#547=CARTESIAN_POINT('',(-2.75,1.9305698640557,-1.4));
#548=CARTESIAN_POINT('',(-2.75,1.93056986405571,-1.39999999999998));
#549=CARTESIAN_POINT('',(-2.75,1.33903216041077,-1.06011759996735));
#550=CARTESIAN_POINT('',(-2.75,0.679577884616615,-0.789960711807166));
#551=CARTESIAN_POINT('',(-2.75,-0.679895816961962,-0.790039297382016));
#552=CARTESIAN_POINT('',(-2.75,-1.3386865232778,-1.05991900573141));
#553=CARTESIAN_POINT('',(-2.75,-1.93056986405584,-1.40000000000008));
#554=CARTESIAN_POINT('',(-2.75,-1.93056986405589,-1.40000000000001));
#555=CARTESIAN_POINT('',(0.,0.,-1.4));
#556=CARTESIAN_POINT('',(-1.9305698640557,-2.74999999999999,-1.4));
#557=CARTESIAN_POINT('',(-1.93056986405572,-2.74999999999999,-1.39999999999998));
#558=CARTESIAN_POINT('',(-1.33903216041077,-2.75,-1.06011759996735));
#559=CARTESIAN_POINT('',(-0.679577884616619,-2.75,-0.789960711807166));
#560=CARTESIAN_POINT('',(0.679895816961959,-2.75,-0.790039297382016));
#561=CARTESIAN_POINT('',(1.3386865232778,-2.75000000000001,-1.05991900573141));
#562=CARTESIAN_POINT('',(1.93056986405583,-2.75000000000001,-1.40000000000008));
#563=CARTESIAN_POINT('',(0.,0.,0.));
#564=CARTESIAN_POINT('',(0.,0.,-8.688));
#565=CARTESIAN_POINT('',(3.36,0.,-8.688));
#566=CARTESIAN_POINT('',(2.75,1.93056986405569,20.9080749503476));
#567=CARTESIAN_POINT('',(2.75,1.93056986405569,-8.));
#568=CARTESIAN_POINT('',(0.,0.,-5.25));
#569=CARTESIAN_POINT('',(2.75,-1.93056986405569,-8.));
#570=CARTESIAN_POINT('',(2.75,-1.93056986405569,20.9080749503476));
#571=CARTESIAN_POINT('',(1.93056986405568,-2.75000000000001,20.9080749503476));
#572=CARTESIAN_POINT('',(1.93056986405568,-2.75000000000001,-8.));
#573=CARTESIAN_POINT('',(0.,0.,-5.25));
#574=CARTESIAN_POINT('',(-1.9305698640557,-2.74999999999999,-8.));
#575=CARTESIAN_POINT('',(-1.9305698640557,-2.74999999999999,20.9080749503476));
#576=CARTESIAN_POINT('',(-2.75,-1.93056986405568,20.9080749503476));
#577=CARTESIAN_POINT('',(-2.75,-1.93056986405568,-8.));
#578=CARTESIAN_POINT('',(0.,0.,-5.25));
#579=CARTESIAN_POINT('',(-2.75,1.93056986405569,-8.));
#580=CARTESIAN_POINT('',(-2.75,1.9305698640557,20.9080749503476));
#581=CARTESIAN_POINT('',(-1.93056986405569,2.75,20.9080749503476));
#582=CARTESIAN_POINT('',(-1.93056986405569,2.75,-8.));
#583=CARTESIAN_POINT('',(0.,0.,-5.25));
#584=CARTESIAN_POINT('',(1.93056986405569,2.75,-8.));
#585=CARTESIAN_POINT('',(1.93056986405569,2.75,20.9080749503476));
#586=CARTESIAN_POINT('',(0.,0.,20.9080749503476));
#587=CARTESIAN_POINT('',(7.60909523230408E-15,0.,-71.0625432623914));
#588=CARTESIAN_POINT('',(-3.49999999999998,0.,-71.0625432623914));
#589=CARTESIAN_POINT('',(0.,0.,-8.828));
#590=CARTESIAN_POINT('',(-3.5,0.,-8.828));
#591=CARTESIAN_POINT('',(7.54951656745106E-15,0.,-70.9172873740657));
#592=CARTESIAN_POINT('',(7.83468516223284E-15,0.,-71.6125432623914));
#593=CARTESIAN_POINT('',(-3.6473720558371,0.,-71.6125432623914));
#594=CARTESIAN_POINT('',(6.54967078043084E-15,0.,-72.));
#595=CARTESIAN_POINT('',(-3.87107030759476,0.,-72.));
#596=CARTESIAN_POINT('',(7.72998851139409E-15,0.,-71.3572873740657));
#597=CARTESIAN_POINT('',(7.60909523230407E-15,0.,-71.0625432623914));
#598=CARTESIAN_POINT('',(3.7,0.,9.90499181805663E-16));
#599=CARTESIAN_POINT('',(0.,0.,-10.028));
#600=CARTESIAN_POINT('',(8.25,2.74999999999999,-8.));
#601=CARTESIAN_POINT('',(8.25,2.74999999999999,10.));
#602=CARTESIAN_POINT('',(8.25,2.74999999999999,-8.));
#603=CARTESIAN_POINT('',(-8.25000000000001,-2.74999999999997,-8.));
#604=CARTESIAN_POINT('',(-8.25000000000001,-2.74999999999997,10.));
#605=CARTESIAN_POINT('',(-8.25000000000001,-2.74999999999997,-8.));
#606=CARTESIAN_POINT('',(-2.74999999999998,8.25000000000001,-8.));
#607=CARTESIAN_POINT('',(-2.74999999999998,8.25000000000001,-8.));
#608=CARTESIAN_POINT('',(-2.74999999999998,8.25000000000001,10.));
#609=CARTESIAN_POINT('',(2.75,-8.25,-8.));
#610=CARTESIAN_POINT('',(2.75,-8.25,10.));
#611=CARTESIAN_POINT('',(2.75,-8.25,-8.));
#612=CARTESIAN_POINT('',(0.,0.,-72.));
#613=CARTESIAN_POINT('',(0.,0.,-72.));
#614=CARTESIAN_POINT('',(3.87107030759478,0.,-72.));
#615=CARTESIAN_POINT('',(0.,0.,-72.));
#616=CARTESIAN_POINT('',(0.,0.,-80.5668561926006));
#617=CARTESIAN_POINT('',(-5.07506342767823,0.,-80.5668561926006));
#618=CARTESIAN_POINT('',(0.,0.,-72.));
#619=CARTESIAN_POINT('',(0.,0.,-87.25));
#620=CARTESIAN_POINT('',(5.07506342767823,0.,-87.25));
#621=CARTESIAN_POINT('',(0.,0.,20.9080749503476));
#622=CARTESIAN_POINT('',(1.22376193255975E-16,0.,-90.1));
#623=CARTESIAN_POINT('',(4.35472496626625,0.,-90.1));
#624=CARTESIAN_POINT('',(0.,0.,-92.));
#625=CARTESIAN_POINT('',(10.5,0.,-90.1));
#626=MECHANICAL_DESIGN_GEOMETRIC_PRESENTATION_REPRESENTATION('',(#330,#331,
#332,#333,#334,#335,#336,#337,#338),#627);
#627=(
GEOMETRIC_REPRESENTATION_CONTEXT(3)
GLOBAL_UNCERTAINTY_ASSIGNED_CONTEXT((#628))
GLOBAL_UNIT_ASSIGNED_CONTEXT((#634,#630,#629))
REPRESENTATION_CONTEXT('TOOL','TOP_LEVEL_ASSEMBLY_PART')
);
#628=UNCERTAINTY_MEASURE_WITH_UNIT(LENGTH_MEASURE(0.0508),#634,
'DISTANCE_ACCURACY_VALUE','Maximum Tolerance applied to model');
#629=(
NAMED_UNIT(*)
SI_UNIT($,.STERADIAN.)
SOLID_ANGLE_UNIT()
);
#630=(
CONVERSION_BASED_UNIT('DEGREE',#632)
NAMED_UNIT(#631)
PLANE_ANGLE_UNIT()
);
#631=DIMENSIONAL_EXPONENTS(0.,0.,0.,0.,0.,0.,0.);
#632=PLANE_ANGLE_MEASURE_WITH_UNIT(PLANE_ANGLE_MEASURE(0.0174532925),#633);
#633=(
NAMED_UNIT(*)
PLANE_ANGLE_UNIT()
SI_UNIT($,.RADIAN.)
);
#634=(
LENGTH_UNIT()
NAMED_UNIT(*)
SI_UNIT(.MILLI.,.METRE.)
);
ENDSEC;
END-ISO-10303-21;
