ISO-10303-21;
HEADER;
/* Generated by software containing ST-Developer
 * from STEP Tools, Inc. (www.steptools.com) 
 */
/* OPTION: using custom schema-name function */

FILE_DESCRIPTION(
/* description */ ('3-D model version:1'),
/* implementation_level */ '2;1');

FILE_NAME(
/* name */ 'R790-032HA06S2-16M',
/* time_stamp */ '2015-10-15T08:55:46+02:00',
/* author */ ('InteractiveCad'),
/* organization */ ('AB Sandvik Coromant'),
/* preprocessor_version */ 'ST-DEVELOPER v15',
/* originating_system */ 'SIEMENS PLM Software NX 8.5',
/* authorisation */ '');

FILE_SCHEMA (('AP203_CONFIGURATION_CONTROLLED_3D_DESIGN_OF_MECHANICAL_PARTS_AND_ASSEMBLIES_MIM_LF { 1 0 10303 403 2 1 2}'));
ENDSEC;

DATA;
#10=SHAPE_REPRESENTATION_RELATIONSHIP('None',
'relationship between R790_032HA06S2_16M_SIM-None and R790_032HA06S2_1
6M_SIM-None',#92,#11);
#11=ADVANCED_BREP_SHAPE_REPRESENTATION('R790_032HA06S2_16M_SIM-None',(#110,
#111),#625);
#12=CC_DESIGN_APPROVAL(#24,(#82));
#13=CC_DESIGN_APPROVAL(#25,(#84));
#14=CC_DESIGN_APPROVAL(#26,(#31));
#15=APPROVAL_PERSON_ORGANIZATION(#69,#24,#18);
#16=APPROVAL_PERSON_ORGANIZATION(#70,#25,#19);
#17=APPROVAL_PERSON_ORGANIZATION(#71,#26,#20);
#18=APPROVAL_ROLE('approver');
#19=APPROVAL_ROLE('approver');
#20=APPROVAL_ROLE('approver');
#21=APPROVAL_DATE_TIME(#39,#24);
#22=APPROVAL_DATE_TIME(#40,#25);
#23=APPROVAL_DATE_TIME(#41,#26);
#24=APPROVAL(#27,' ');
#25=APPROVAL(#28,' ');
#26=APPROVAL(#29,' ');
#27=APPROVAL_STATUS('not_yet_approved');
#28=APPROVAL_STATUS('not_yet_approved');
#29=APPROVAL_STATUS('not_yet_approved');
#30=CC_DESIGN_SECURITY_CLASSIFICATION(#31,(#84));
#31=SECURITY_CLASSIFICATION(' ',' ',#32);
#32=SECURITY_CLASSIFICATION_LEVEL('confidential');
#33=CC_DESIGN_DATE_AND_TIME_ASSIGNMENT(#37,#35,(#82));
#34=CC_DESIGN_DATE_AND_TIME_ASSIGNMENT(#38,#36,(#31));
#35=DATE_TIME_ROLE('creation_date');
#36=DATE_TIME_ROLE('classification_date');
#37=DATE_AND_TIME(#52,#42);
#38=DATE_AND_TIME(#53,#43);
#39=DATE_AND_TIME(#54,#44);
#40=DATE_AND_TIME(#55,#45);
#41=DATE_AND_TIME(#56,#46);
#42=LOCAL_TIME(0,0,0.,#47);
#43=LOCAL_TIME(0,0,0.,#48);
#44=LOCAL_TIME(0,0,0.,#49);
#45=LOCAL_TIME(0,0,0.,#50);
#46=LOCAL_TIME(0,0,0.,#51);
#47=COORDINATED_UNIVERSAL_TIME_OFFSET(0,0,.BEHIND.);
#48=COORDINATED_UNIVERSAL_TIME_OFFSET(0,0,.BEHIND.);
#49=COORDINATED_UNIVERSAL_TIME_OFFSET(0,0,.BEHIND.);
#50=COORDINATED_UNIVERSAL_TIME_OFFSET(0,0,.BEHIND.);
#51=COORDINATED_UNIVERSAL_TIME_OFFSET(0,0,.BEHIND.);
#52=CALENDAR_DATE(0,1,1);
#53=CALENDAR_DATE(0,1,1);
#54=CALENDAR_DATE(0,1,1);
#55=CALENDAR_DATE(0,1,1);
#56=CALENDAR_DATE(0,1,1);
#57=CC_DESIGN_PERSON_AND_ORGANIZATION_ASSIGNMENT(#65,#61,(#82,#84));
#58=CC_DESIGN_PERSON_AND_ORGANIZATION_ASSIGNMENT(#66,#62,(#86));
#59=CC_DESIGN_PERSON_AND_ORGANIZATION_ASSIGNMENT(#67,#63,(#84));
#60=CC_DESIGN_PERSON_AND_ORGANIZATION_ASSIGNMENT(#68,#64,(#31));
#61=PERSON_AND_ORGANIZATION_ROLE('creator');
#62=PERSON_AND_ORGANIZATION_ROLE('design_owner');
#63=PERSON_AND_ORGANIZATION_ROLE('design_supplier');
#64=PERSON_AND_ORGANIZATION_ROLE('classification_officer');
#65=PERSON_AND_ORGANIZATION(#79,#72);
#66=PERSON_AND_ORGANIZATION(#79,#73);
#67=PERSON_AND_ORGANIZATION(#79,#74);
#68=PERSON_AND_ORGANIZATION(#79,#75);
#69=PERSON_AND_ORGANIZATION(#79,#76);
#70=PERSON_AND_ORGANIZATION(#79,#77);
#71=PERSON_AND_ORGANIZATION(#79,#78);
#72=ORGANIZATION(' ',' ',' ');
#73=ORGANIZATION(' ',' ',' ');
#74=ORGANIZATION(' ',' ',' ');
#75=ORGANIZATION(' ',' ',' ');
#76=ORGANIZATION(' ',' ',' ');
#77=ORGANIZATION(' ',' ',' ');
#78=ORGANIZATION(' ',' ',' ');
#79=PERSON(' ',' ',' ',(' '),$,$);
#80=SHAPE_DEFINITION_REPRESENTATION(#81,#92);
#81=PRODUCT_DEFINITION_SHAPE('','',#82);
#82=PRODUCT_DEFINITION(' ','',#84,#83);
#83=DESIGN_CONTEXT('',#91,'design');
#84=PRODUCT_DEFINITION_FORMATION_WITH_SPECIFIED_SOURCE(' ',' ',#86,
 .NOT_KNOWN.);
#85=PRODUCT_RELATED_PRODUCT_CATEGORY('detail','',(#86));
#86=PRODUCT('R790_032HA06S2_16M_SIM','R790_032HA06S2_16M_SIM',' ',(#89));
#87=PRODUCT_CATEGORY('part',' ');
#88=PRODUCT_CATEGORY(' ','');
#89=MECHANICAL_CONTEXT(' ',#91,'mechanical');
#90=APPLICATION_PROTOCOL_DEFINITION('international standard',
'config_control_design',2010,#91);
#91=APPLICATION_CONTEXT(
'configuration controlled 3D designs of mechanical parts and assemblie
s');
#92=SHAPE_REPRESENTATION('R790_032HA06S2_16M_SIM-None',(#391),#625);
#93=PRESENTATION_LAYER_ASSIGNMENT('1','Layer 1',(#110,#111));
#94=STYLED_ITEM('',(#96),#110);
#95=STYLED_ITEM('',(#97),#111);
#96=PRESENTATION_STYLE_ASSIGNMENT((#98));
#97=PRESENTATION_STYLE_ASSIGNMENT((#99));
#98=SURFACE_STYLE_USAGE(.BOTH.,#100);
#99=SURFACE_STYLE_USAGE(.BOTH.,#101);
#100=SURFACE_SIDE_STYLE('',(#102));
#101=SURFACE_SIDE_STYLE('',(#103));
#102=SURFACE_STYLE_FILL_AREA(#104);
#103=SURFACE_STYLE_FILL_AREA(#105);
#104=FILL_AREA_STYLE('',(#106));
#105=FILL_AREA_STYLE('',(#107));
#106=FILL_AREA_STYLE_COLOUR('',#108);
#107=FILL_AREA_STYLE_COLOUR('',#109);
#108=COLOUR_RGB('TLS_NOCUT',0.499992370489052,0.499992370489052,0.499992370489052);
#109=COLOUR_RGB('TLS_CUT',0.8,0.8,0.8);
#110=MANIFOLD_SOLID_BREP('TURN_SOLID',#112);
#111=MANIFOLD_SOLID_BREP('',#113);
#112=CLOSED_SHELL('',(#138,#139,#140,#141,#142,#143,#144,#145,#146,#147,
#148,#149,#150,#151,#152,#153,#154,#155,#156,#157,#158,#159));
#113=CLOSED_SHELL('',(#160,#161,#162,#163));
#114=FACE_OUTER_BOUND('',#228,.T.);
#115=FACE_OUTER_BOUND('',#255,.T.);
#116=PLANE('',#404);
#117=PLANE('',#406);
#118=PLANE('',#415);
#119=PLANE('',#420);
#120=PLANE('',#423);
#121=PLANE('',#427);
#122=PLANE('',#433);
#123=PLANE('',#439);
#124=PLANE('',#442);
#125=CYLINDRICAL_SURFACE('',#399,14.6427517924488);
#126=CYLINDRICAL_SURFACE('',#418,31.47);
#127=CYLINDRICAL_SURFACE('',#425,27.475);
#128=CYLINDRICAL_SURFACE('',#431,31.47);
#129=CYLINDRICAL_SURFACE('',#437,16.);
#130=CYLINDRICAL_SURFACE('',#441,5.);
#131=CONICAL_SURFACE('',#397,15.4644377967236,5.8643283042661);
#132=CONICAL_SURFACE('',#400,15.0403377741641,2.62789267659965);
#133=CONICAL_SURFACE('',#410,7.76904172032164,20.7317088900183);
#134=CONICAL_SURFACE('',#412,7.84738201310401,58.25048166789);
#135=CONICAL_SURFACE('',#429,28.9375471694755,60.);
#136=CONICAL_SURFACE('',#430,31.47,60.);
#137=CONICAL_SURFACE('',#434,22.7224348697396,2.86813194068655);
#138=ADVANCED_FACE('',(#168,#169),#164,.T.);
#139=ADVANCED_FACE('',(#170,#171),#131,.T.);
#140=ADVANCED_FACE('',(#172,#173),#125,.T.);
#141=ADVANCED_FACE('',(#174,#175),#132,.T.);
#142=ADVANCED_FACE('',(#176,#177),#165,.F.);
#143=ADVANCED_FACE('',(#178,#179),#116,.T.);
#144=ADVANCED_FACE('',(#114),#117,.F.);
#145=ADVANCED_FACE('',(#180,#181),#166,.F.);
#146=ADVANCED_FACE('',(#182,#183),#133,.F.);
#147=ADVANCED_FACE('',(#184,#185),#134,.F.);
#148=ADVANCED_FACE('',(#186,#187),#167,.T.);
#149=ADVANCED_FACE('',(#188,#189),#118,.T.);
#150=ADVANCED_FACE('',(#190,#191),#126,.T.);
#151=ADVANCED_FACE('',(#192,#193),#119,.F.);
#152=ADVANCED_FACE('',(#194,#195),#120,.T.);
#153=ADVANCED_FACE('',(#196,#197),#127,.T.);
#154=ADVANCED_FACE('',(#198,#199),#121,.T.);
#155=ADVANCED_FACE('',(#200,#201),#135,.T.);
#156=ADVANCED_FACE('',(#202,#203),#136,.T.);
#157=ADVANCED_FACE('',(#204,#205),#128,.T.);
#158=ADVANCED_FACE('',(#115),#122,.F.);
#159=ADVANCED_FACE('',(#206,#207),#137,.T.);
#160=ADVANCED_FACE('',(#208,#209),#129,.T.);
#161=ADVANCED_FACE('',(#210,#211),#123,.T.);
#162=ADVANCED_FACE('',(#212,#213),#130,.F.);
#163=ADVANCED_FACE('',(#214,#215),#124,.T.);
#164=TOROIDAL_SURFACE('',#394,11.3423335432755,3.7);
#165=TOROIDAL_SURFACE('',#402,19.642752,5.);
#166=TOROIDAL_SURFACE('',#408,4.96329692251297,3.);
#167=TOROIDAL_SURFACE('',#413,10.7402094655878,1.1);
#168=FACE_BOUND('',#216,.T.);
#169=FACE_BOUND('',#217,.T.);
#170=FACE_BOUND('',#218,.T.);
#171=FACE_BOUND('',#219,.T.);
#172=FACE_BOUND('',#220,.T.);
#173=FACE_BOUND('',#221,.T.);
#174=FACE_BOUND('',#222,.T.);
#175=FACE_BOUND('',#223,.T.);
#176=FACE_BOUND('',#224,.T.);
#177=FACE_BOUND('',#225,.T.);
#178=FACE_BOUND('',#226,.T.);
#179=FACE_BOUND('',#227,.T.);
#180=FACE_BOUND('',#229,.T.);
#181=FACE_BOUND('',#230,.T.);
#182=FACE_BOUND('',#231,.T.);
#183=FACE_BOUND('',#232,.T.);
#184=FACE_BOUND('',#233,.T.);
#185=FACE_BOUND('',#234,.T.);
#186=FACE_BOUND('',#235,.T.);
#187=FACE_BOUND('',#236,.T.);
#188=FACE_BOUND('',#237,.T.);
#189=FACE_BOUND('',#238,.T.);
#190=FACE_BOUND('',#239,.T.);
#191=FACE_BOUND('',#240,.T.);
#192=FACE_BOUND('',#241,.T.);
#193=FACE_BOUND('',#242,.T.);
#194=FACE_BOUND('',#243,.T.);
#195=FACE_BOUND('',#244,.T.);
#196=FACE_BOUND('',#245,.T.);
#197=FACE_BOUND('',#246,.T.);
#198=FACE_BOUND('',#247,.T.);
#199=FACE_BOUND('',#248,.T.);
#200=FACE_BOUND('',#249,.T.);
#201=FACE_BOUND('',#250,.T.);
#202=FACE_BOUND('',#251,.T.);
#203=FACE_BOUND('',#252,.T.);
#204=FACE_BOUND('',#253,.T.);
#205=FACE_BOUND('',#254,.T.);
#206=FACE_BOUND('',#256,.T.);
#207=FACE_BOUND('',#257,.T.);
#208=FACE_BOUND('',#258,.T.);
#209=FACE_BOUND('',#259,.T.);
#210=FACE_BOUND('',#260,.T.);
#211=FACE_BOUND('',#261,.T.);
#212=FACE_BOUND('',#262,.T.);
#213=FACE_BOUND('',#263,.T.);
#214=FACE_BOUND('',#264,.T.);
#215=FACE_BOUND('',#265,.T.);
#216=EDGE_LOOP('',(#266));
#217=EDGE_LOOP('',(#267));
#218=EDGE_LOOP('',(#268));
#219=EDGE_LOOP('',(#269));
#220=EDGE_LOOP('',(#270));
#221=EDGE_LOOP('',(#271));
#222=EDGE_LOOP('',(#272));
#223=EDGE_LOOP('',(#273));
#224=EDGE_LOOP('',(#274));
#225=EDGE_LOOP('',(#275));
#226=EDGE_LOOP('',(#276));
#227=EDGE_LOOP('',(#277));
#228=EDGE_LOOP('',(#278));
#229=EDGE_LOOP('',(#279));
#230=EDGE_LOOP('',(#280));
#231=EDGE_LOOP('',(#281));
#232=EDGE_LOOP('',(#282));
#233=EDGE_LOOP('',(#283));
#234=EDGE_LOOP('',(#284));
#235=EDGE_LOOP('',(#285));
#236=EDGE_LOOP('',(#286));
#237=EDGE_LOOP('',(#287));
#238=EDGE_LOOP('',(#288));
#239=EDGE_LOOP('',(#289));
#240=EDGE_LOOP('',(#290));
#241=EDGE_LOOP('',(#291));
#242=EDGE_LOOP('',(#292));
#243=EDGE_LOOP('',(#293));
#244=EDGE_LOOP('',(#294));
#245=EDGE_LOOP('',(#295));
#246=EDGE_LOOP('',(#296));
#247=EDGE_LOOP('',(#297));
#248=EDGE_LOOP('',(#298));
#249=EDGE_LOOP('',(#299));
#250=EDGE_LOOP('',(#300));
#251=EDGE_LOOP('',(#301));
#252=EDGE_LOOP('',(#302));
#253=EDGE_LOOP('',(#303));
#254=EDGE_LOOP('',(#304));
#255=EDGE_LOOP('',(#305));
#256=EDGE_LOOP('',(#306));
#257=EDGE_LOOP('',(#307));
#258=EDGE_LOOP('',(#308));
#259=EDGE_LOOP('',(#309));
#260=EDGE_LOOP('',(#310));
#261=EDGE_LOOP('',(#311));
#262=EDGE_LOOP('',(#312));
#263=EDGE_LOOP('',(#313));
#264=EDGE_LOOP('',(#314));
#265=EDGE_LOOP('',(#315));
#266=ORIENTED_EDGE('',*,*,#341,.F.);
#267=ORIENTED_EDGE('',*,*,#342,.T.);
#268=ORIENTED_EDGE('',*,*,#343,.F.);
#269=ORIENTED_EDGE('',*,*,#344,.T.);
#270=ORIENTED_EDGE('',*,*,#345,.F.);
#271=ORIENTED_EDGE('',*,*,#343,.T.);
#272=ORIENTED_EDGE('',*,*,#344,.F.);
#273=ORIENTED_EDGE('',*,*,#341,.T.);
#274=ORIENTED_EDGE('',*,*,#346,.T.);
#275=ORIENTED_EDGE('',*,*,#345,.T.);
#276=ORIENTED_EDGE('',*,*,#347,.T.);
#277=ORIENTED_EDGE('',*,*,#342,.F.);
#278=ORIENTED_EDGE('',*,*,#348,.F.);
#279=ORIENTED_EDGE('',*,*,#349,.F.);
#280=ORIENTED_EDGE('',*,*,#348,.T.);
#281=ORIENTED_EDGE('',*,*,#350,.F.);
#282=ORIENTED_EDGE('',*,*,#349,.T.);
#283=ORIENTED_EDGE('',*,*,#351,.F.);
#284=ORIENTED_EDGE('',*,*,#350,.T.);
#285=ORIENTED_EDGE('',*,*,#351,.T.);
#286=ORIENTED_EDGE('',*,*,#347,.F.);
#287=ORIENTED_EDGE('',*,*,#352,.T.);
#288=ORIENTED_EDGE('',*,*,#346,.F.);
#289=ORIENTED_EDGE('',*,*,#353,.T.);
#290=ORIENTED_EDGE('',*,*,#354,.T.);
#291=ORIENTED_EDGE('',*,*,#353,.F.);
#292=ORIENTED_EDGE('',*,*,#355,.T.);
#293=ORIENTED_EDGE('',*,*,#356,.T.);
#294=ORIENTED_EDGE('',*,*,#357,.F.);
#295=ORIENTED_EDGE('',*,*,#356,.F.);
#296=ORIENTED_EDGE('',*,*,#358,.T.);
#297=ORIENTED_EDGE('',*,*,#359,.T.);
#298=ORIENTED_EDGE('',*,*,#358,.F.);
#299=ORIENTED_EDGE('',*,*,#360,.T.);
#300=ORIENTED_EDGE('',*,*,#359,.F.);
#301=ORIENTED_EDGE('',*,*,#357,.T.);
#302=ORIENTED_EDGE('',*,*,#354,.F.);
#303=ORIENTED_EDGE('',*,*,#360,.F.);
#304=ORIENTED_EDGE('',*,*,#352,.F.);
#305=ORIENTED_EDGE('',*,*,#361,.F.);
#306=ORIENTED_EDGE('',*,*,#361,.T.);
#307=ORIENTED_EDGE('',*,*,#355,.F.);
#308=ORIENTED_EDGE('',*,*,#362,.T.);
#309=ORIENTED_EDGE('',*,*,#363,.F.);
#310=ORIENTED_EDGE('',*,*,#364,.T.);
#311=ORIENTED_EDGE('',*,*,#362,.F.);
#312=ORIENTED_EDGE('',*,*,#365,.T.);
#313=ORIENTED_EDGE('',*,*,#364,.F.);
#314=ORIENTED_EDGE('',*,*,#363,.T.);
#315=ORIENTED_EDGE('',*,*,#365,.F.);
#316=VERTEX_POINT('',#549);
#317=VERTEX_POINT('',#551);
#318=VERTEX_POINT('',#554);
#319=VERTEX_POINT('',#556);
#320=VERTEX_POINT('',#559);
#321=VERTEX_POINT('',#563);
#322=VERTEX_POINT('',#566);
#323=VERTEX_POINT('',#569);
#324=VERTEX_POINT('',#572);
#325=VERTEX_POINT('',#575);
#326=VERTEX_POINT('',#578);
#327=VERTEX_POINT('',#582);
#328=VERTEX_POINT('',#585);
#329=VERTEX_POINT('',#587);
#330=VERTEX_POINT('',#590);
#331=VERTEX_POINT('',#593);
#332=VERTEX_POINT('',#595);
#333=VERTEX_POINT('',#598);
#334=VERTEX_POINT('',#601);
#335=VERTEX_POINT('',#604);
#336=VERTEX_POINT('',#609);
#337=VERTEX_POINT('',#613);
#338=VERTEX_POINT('',#615);
#339=VERTEX_POINT('',#618);
#340=VERTEX_POINT('',#621);
#341=EDGE_CURVE('',#316,#316,#366,.T.);
#342=EDGE_CURVE('',#317,#317,#367,.T.);
#343=EDGE_CURVE('',#318,#318,#368,.T.);
#344=EDGE_CURVE('',#319,#319,#369,.T.);
#345=EDGE_CURVE('',#320,#320,#370,.T.);
#346=EDGE_CURVE('',#321,#321,#371,.T.);
#347=EDGE_CURVE('',#322,#322,#372,.T.);
#348=EDGE_CURVE('',#323,#323,#373,.T.);
#349=EDGE_CURVE('',#324,#324,#374,.T.);
#350=EDGE_CURVE('',#325,#325,#375,.T.);
#351=EDGE_CURVE('',#326,#326,#376,.T.);
#352=EDGE_CURVE('',#327,#327,#377,.T.);
#353=EDGE_CURVE('',#328,#328,#378,.T.);
#354=EDGE_CURVE('',#329,#329,#379,.T.);
#355=EDGE_CURVE('',#330,#330,#380,.T.);
#356=EDGE_CURVE('',#331,#331,#381,.T.);
#357=EDGE_CURVE('',#332,#332,#382,.T.);
#358=EDGE_CURVE('',#333,#333,#383,.T.);
#359=EDGE_CURVE('',#334,#334,#384,.T.);
#360=EDGE_CURVE('',#335,#335,#385,.T.);
#361=EDGE_CURVE('',#336,#336,#386,.T.);
#362=EDGE_CURVE('',#337,#337,#387,.T.);
#363=EDGE_CURVE('',#338,#338,#388,.T.);
#364=EDGE_CURVE('',#339,#339,#389,.T.);
#365=EDGE_CURVE('',#340,#340,#390,.T.);
#366=CIRCLE('',#392,15.0403377741641);
#367=CIRCLE('',#393,11.5745763876258);
#368=CIRCLE('',#395,14.6427517924488);
#369=CIRCLE('',#396,15.4644377967236);
#370=CIRCLE('',#398,14.6427517924488);
#371=CIRCLE('',#401,19.642752);
#372=CIRCLE('',#403,10.58714803306);
#373=CIRCLE('',#405,4.96329692251297);
#374=CIRCLE('',#407,7.76904172032164);
#375=CIRCLE('',#409,7.84738201310401);
#376=CIRCLE('',#411,10.161382013104);
#377=CIRCLE('',#414,31.47);
#378=CIRCLE('',#416,31.47);
#379=CIRCLE('',#417,31.47);
#380=CIRCLE('',#419,24.3206312625251);
#381=CIRCLE('',#421,27.475);
#382=CIRCLE('',#422,28.9375471694755);
#383=CIRCLE('',#424,27.475);
#384=CIRCLE('',#426,28.9375471694755);
#385=CIRCLE('',#428,31.47);
#386=CIRCLE('',#432,22.7224348697396);
#387=CIRCLE('',#435,16.);
#388=CIRCLE('',#436,16.);
#389=CIRCLE('',#438,5.);
#390=CIRCLE('',#440,5.);
#391=AXIS2_PLACEMENT_3D('',#547,#443,#444);
#392=AXIS2_PLACEMENT_3D('',#548,#445,#446);
#393=AXIS2_PLACEMENT_3D('',#550,#447,#448);
#394=AXIS2_PLACEMENT_3D('',#552,#449,#450);
#395=AXIS2_PLACEMENT_3D('',#553,#451,#452);
#396=AXIS2_PLACEMENT_3D('',#555,#453,#454);
#397=AXIS2_PLACEMENT_3D('',#557,#455,#456);
#398=AXIS2_PLACEMENT_3D('',#558,#457,#458);
#399=AXIS2_PLACEMENT_3D('',#560,#459,#460);
#400=AXIS2_PLACEMENT_3D('',#561,#461,#462);
#401=AXIS2_PLACEMENT_3D('',#562,#463,#464);
#402=AXIS2_PLACEMENT_3D('',#564,#465,#466);
#403=AXIS2_PLACEMENT_3D('',#565,#467,#468);
#404=AXIS2_PLACEMENT_3D('',#567,#469,#470);
#405=AXIS2_PLACEMENT_3D('',#568,#471,#472);
#406=AXIS2_PLACEMENT_3D('',#570,#473,#474);
#407=AXIS2_PLACEMENT_3D('',#571,#475,#476);
#408=AXIS2_PLACEMENT_3D('',#573,#477,#478);
#409=AXIS2_PLACEMENT_3D('',#574,#479,#480);
#410=AXIS2_PLACEMENT_3D('',#576,#481,#482);
#411=AXIS2_PLACEMENT_3D('',#577,#483,#484);
#412=AXIS2_PLACEMENT_3D('',#579,#485,#486);
#413=AXIS2_PLACEMENT_3D('',#580,#487,#488);
#414=AXIS2_PLACEMENT_3D('',#581,#489,#490);
#415=AXIS2_PLACEMENT_3D('',#583,#491,#492);
#416=AXIS2_PLACEMENT_3D('',#584,#493,#494);
#417=AXIS2_PLACEMENT_3D('',#586,#495,#496);
#418=AXIS2_PLACEMENT_3D('',#588,#497,#498);
#419=AXIS2_PLACEMENT_3D('',#589,#499,#500);
#420=AXIS2_PLACEMENT_3D('',#591,#501,#502);
#421=AXIS2_PLACEMENT_3D('',#592,#503,#504);
#422=AXIS2_PLACEMENT_3D('',#594,#505,#506);
#423=AXIS2_PLACEMENT_3D('',#596,#507,#508);
#424=AXIS2_PLACEMENT_3D('',#597,#509,#510);
#425=AXIS2_PLACEMENT_3D('',#599,#511,#512);
#426=AXIS2_PLACEMENT_3D('',#600,#513,#514);
#427=AXIS2_PLACEMENT_3D('',#602,#515,#516);
#428=AXIS2_PLACEMENT_3D('',#603,#517,#518);
#429=AXIS2_PLACEMENT_3D('',#605,#519,#520);
#430=AXIS2_PLACEMENT_3D('',#606,#521,#522);
#431=AXIS2_PLACEMENT_3D('',#607,#523,#524);
#432=AXIS2_PLACEMENT_3D('',#608,#525,#526);
#433=AXIS2_PLACEMENT_3D('',#610,#527,#528);
#434=AXIS2_PLACEMENT_3D('',#611,#529,#530);
#435=AXIS2_PLACEMENT_3D('',#612,#531,#532);
#436=AXIS2_PLACEMENT_3D('',#614,#533,#534);
#437=AXIS2_PLACEMENT_3D('',#616,#535,#536);
#438=AXIS2_PLACEMENT_3D('',#617,#537,#538);
#439=AXIS2_PLACEMENT_3D('',#619,#539,#540);
#440=AXIS2_PLACEMENT_3D('',#620,#541,#542);
#441=AXIS2_PLACEMENT_3D('',#622,#543,#544);
#442=AXIS2_PLACEMENT_3D('',#623,#545,#546);
#443=DIRECTION('',(0.,0.,1.));
#444=DIRECTION('',(1.,0.,0.));
#445=DIRECTION('',(0.,0.,1.));
#446=DIRECTION('',(1.,0.,0.));
#447=DIRECTION('',(0.,0.,1.));
#448=DIRECTION('',(-1.,0.,0.));
#449=DIRECTION('',(0.,0.,1.));
#450=DIRECTION('',(1.,0.,0.));
#451=DIRECTION('',(0.,0.,1.));
#452=DIRECTION('',(1.,0.,0.));
#453=DIRECTION('',(0.,0.,1.));
#454=DIRECTION('',(1.,0.,0.));
#455=DIRECTION('',(0.,0.,-1.));
#456=DIRECTION('',(-1.,0.,8.22038162380993E-016));
#457=DIRECTION('',(0.,0.,1.));
#458=DIRECTION('',(1.,0.,0.));
#459=DIRECTION('',(0.,0.,1.));
#460=DIRECTION('',(1.,0.,0.));
#461=DIRECTION('',(0.,0.,1.));
#462=DIRECTION('',(1.,0.,4.55473079807913E-016));
#463=DIRECTION('',(0.,0.,-1.));
#464=DIRECTION('',(-1.,0.,0.));
#465=DIRECTION('',(0.,0.,-1.));
#466=DIRECTION('',(-1.,0.,0.));
#467=DIRECTION('',(0.,0.,1.));
#468=DIRECTION('',(1.,0.,0.));
#469=DIRECTION('',(0.,0.,-1.));
#470=DIRECTION('',(-1.,0.,0.));
#471=DIRECTION('',(0.,0.,1.));
#472=DIRECTION('',(1.,0.,0.));
#473=DIRECTION('',(0.,0.,1.));
#474=DIRECTION('',(1.,0.,0.));
#475=DIRECTION('',(0.,0.,1.));
#476=DIRECTION('',(1.,0.,0.));
#477=DIRECTION('',(0.,0.,1.));
#478=DIRECTION('',(1.,0.,0.));
#479=DIRECTION('',(0.,0.,1.));
#480=DIRECTION('',(1.,0.,0.));
#481=DIRECTION('',(0.,0.,-1.));
#482=DIRECTION('',(-1.,0.,-2.87421401721293E-016));
#483=DIRECTION('',(0.,0.,1.));
#484=DIRECTION('',(1.,0.,0.));
#485=DIRECTION('',(0.,0.,-1.));
#486=DIRECTION('',(-1.,0.,-2.56385219253353E-017));
#487=DIRECTION('',(0.,0.,1.));
#488=DIRECTION('',(1.,0.,0.));
#489=DIRECTION('',(0.,0.,-1.));
#490=DIRECTION('',(0.381849318686593,-0.924224592736303,0.));
#491=DIRECTION('',(0.,0.,-1.));
#492=DIRECTION('',(0.381849318686593,-0.924224592736303,0.));
#493=DIRECTION('',(-1.36246009883558E-031,-5.62909128978856E-032,-1.));
#494=DIRECTION('',(0.924224592736303,0.381849318686593,-1.47416559734881E-031));
#495=DIRECTION('',(0.,0.,1.));
#496=DIRECTION('',(-0.381849318686593,0.924224592736303,0.));
#497=DIRECTION('',(-1.36246009883558E-031,-5.62909128978856E-032,-1.));
#498=DIRECTION('',(0.924224592736303,0.381849318686593,0.));
#499=DIRECTION('',(0.,0.,-1.));
#500=DIRECTION('',(0.381849318686593,-0.924224592736303,0.));
#501=DIRECTION('',(-1.36246009883558E-031,-5.62909128978856E-032,-1.));
#502=DIRECTION('',(0.924224592736303,0.381849318686593,-1.47416559734881E-031));
#503=DIRECTION('',(0.,0.,1.));
#504=DIRECTION('',(-0.381849318686593,0.924224592736303,0.));
#505=DIRECTION('',(0.,0.,1.));
#506=DIRECTION('',(-0.381849318686593,0.924224592736303,0.));
#507=DIRECTION('',(0.,0.,-1.));
#508=DIRECTION('',(0.381849318686593,-0.924224592736303,0.));
#509=DIRECTION('',(0.,0.,1.));
#510=DIRECTION('',(-0.381849318686593,0.924224592736303,0.));
#511=DIRECTION('',(0.,0.,1.));
#512=DIRECTION('',(-0.381849318686593,0.924224592736303,0.));
#513=DIRECTION('',(0.,0.,1.));
#514=DIRECTION('',(-0.381849318686593,0.924224592736303,0.));
#515=DIRECTION('',(0.,0.,1.));
#516=DIRECTION('',(-0.381849318686593,0.924224592736303,0.));
#517=DIRECTION('',(0.,0.,1.));
#518=DIRECTION('',(-0.381849318686593,0.924224592736303,0.));
#519=DIRECTION('',(0.,0.,-1.));
#520=DIRECTION('',(0.381849318686593,-0.924224592736303,0.));
#521=DIRECTION('',(0.,0.,1.));
#522=DIRECTION('',(-0.381849318686593,0.924224592736303,-1.57387287388413E-017));
#523=DIRECTION('',(-1.36246009883558E-031,-5.62909128978856E-032,-1.));
#524=DIRECTION('',(0.924224592736303,0.381849318686593,0.));
#525=DIRECTION('',(-1.36246009883558E-031,-5.62909128978856E-032,-1.));
#526=DIRECTION('',(0.924224592736303,0.381849318686593,0.));
#527=DIRECTION('',(-1.36246009883558E-031,-5.62909128978856E-032,-1.));
#528=DIRECTION('',(0.924224592736303,0.381849318686593,0.));
#529=DIRECTION('',(-1.36246009883558E-031,-5.62909128978856E-032,-1.));
#530=DIRECTION('',(0.924224592736303,0.381849318686593,3.81139401403368E-016));
#531=DIRECTION('',(0.,0.,-1.));
#532=DIRECTION('',(-1.,0.,0.));
#533=DIRECTION('',(0.,0.,-1.));
#534=DIRECTION('',(-1.,0.,0.));
#535=DIRECTION('',(0.,0.,-1.));
#536=DIRECTION('',(-1.,0.,0.));
#537=DIRECTION('',(0.,0.,-1.));
#538=DIRECTION('',(-1.,0.,0.));
#539=DIRECTION('',(0.,0.,1.));
#540=DIRECTION('',(1.,0.,0.));
#541=DIRECTION('',(0.,0.,-1.));
#542=DIRECTION('',(-1.,0.,0.));
#543=DIRECTION('',(0.,0.,-1.));
#544=DIRECTION('',(-1.,0.,0.));
#545=DIRECTION('',(0.,0.,-1.));
#546=DIRECTION('',(-1.,0.,0.));
#547=CARTESIAN_POINT('',(0.,0.,0.));
#548=CARTESIAN_POINT('',(0.,0.,-87.1596300563897));
#549=CARTESIAN_POINT('',(15.0403377741641,0.,-87.1596300563897));
#550=CARTESIAN_POINT('',(0.,0.,-90.7308239984004));
#551=CARTESIAN_POINT('',(-11.5745763876258,0.,-90.7308239984004));
#552=CARTESIAN_POINT('',(0.,0.,-87.0381199402273));
#553=CARTESIAN_POINT('',(0.,0.,-69.9194885602597));
#554=CARTESIAN_POINT('',(14.6427517924488,0.,-69.9194885602597));
#555=CARTESIAN_POINT('',(0.,0.,-77.9194885602598));
#556=CARTESIAN_POINT('',(15.4644377967236,0.,-77.9194885602598));
#557=CARTESIAN_POINT('',(0.,0.,-77.9194885602598));
#558=CARTESIAN_POINT('',(0.,0.,-31.));
#559=CARTESIAN_POINT('',(14.6427517924488,0.,-31.));
#560=CARTESIAN_POINT('',(0.,0.,-87.));
#561=CARTESIAN_POINT('',(0.,0.,-87.1596300563897));
#562=CARTESIAN_POINT('',(0.,0.,-26.));
#563=CARTESIAN_POINT('',(-19.642752,0.,-26.));
#564=CARTESIAN_POINT('',(0.,0.,-31.));
#565=CARTESIAN_POINT('',(0.,0.,-90.7308239984004));
#566=CARTESIAN_POINT('',(10.58714803306,0.,-90.7308239984004));
#567=CARTESIAN_POINT('',(10.4200548556809,1.87354217420569,-90.7308239984004));
#568=CARTESIAN_POINT('',(0.,0.,-87.));
#569=CARTESIAN_POINT('',(4.96329692251297,0.,-87.));
#570=CARTESIAN_POINT('',(0.,0.,-87.));
#571=CARTESIAN_POINT('',(0.,0.,-88.9380225381066));
#572=CARTESIAN_POINT('',(7.76904172032164,0.,-88.9380225381066));
#573=CARTESIAN_POINT('',(0.,0.,-90.));
#574=CARTESIAN_POINT('',(0.,0.,-89.144997616976));
#575=CARTESIAN_POINT('',(7.84738201310401,0.,-89.144997616976));
#576=CARTESIAN_POINT('',(0.,0.,-88.9380225381066));
#577=CARTESIAN_POINT('',(0.,0.,-90.5769173640626));
#578=CARTESIAN_POINT('',(10.161382013104,0.,-90.5769173640626));
#579=CARTESIAN_POINT('',(0.,0.,-89.144997616976));
#580=CARTESIAN_POINT('',(0.,0.,-89.6415250505112));
#581=CARTESIAN_POINT('',(-8.98843282854968E-030,-4.96225506541897E-029,
-26.));
#582=CARTESIAN_POINT('',(12.0167980590671,-29.0853479334115,-26.));
#583=CARTESIAN_POINT('',(-8.98843282854968E-030,-4.96225506541897E-029,
-26.));
#584=CARTESIAN_POINT('',(-5.45284887207136E-030,-4.81618014644896E-029,
0.));
#585=CARTESIAN_POINT('',(29.0853479334115,12.0167980590671,-4.63919913485671E-030));
#586=CARTESIAN_POINT('',(-8.98843282854968E-030,-4.96225506541897E-029,
-14.6253876765866));
#587=CARTESIAN_POINT('',(-12.0167980590671,29.0853479334115,-14.6253876765866));
#588=CARTESIAN_POINT('',(-1.10660115678587E-030,-4.6366121343047E-029,31.9));
#589=CARTESIAN_POINT('',(-8.98843282854968E-030,-4.96225506541897E-029,
0.));
#590=CARTESIAN_POINT('',(9.28681647762303,-22.477725523697,0.));
#591=CARTESIAN_POINT('',(9.71051923871716,-23.5032518050072,0.));
#592=CARTESIAN_POINT('',(-8.98843282854968E-030,-4.96225506541897E-029,
-16.0875));
#593=CARTESIAN_POINT('',(-10.4913100309141,25.3930706854299,-16.0875));
#594=CARTESIAN_POINT('',(-8.98843282854968E-030,-4.96225506541897E-029,
-16.0875));
#595=CARTESIAN_POINT('',(-11.0497826711254,26.744792747496,-16.0875));
#596=CARTESIAN_POINT('',(11.0497826711253,-26.744792747496,-16.0875));
#597=CARTESIAN_POINT('',(-8.98843282854968E-030,-4.96225506541897E-029,
-19.9125));
#598=CARTESIAN_POINT('',(-10.4913100309141,25.3930706854299,-19.9125));
#599=CARTESIAN_POINT('',(-8.98843282854968E-030,-4.96225506541897E-029,
-4.99999999999999));
#600=CARTESIAN_POINT('',(-8.98843282854968E-030,-4.96225506541897E-029,
-19.9125));
#601=CARTESIAN_POINT('',(-11.0497826711254,26.744792747496,-19.9125));
#602=CARTESIAN_POINT('',(10.4913100309141,-25.39307068543,-19.9125));
#603=CARTESIAN_POINT('',(-8.98843282854968E-030,-4.96225506541897E-029,
-21.3746123234134));
#604=CARTESIAN_POINT('',(-12.0167980590671,29.0853479334115,-21.3746123234134));
#605=CARTESIAN_POINT('',(-8.98843282854968E-030,-4.96225506541897E-029,
-19.9125));
#606=CARTESIAN_POINT('',(-8.98843282854968E-030,-4.96225506541897E-029,
-14.6253876765866));
#607=CARTESIAN_POINT('',(-1.10660115678587E-030,-4.6366121343047E-029,31.9));
#608=CARTESIAN_POINT('',(-1.10660115678587E-030,-4.6366121343047E-029,31.9));
#609=CARTESIAN_POINT('',(21.0006331134622,8.67654627391052,31.9));
#610=CARTESIAN_POINT('',(-1.10660115678587E-030,-4.6366121343047E-029,31.9));
#611=CARTESIAN_POINT('',(-1.10660115678587E-030,-4.6366121343047E-029,31.9));
#612=CARTESIAN_POINT('',(0.,0.,-80.));
#613=CARTESIAN_POINT('',(-16.,0.,-80.));
#614=CARTESIAN_POINT('',(0.,0.,-92.));
#615=CARTESIAN_POINT('',(-16.,0.,-92.));
#616=CARTESIAN_POINT('',(0.,0.,0.));
#617=CARTESIAN_POINT('',(0.,0.,-80.));
#618=CARTESIAN_POINT('',(-5.,0.,-80.));
#619=CARTESIAN_POINT('',(16.,0.,-80.));
#620=CARTESIAN_POINT('',(0.,0.,-92.));
#621=CARTESIAN_POINT('',(-5.,0.,-92.));
#622=CARTESIAN_POINT('',(0.,0.,0.));
#623=CARTESIAN_POINT('',(5.,0.,-92.));
#624=MECHANICAL_DESIGN_GEOMETRIC_PRESENTATION_REPRESENTATION('',(#94,#95),
#625);
#625=(
GEOMETRIC_REPRESENTATION_CONTEXT(3)
GLOBAL_UNCERTAINTY_ASSIGNED_CONTEXT((#626))
GLOBAL_UNIT_ASSIGNED_CONTEXT((#632,#628,#627))
REPRESENTATION_CONTEXT('R790_032HA06S2_16M_SIM',
'TOP_LEVEL_ASSEMBLY_PART')
);
#626=UNCERTAINTY_MEASURE_WITH_UNIT(LENGTH_MEASURE(2.E-005),#632,
'DISTANCE_ACCURACY_VALUE','Maximum Tolerance applied to model');
#627=(
NAMED_UNIT(*)
SI_UNIT($,.STERADIAN.)
SOLID_ANGLE_UNIT()
);
#628=(
CONVERSION_BASED_UNIT('DEGREE',#630)
NAMED_UNIT(#629)
PLANE_ANGLE_UNIT()
);
#629=DIMENSIONAL_EXPONENTS(0.,0.,0.,0.,0.,0.,0.);
#630=PLANE_ANGLE_MEASURE_WITH_UNIT(PLANE_ANGLE_MEASURE(0.0174532925),#631);
#631=(
NAMED_UNIT(*)
PLANE_ANGLE_UNIT()
SI_UNIT($,.RADIAN.)
);
#632=(
LENGTH_UNIT()
NAMED_UNIT(*)
SI_UNIT(.MILLI.,.METRE.)
);
ENDSEC;
END-ISO-10303-21;
