ISO-10303-21;
HEADER;
/* Generated by software containing ST-Developer
 * from STEP Tools, Inc. (www.steptools.com) 
 */
/* OPTION: using custom schema-name function */

FILE_DESCRIPTION(
/* description */ ('3-D model version:1'),
/* implementation_level */ '2;1');

FILE_NAME(
/* name */ 'R790-025HA06S2-16L',
/* time_stamp */ '2015-10-15T08:53:05+02:00',
/* author */ ('InteractiveCad'),
/* organization */ ('AB Sandvik Coromant'),
/* preprocessor_version */ 'ST-DEVELOPER v15',
/* originating_system */ 'SIEMENS PLM Software NX 8.5',
/* authorisation */ '');

FILE_SCHEMA (('AP203_CONFIGURATION_CONTROLLED_3D_DESIGN_OF_MECHANICAL_PARTS_AND_ASSEMBLIES_MIM_LF { 1 0 10303 403 2 1 2}'));
ENDSEC;

DATA;
#10=SHAPE_REPRESENTATION_RELATIONSHIP('None',
'relationship between R790_025HA06S2_16L_SIM-None and R790_025HA06S2_1
6L_SIM-None',#92,#11);
#11=ADVANCED_BREP_SHAPE_REPRESENTATION('R790_025HA06S2_16L_SIM-None',(#123,
#124),#649);
#12=CC_DESIGN_APPROVAL(#24,(#82));
#13=CC_DESIGN_APPROVAL(#25,(#84));
#14=CC_DESIGN_APPROVAL(#26,(#31));
#15=APPROVAL_PERSON_ORGANIZATION(#69,#24,#18);
#16=APPROVAL_PERSON_ORGANIZATION(#70,#25,#19);
#17=APPROVAL_PERSON_ORGANIZATION(#71,#26,#20);
#18=APPROVAL_ROLE('approver');
#19=APPROVAL_ROLE('approver');
#20=APPROVAL_ROLE('approver');
#21=APPROVAL_DATE_TIME(#39,#24);
#22=APPROVAL_DATE_TIME(#40,#25);
#23=APPROVAL_DATE_TIME(#41,#26);
#24=APPROVAL(#27,' ');
#25=APPROVAL(#28,' ');
#26=APPROVAL(#29,' ');
#27=APPROVAL_STATUS('not_yet_approved');
#28=APPROVAL_STATUS('not_yet_approved');
#29=APPROVAL_STATUS('not_yet_approved');
#30=CC_DESIGN_SECURITY_CLASSIFICATION(#31,(#84));
#31=SECURITY_CLASSIFICATION(' ',' ',#32);
#32=SECURITY_CLASSIFICATION_LEVEL('confidential');
#33=CC_DESIGN_DATE_AND_TIME_ASSIGNMENT(#37,#35,(#82));
#34=CC_DESIGN_DATE_AND_TIME_ASSIGNMENT(#38,#36,(#31));
#35=DATE_TIME_ROLE('creation_date');
#36=DATE_TIME_ROLE('classification_date');
#37=DATE_AND_TIME(#52,#42);
#38=DATE_AND_TIME(#53,#43);
#39=DATE_AND_TIME(#54,#44);
#40=DATE_AND_TIME(#55,#45);
#41=DATE_AND_TIME(#56,#46);
#42=LOCAL_TIME(0,0,0.,#47);
#43=LOCAL_TIME(0,0,0.,#48);
#44=LOCAL_TIME(0,0,0.,#49);
#45=LOCAL_TIME(0,0,0.,#50);
#46=LOCAL_TIME(0,0,0.,#51);
#47=COORDINATED_UNIVERSAL_TIME_OFFSET(0,0,.BEHIND.);
#48=COORDINATED_UNIVERSAL_TIME_OFFSET(0,0,.BEHIND.);
#49=COORDINATED_UNIVERSAL_TIME_OFFSET(0,0,.BEHIND.);
#50=COORDINATED_UNIVERSAL_TIME_OFFSET(0,0,.BEHIND.);
#51=COORDINATED_UNIVERSAL_TIME_OFFSET(0,0,.BEHIND.);
#52=CALENDAR_DATE(0,1,1);
#53=CALENDAR_DATE(0,1,1);
#54=CALENDAR_DATE(0,1,1);
#55=CALENDAR_DATE(0,1,1);
#56=CALENDAR_DATE(0,1,1);
#57=CC_DESIGN_PERSON_AND_ORGANIZATION_ASSIGNMENT(#65,#61,(#82,#84));
#58=CC_DESIGN_PERSON_AND_ORGANIZATION_ASSIGNMENT(#66,#62,(#86));
#59=CC_DESIGN_PERSON_AND_ORGANIZATION_ASSIGNMENT(#67,#63,(#84));
#60=CC_DESIGN_PERSON_AND_ORGANIZATION_ASSIGNMENT(#68,#64,(#31));
#61=PERSON_AND_ORGANIZATION_ROLE('creator');
#62=PERSON_AND_ORGANIZATION_ROLE('design_owner');
#63=PERSON_AND_ORGANIZATION_ROLE('design_supplier');
#64=PERSON_AND_ORGANIZATION_ROLE('classification_officer');
#65=PERSON_AND_ORGANIZATION(#79,#72);
#66=PERSON_AND_ORGANIZATION(#79,#73);
#67=PERSON_AND_ORGANIZATION(#79,#74);
#68=PERSON_AND_ORGANIZATION(#79,#75);
#69=PERSON_AND_ORGANIZATION(#79,#76);
#70=PERSON_AND_ORGANIZATION(#79,#77);
#71=PERSON_AND_ORGANIZATION(#79,#78);
#72=ORGANIZATION(' ',' ',' ');
#73=ORGANIZATION(' ',' ',' ');
#74=ORGANIZATION(' ',' ',' ');
#75=ORGANIZATION(' ',' ',' ');
#76=ORGANIZATION(' ',' ',' ');
#77=ORGANIZATION(' ',' ',' ');
#78=ORGANIZATION(' ',' ',' ');
#79=PERSON(' ',' ',' ',(' '),$,$);
#80=SHAPE_DEFINITION_REPRESENTATION(#81,#92);
#81=PRODUCT_DEFINITION_SHAPE('','',#82);
#82=PRODUCT_DEFINITION(' ','',#84,#83);
#83=DESIGN_CONTEXT('',#91,'design');
#84=PRODUCT_DEFINITION_FORMATION_WITH_SPECIFIED_SOURCE(' ',' ',#86,
 .NOT_KNOWN.);
#85=PRODUCT_RELATED_PRODUCT_CATEGORY('detail','',(#86));
#86=PRODUCT('R790_025HA06S2_16L_SIM','R790_025HA06S2_16L_SIM',' ',(#89));
#87=PRODUCT_CATEGORY('part',' ');
#88=PRODUCT_CATEGORY(' ','');
#89=MECHANICAL_CONTEXT(' ',#91,'mechanical');
#90=APPLICATION_PROTOCOL_DEFINITION('international standard',
'config_control_design',2010,#91);
#91=APPLICATION_CONTEXT(
'configuration controlled 3D designs of mechanical parts and assemblie
s');
#92=SHAPE_REPRESENTATION('R790_025HA06S2_16L_SIM-None',(#391),#649);
#93=(
BOUNDED_SURFACE()
B_SPLINE_SURFACE(3,3,((#582,#583,#584,#585,#586,#587,#588),(#589,#590,#591,
#592,#593,#594,#595),(#596,#597,#598,#599,#600,#601,#602),(#603,#604,#605,
#606,#607,#608,#609)),.UNSPECIFIED.,.F.,.T.,.F.)
B_SPLINE_SURFACE_WITH_KNOTS((4,4),(1,3,3,3,1),(0.,1.),(-0.5,0.,0.5,1.,1.5),
 .UNSPECIFIED.)
GEOMETRIC_REPRESENTATION_ITEM()
RATIONAL_B_SPLINE_SURFACE(((1.,0.333333333333333,0.333333333333333,1.,0.333333333333333,
0.333333333333333,1.),(0.881865209708364,0.293955069902788,0.293955069902788,
0.881865209708364,0.293955069902788,0.293955069902788,0.881865209708364),
(0.881865209708364,0.293955069902788,0.293955069902788,0.881865209708364,
0.293955069902788,0.293955069902788,0.881865209708364),(1.,0.333333333333333,
0.333333333333333,1.,0.333333333333333,0.333333333333333,1.)))
REPRESENTATION_ITEM('')
SURFACE()
);
#94=FACE_OUTER_BOUND('',#236,.T.);
#95=FACE_OUTER_BOUND('',#263,.T.);
#96=CONICAL_SURFACE('',#405,12.1307425981555,5.8643283042661);
#97=CONICAL_SURFACE('',#408,11.6963310004543,2.68334654304326);
#98=CONICAL_SURFACE('',#417,4.44740059825951,20.7317088900196);
#99=CONICAL_SURFACE('',#419,4.50337523939418,58.4515493321155);
#100=CONICAL_SURFACE('',#436,28.9375471694755,60.);
#101=CONICAL_SURFACE('',#437,31.47,60.);
#102=CONICAL_SURFACE('',#441,22.7224348697396,2.86813194068655);
#103=TOROIDAL_SURFACE('',#402,7.99758792586413,3.7);
#104=TOROIDAL_SURFACE('',#410,16.309057,5.);
#105=TOROIDAL_SURFACE('',#420,7.39291656897607,1.1);
#106=PRESENTATION_LAYER_ASSIGNMENT('1','Layer 1',(#123,#124));
#107=STYLED_ITEM('',(#109),#123);
#108=STYLED_ITEM('',(#110),#124);
#109=PRESENTATION_STYLE_ASSIGNMENT((#111));
#110=PRESENTATION_STYLE_ASSIGNMENT((#112));
#111=SURFACE_STYLE_USAGE(.BOTH.,#113);
#112=SURFACE_STYLE_USAGE(.BOTH.,#114);
#113=SURFACE_SIDE_STYLE('',(#115));
#114=SURFACE_SIDE_STYLE('',(#116));
#115=SURFACE_STYLE_FILL_AREA(#117);
#116=SURFACE_STYLE_FILL_AREA(#118);
#117=FILL_AREA_STYLE('',(#119));
#118=FILL_AREA_STYLE('',(#120));
#119=FILL_AREA_STYLE_COLOUR('',#121);
#120=FILL_AREA_STYLE_COLOUR('',#122);
#121=COLOUR_RGB('TLS_CUT',0.8,0.8,0.8);
#122=COLOUR_RGB('TLS_NOCUT',0.499992370489052,0.499992370489052,0.499992370489052);
#123=MANIFOLD_SOLID_BREP('',#125);
#124=MANIFOLD_SOLID_BREP('TURN_SOLID',#126);
#125=CLOSED_SHELL('',(#136,#137,#138,#139));
#126=CLOSED_SHELL('',(#140,#141,#142,#143,#144,#145,#146,#147,#148,#149,
#150,#151,#152,#153,#154,#155,#156,#157,#158,#159,#160,#161));
#127=PLANE('',#396);
#128=PLANE('',#399);
#129=PLANE('',#412);
#130=PLANE('',#414);
#131=PLANE('',#422);
#132=PLANE('',#427);
#133=PLANE('',#430);
#134=PLANE('',#434);
#135=PLANE('',#440);
#136=ADVANCED_FACE('',(#168,#169),#162,.T.);
#137=ADVANCED_FACE('',(#170,#171),#127,.T.);
#138=ADVANCED_FACE('',(#172,#173),#163,.F.);
#139=ADVANCED_FACE('',(#174,#175),#128,.T.);
#140=ADVANCED_FACE('',(#176,#177),#103,.T.);
#141=ADVANCED_FACE('',(#178,#179),#96,.T.);
#142=ADVANCED_FACE('',(#180,#181),#164,.T.);
#143=ADVANCED_FACE('',(#182,#183),#97,.T.);
#144=ADVANCED_FACE('',(#184,#185),#104,.F.);
#145=ADVANCED_FACE('',(#186,#187),#129,.T.);
#146=ADVANCED_FACE('',(#94),#130,.F.);
#147=ADVANCED_FACE('',(#188,#189),#93,.T.);
#148=ADVANCED_FACE('',(#190,#191),#98,.F.);
#149=ADVANCED_FACE('',(#192,#193),#99,.F.);
#150=ADVANCED_FACE('',(#194,#195),#105,.T.);
#151=ADVANCED_FACE('',(#196,#197),#131,.T.);
#152=ADVANCED_FACE('',(#198,#199),#165,.T.);
#153=ADVANCED_FACE('',(#200,#201),#132,.F.);
#154=ADVANCED_FACE('',(#202,#203),#133,.T.);
#155=ADVANCED_FACE('',(#204,#205),#166,.T.);
#156=ADVANCED_FACE('',(#206,#207),#134,.T.);
#157=ADVANCED_FACE('',(#208,#209),#100,.T.);
#158=ADVANCED_FACE('',(#210,#211),#101,.T.);
#159=ADVANCED_FACE('',(#212,#213),#167,.T.);
#160=ADVANCED_FACE('',(#95),#135,.F.);
#161=ADVANCED_FACE('',(#214,#215),#102,.T.);
#162=CYLINDRICAL_SURFACE('',#394,12.5);
#163=CYLINDRICAL_SURFACE('',#398,1.5);
#164=CYLINDRICAL_SURFACE('',#407,11.3090565938807);
#165=CYLINDRICAL_SURFACE('',#425,31.47);
#166=CYLINDRICAL_SURFACE('',#432,27.475);
#167=CYLINDRICAL_SURFACE('',#438,31.47);
#168=FACE_BOUND('',#216,.T.);
#169=FACE_BOUND('',#217,.T.);
#170=FACE_BOUND('',#218,.T.);
#171=FACE_BOUND('',#219,.T.);
#172=FACE_BOUND('',#220,.T.);
#173=FACE_BOUND('',#221,.T.);
#174=FACE_BOUND('',#222,.T.);
#175=FACE_BOUND('',#223,.T.);
#176=FACE_BOUND('',#224,.T.);
#177=FACE_BOUND('',#225,.T.);
#178=FACE_BOUND('',#226,.T.);
#179=FACE_BOUND('',#227,.T.);
#180=FACE_BOUND('',#228,.T.);
#181=FACE_BOUND('',#229,.T.);
#182=FACE_BOUND('',#230,.T.);
#183=FACE_BOUND('',#231,.T.);
#184=FACE_BOUND('',#232,.T.);
#185=FACE_BOUND('',#233,.T.);
#186=FACE_BOUND('',#234,.T.);
#187=FACE_BOUND('',#235,.T.);
#188=FACE_BOUND('',#237,.T.);
#189=FACE_BOUND('',#238,.T.);
#190=FACE_BOUND('',#239,.T.);
#191=FACE_BOUND('',#240,.T.);
#192=FACE_BOUND('',#241,.T.);
#193=FACE_BOUND('',#242,.T.);
#194=FACE_BOUND('',#243,.T.);
#195=FACE_BOUND('',#244,.T.);
#196=FACE_BOUND('',#245,.T.);
#197=FACE_BOUND('',#246,.T.);
#198=FACE_BOUND('',#247,.T.);
#199=FACE_BOUND('',#248,.T.);
#200=FACE_BOUND('',#249,.T.);
#201=FACE_BOUND('',#250,.T.);
#202=FACE_BOUND('',#251,.T.);
#203=FACE_BOUND('',#252,.T.);
#204=FACE_BOUND('',#253,.T.);
#205=FACE_BOUND('',#254,.T.);
#206=FACE_BOUND('',#255,.T.);
#207=FACE_BOUND('',#256,.T.);
#208=FACE_BOUND('',#257,.T.);
#209=FACE_BOUND('',#258,.T.);
#210=FACE_BOUND('',#259,.T.);
#211=FACE_BOUND('',#260,.T.);
#212=FACE_BOUND('',#261,.T.);
#213=FACE_BOUND('',#262,.T.);
#214=FACE_BOUND('',#264,.T.);
#215=FACE_BOUND('',#265,.T.);
#216=EDGE_LOOP('',(#266));
#217=EDGE_LOOP('',(#267));
#218=EDGE_LOOP('',(#268));
#219=EDGE_LOOP('',(#269));
#220=EDGE_LOOP('',(#270));
#221=EDGE_LOOP('',(#271));
#222=EDGE_LOOP('',(#272));
#223=EDGE_LOOP('',(#273));
#224=EDGE_LOOP('',(#274));
#225=EDGE_LOOP('',(#275));
#226=EDGE_LOOP('',(#276));
#227=EDGE_LOOP('',(#277));
#228=EDGE_LOOP('',(#278));
#229=EDGE_LOOP('',(#279));
#230=EDGE_LOOP('',(#280));
#231=EDGE_LOOP('',(#281));
#232=EDGE_LOOP('',(#282));
#233=EDGE_LOOP('',(#283));
#234=EDGE_LOOP('',(#284));
#235=EDGE_LOOP('',(#285));
#236=EDGE_LOOP('',(#286));
#237=EDGE_LOOP('',(#287));
#238=EDGE_LOOP('',(#288));
#239=EDGE_LOOP('',(#289));
#240=EDGE_LOOP('',(#290));
#241=EDGE_LOOP('',(#291));
#242=EDGE_LOOP('',(#292));
#243=EDGE_LOOP('',(#293));
#244=EDGE_LOOP('',(#294));
#245=EDGE_LOOP('',(#295));
#246=EDGE_LOOP('',(#296));
#247=EDGE_LOOP('',(#297));
#248=EDGE_LOOP('',(#298));
#249=EDGE_LOOP('',(#299));
#250=EDGE_LOOP('',(#300));
#251=EDGE_LOOP('',(#301));
#252=EDGE_LOOP('',(#302));
#253=EDGE_LOOP('',(#303));
#254=EDGE_LOOP('',(#304));
#255=EDGE_LOOP('',(#305));
#256=EDGE_LOOP('',(#306));
#257=EDGE_LOOP('',(#307));
#258=EDGE_LOOP('',(#308));
#259=EDGE_LOOP('',(#309));
#260=EDGE_LOOP('',(#310));
#261=EDGE_LOOP('',(#311));
#262=EDGE_LOOP('',(#312));
#263=EDGE_LOOP('',(#313));
#264=EDGE_LOOP('',(#314));
#265=EDGE_LOOP('',(#315));
#266=ORIENTED_EDGE('',*,*,#341,.T.);
#267=ORIENTED_EDGE('',*,*,#342,.F.);
#268=ORIENTED_EDGE('',*,*,#343,.T.);
#269=ORIENTED_EDGE('',*,*,#341,.F.);
#270=ORIENTED_EDGE('',*,*,#344,.T.);
#271=ORIENTED_EDGE('',*,*,#343,.F.);
#272=ORIENTED_EDGE('',*,*,#342,.T.);
#273=ORIENTED_EDGE('',*,*,#344,.F.);
#274=ORIENTED_EDGE('',*,*,#345,.F.);
#275=ORIENTED_EDGE('',*,*,#346,.T.);
#276=ORIENTED_EDGE('',*,*,#347,.F.);
#277=ORIENTED_EDGE('',*,*,#348,.T.);
#278=ORIENTED_EDGE('',*,*,#349,.F.);
#279=ORIENTED_EDGE('',*,*,#347,.T.);
#280=ORIENTED_EDGE('',*,*,#348,.F.);
#281=ORIENTED_EDGE('',*,*,#345,.T.);
#282=ORIENTED_EDGE('',*,*,#350,.T.);
#283=ORIENTED_EDGE('',*,*,#349,.T.);
#284=ORIENTED_EDGE('',*,*,#351,.T.);
#285=ORIENTED_EDGE('',*,*,#346,.F.);
#286=ORIENTED_EDGE('',*,*,#352,.F.);
#287=ORIENTED_EDGE('',*,*,#353,.F.);
#288=ORIENTED_EDGE('',*,*,#352,.T.);
#289=ORIENTED_EDGE('',*,*,#354,.F.);
#290=ORIENTED_EDGE('',*,*,#353,.T.);
#291=ORIENTED_EDGE('',*,*,#355,.F.);
#292=ORIENTED_EDGE('',*,*,#354,.T.);
#293=ORIENTED_EDGE('',*,*,#355,.T.);
#294=ORIENTED_EDGE('',*,*,#351,.F.);
#295=ORIENTED_EDGE('',*,*,#356,.T.);
#296=ORIENTED_EDGE('',*,*,#350,.F.);
#297=ORIENTED_EDGE('',*,*,#357,.T.);
#298=ORIENTED_EDGE('',*,*,#358,.T.);
#299=ORIENTED_EDGE('',*,*,#357,.F.);
#300=ORIENTED_EDGE('',*,*,#359,.T.);
#301=ORIENTED_EDGE('',*,*,#360,.T.);
#302=ORIENTED_EDGE('',*,*,#361,.F.);
#303=ORIENTED_EDGE('',*,*,#360,.F.);
#304=ORIENTED_EDGE('',*,*,#362,.T.);
#305=ORIENTED_EDGE('',*,*,#363,.T.);
#306=ORIENTED_EDGE('',*,*,#362,.F.);
#307=ORIENTED_EDGE('',*,*,#364,.T.);
#308=ORIENTED_EDGE('',*,*,#363,.F.);
#309=ORIENTED_EDGE('',*,*,#361,.T.);
#310=ORIENTED_EDGE('',*,*,#358,.F.);
#311=ORIENTED_EDGE('',*,*,#364,.F.);
#312=ORIENTED_EDGE('',*,*,#356,.F.);
#313=ORIENTED_EDGE('',*,*,#365,.F.);
#314=ORIENTED_EDGE('',*,*,#365,.T.);
#315=ORIENTED_EDGE('',*,*,#359,.F.);
#316=VERTEX_POINT('',#546);
#317=VERTEX_POINT('',#548);
#318=VERTEX_POINT('',#551);
#319=VERTEX_POINT('',#554);
#320=VERTEX_POINT('',#558);
#321=VERTEX_POINT('',#560);
#322=VERTEX_POINT('',#563);
#323=VERTEX_POINT('',#565);
#324=VERTEX_POINT('',#568);
#325=VERTEX_POINT('',#572);
#326=VERTEX_POINT('',#575);
#327=VERTEX_POINT('',#578);
#328=VERTEX_POINT('',#581);
#329=VERTEX_POINT('',#611);
#330=VERTEX_POINT('',#614);
#331=VERTEX_POINT('',#618);
#332=VERTEX_POINT('',#621);
#333=VERTEX_POINT('',#623);
#334=VERTEX_POINT('',#626);
#335=VERTEX_POINT('',#629);
#336=VERTEX_POINT('',#631);
#337=VERTEX_POINT('',#634);
#338=VERTEX_POINT('',#637);
#339=VERTEX_POINT('',#640);
#340=VERTEX_POINT('',#645);
#341=EDGE_CURVE('',#316,#316,#366,.T.);
#342=EDGE_CURVE('',#317,#317,#367,.T.);
#343=EDGE_CURVE('',#318,#318,#368,.T.);
#344=EDGE_CURVE('',#319,#319,#369,.T.);
#345=EDGE_CURVE('',#320,#320,#370,.T.);
#346=EDGE_CURVE('',#321,#321,#371,.T.);
#347=EDGE_CURVE('',#322,#322,#372,.T.);
#348=EDGE_CURVE('',#323,#323,#373,.T.);
#349=EDGE_CURVE('',#324,#324,#374,.T.);
#350=EDGE_CURVE('',#325,#325,#375,.T.);
#351=EDGE_CURVE('',#326,#326,#376,.T.);
#352=EDGE_CURVE('',#327,#327,#377,.T.);
#353=EDGE_CURVE('',#328,#328,#378,.T.);
#354=EDGE_CURVE('',#329,#329,#379,.T.);
#355=EDGE_CURVE('',#330,#330,#380,.T.);
#356=EDGE_CURVE('',#331,#331,#381,.T.);
#357=EDGE_CURVE('',#332,#332,#382,.T.);
#358=EDGE_CURVE('',#333,#333,#383,.T.);
#359=EDGE_CURVE('',#334,#334,#384,.T.);
#360=EDGE_CURVE('',#335,#335,#385,.T.);
#361=EDGE_CURVE('',#336,#336,#386,.T.);
#362=EDGE_CURVE('',#337,#337,#387,.T.);
#363=EDGE_CURVE('',#338,#338,#388,.T.);
#364=EDGE_CURVE('',#339,#339,#389,.T.);
#365=EDGE_CURVE('',#340,#340,#390,.T.);
#366=CIRCLE('',#392,12.5);
#367=CIRCLE('',#393,12.5);
#368=CIRCLE('',#395,1.5);
#369=CIRCLE('',#397,1.5);
#370=CIRCLE('',#400,11.6963310004543);
#371=CIRCLE('',#401,8.18777017966674);
#372=CIRCLE('',#403,11.3090565938807);
#373=CIRCLE('',#404,12.1307425981555);
#374=CIRCLE('',#406,11.3090565938807);
#375=CIRCLE('',#409,16.309057);
#376=CIRCLE('',#411,7.35446511152939);
#377=CIRCLE('',#413,1.64165580045083);
#378=CIRCLE('',#415,4.44740059825951);
#379=CIRCLE('',#416,4.50337523939418);
#380=CIRCLE('',#418,6.81737523939418);
#381=CIRCLE('',#421,31.47);
#382=CIRCLE('',#423,31.47);
#383=CIRCLE('',#424,31.47);
#384=CIRCLE('',#426,24.3206312625251);
#385=CIRCLE('',#428,27.475);
#386=CIRCLE('',#429,28.9375471694755);
#387=CIRCLE('',#431,27.475);
#388=CIRCLE('',#433,28.9375471694755);
#389=CIRCLE('',#435,31.47);
#390=CIRCLE('',#439,22.7224348697396);
#391=AXIS2_PLACEMENT_3D('',#544,#442,#443);
#392=AXIS2_PLACEMENT_3D('',#545,#444,#445);
#393=AXIS2_PLACEMENT_3D('',#547,#446,#447);
#394=AXIS2_PLACEMENT_3D('',#549,#448,#449);
#395=AXIS2_PLACEMENT_3D('',#550,#450,#451);
#396=AXIS2_PLACEMENT_3D('',#552,#452,#453);
#397=AXIS2_PLACEMENT_3D('',#553,#454,#455);
#398=AXIS2_PLACEMENT_3D('',#555,#456,#457);
#399=AXIS2_PLACEMENT_3D('',#556,#458,#459);
#400=AXIS2_PLACEMENT_3D('',#557,#460,#461);
#401=AXIS2_PLACEMENT_3D('',#559,#462,#463);
#402=AXIS2_PLACEMENT_3D('',#561,#464,#465);
#403=AXIS2_PLACEMENT_3D('',#562,#466,#467);
#404=AXIS2_PLACEMENT_3D('',#564,#468,#469);
#405=AXIS2_PLACEMENT_3D('',#566,#470,#471);
#406=AXIS2_PLACEMENT_3D('',#567,#472,#473);
#407=AXIS2_PLACEMENT_3D('',#569,#474,#475);
#408=AXIS2_PLACEMENT_3D('',#570,#476,#477);
#409=AXIS2_PLACEMENT_3D('',#571,#478,#479);
#410=AXIS2_PLACEMENT_3D('',#573,#480,#481);
#411=AXIS2_PLACEMENT_3D('',#574,#482,#483);
#412=AXIS2_PLACEMENT_3D('',#576,#484,#485);
#413=AXIS2_PLACEMENT_3D('',#577,#486,#487);
#414=AXIS2_PLACEMENT_3D('',#579,#488,#489);
#415=AXIS2_PLACEMENT_3D('',#580,#490,#491);
#416=AXIS2_PLACEMENT_3D('',#610,#492,#493);
#417=AXIS2_PLACEMENT_3D('',#612,#494,#495);
#418=AXIS2_PLACEMENT_3D('',#613,#496,#497);
#419=AXIS2_PLACEMENT_3D('',#615,#498,#499);
#420=AXIS2_PLACEMENT_3D('',#616,#500,#501);
#421=AXIS2_PLACEMENT_3D('',#617,#502,#503);
#422=AXIS2_PLACEMENT_3D('',#619,#504,#505);
#423=AXIS2_PLACEMENT_3D('',#620,#506,#507);
#424=AXIS2_PLACEMENT_3D('',#622,#508,#509);
#425=AXIS2_PLACEMENT_3D('',#624,#510,#511);
#426=AXIS2_PLACEMENT_3D('',#625,#512,#513);
#427=AXIS2_PLACEMENT_3D('',#627,#514,#515);
#428=AXIS2_PLACEMENT_3D('',#628,#516,#517);
#429=AXIS2_PLACEMENT_3D('',#630,#518,#519);
#430=AXIS2_PLACEMENT_3D('',#632,#520,#521);
#431=AXIS2_PLACEMENT_3D('',#633,#522,#523);
#432=AXIS2_PLACEMENT_3D('',#635,#524,#525);
#433=AXIS2_PLACEMENT_3D('',#636,#526,#527);
#434=AXIS2_PLACEMENT_3D('',#638,#528,#529);
#435=AXIS2_PLACEMENT_3D('',#639,#530,#531);
#436=AXIS2_PLACEMENT_3D('',#641,#532,#533);
#437=AXIS2_PLACEMENT_3D('',#642,#534,#535);
#438=AXIS2_PLACEMENT_3D('',#643,#536,#537);
#439=AXIS2_PLACEMENT_3D('',#644,#538,#539);
#440=AXIS2_PLACEMENT_3D('',#646,#540,#541);
#441=AXIS2_PLACEMENT_3D('',#647,#542,#543);
#442=DIRECTION('',(0.,0.,1.));
#443=DIRECTION('',(1.,0.,0.));
#444=DIRECTION('',(0.,0.,-1.));
#445=DIRECTION('',(-1.,0.,0.));
#446=DIRECTION('',(0.,0.,-1.));
#447=DIRECTION('',(-1.,0.,0.));
#448=DIRECTION('',(0.,0.,-1.));
#449=DIRECTION('',(-1.,0.,0.));
#450=DIRECTION('',(0.,0.,-1.));
#451=DIRECTION('',(-1.,0.,0.));
#452=DIRECTION('',(0.,0.,1.));
#453=DIRECTION('',(1.,0.,0.));
#454=DIRECTION('',(0.,0.,-1.));
#455=DIRECTION('',(-1.,0.,0.));
#456=DIRECTION('',(0.,0.,-1.));
#457=DIRECTION('',(-1.,0.,0.));
#458=DIRECTION('',(0.,0.,-1.));
#459=DIRECTION('',(-1.,0.,0.));
#460=DIRECTION('',(0.,0.,1.));
#461=DIRECTION('',(1.,0.,0.));
#462=DIRECTION('',(0.,0.,1.));
#463=DIRECTION('',(-1.,0.,0.));
#464=DIRECTION('',(0.,0.,1.));
#465=DIRECTION('',(1.,0.,0.));
#466=DIRECTION('',(0.,0.,1.));
#467=DIRECTION('',(1.,0.,0.));
#468=DIRECTION('',(0.,0.,1.));
#469=DIRECTION('',(1.,0.,0.));
#470=DIRECTION('',(0.,0.,-1.));
#471=DIRECTION('',(-1.,0.,0.));
#472=DIRECTION('',(0.,0.,1.));
#473=DIRECTION('',(1.,0.,0.));
#474=DIRECTION('',(0.,0.,1.));
#475=DIRECTION('',(1.,0.,0.));
#476=DIRECTION('',(0.,0.,1.));
#477=DIRECTION('',(1.,0.,4.73937135184284E-016));
#478=DIRECTION('',(0.,0.,-1.));
#479=DIRECTION('',(-1.,0.,0.));
#480=DIRECTION('',(0.,0.,-1.));
#481=DIRECTION('',(-1.,0.,0.));
#482=DIRECTION('',(0.,0.,1.));
#483=DIRECTION('',(1.,0.,0.));
#484=DIRECTION('',(0.,0.,-1.));
#485=DIRECTION('',(-1.,0.,0.));
#486=DIRECTION('',(0.,0.,1.));
#487=DIRECTION('',(1.,0.,0.));
#488=DIRECTION('',(0.,0.,1.));
#489=DIRECTION('',(1.,0.,0.));
#490=DIRECTION('',(0.,0.,1.));
#491=DIRECTION('',(1.,0.,0.));
#492=DIRECTION('',(0.,0.,1.));
#493=DIRECTION('',(1.,0.,0.));
#494=DIRECTION('',(0.,0.,-1.));
#495=DIRECTION('',(-1.,0.,2.17435840778645E-016));
#496=DIRECTION('',(0.,0.,1.));
#497=DIRECTION('',(1.,0.,0.));
#498=DIRECTION('',(0.,0.,-1.));
#499=DIRECTION('',(-1.,0.,1.69939531885881E-017));
#500=DIRECTION('',(0.,0.,1.));
#501=DIRECTION('',(1.,0.,0.));
#502=DIRECTION('',(0.,0.,-1.));
#503=DIRECTION('',(0.,1.,0.));
#504=DIRECTION('',(0.,0.,-1.));
#505=DIRECTION('',(0.,1.,0.));
#506=DIRECTION('',(1.47416559734881E-031,-1.72691919729727E-046,-1.));
#507=DIRECTION('',(-1.,0.,-1.47416559734881E-031));
#508=DIRECTION('',(0.,0.,1.));
#509=DIRECTION('',(0.,-1.,0.));
#510=DIRECTION('',(1.47416559734881E-031,-1.72691919729727E-046,-1.));
#511=DIRECTION('',(-1.,0.,0.));
#512=DIRECTION('',(0.,0.,-1.));
#513=DIRECTION('',(0.,1.,0.));
#514=DIRECTION('',(1.47416559734881E-031,-1.72691919729727E-046,-1.));
#515=DIRECTION('',(-1.,0.,-1.47416559734881E-031));
#516=DIRECTION('',(0.,0.,1.));
#517=DIRECTION('',(0.,-1.,0.));
#518=DIRECTION('',(0.,0.,1.));
#519=DIRECTION('',(0.,-1.,0.));
#520=DIRECTION('',(0.,0.,-1.));
#521=DIRECTION('',(0.,1.,0.));
#522=DIRECTION('',(0.,0.,1.));
#523=DIRECTION('',(0.,-1.,0.));
#524=DIRECTION('',(0.,0.,1.));
#525=DIRECTION('',(0.,-1.,0.));
#526=DIRECTION('',(0.,0.,1.));
#527=DIRECTION('',(0.,-1.,0.));
#528=DIRECTION('',(0.,0.,1.));
#529=DIRECTION('',(0.,-1.,0.));
#530=DIRECTION('',(0.,0.,1.));
#531=DIRECTION('',(0.,-1.,0.));
#532=DIRECTION('',(0.,0.,-1.));
#533=DIRECTION('',(0.,1.,-7.88068119273645E-018));
#534=DIRECTION('',(0.,0.,1.));
#535=DIRECTION('',(0.,-1.,-1.57387287388413E-017));
#536=DIRECTION('',(1.47416559734881E-031,-1.72691919729727E-046,-1.));
#537=DIRECTION('',(-1.,0.,0.));
#538=DIRECTION('',(1.47416559734881E-031,-1.72691919729727E-046,-1.));
#539=DIRECTION('',(-1.,0.,0.));
#540=DIRECTION('',(1.47416559734881E-031,-1.72691919729727E-046,-1.));
#541=DIRECTION('',(-1.,0.,0.));
#542=DIRECTION('',(1.47416559734881E-031,-1.72691919729727E-046,-1.));
#543=DIRECTION('',(-1.,0.,3.81139401403368E-016));
#544=CARTESIAN_POINT('',(0.,0.,0.));
#545=CARTESIAN_POINT('',(0.,0.,-69.));
#546=CARTESIAN_POINT('',(-12.5,0.,-69.));
#547=CARTESIAN_POINT('',(0.,0.,-81.));
#548=CARTESIAN_POINT('',(-12.5,0.,-81.));
#549=CARTESIAN_POINT('',(0.,0.,0.));
#550=CARTESIAN_POINT('',(0.,0.,-69.));
#551=CARTESIAN_POINT('',(-1.5,0.,-69.));
#552=CARTESIAN_POINT('',(12.5,0.,-69.));
#553=CARTESIAN_POINT('',(0.,0.,-81.));
#554=CARTESIAN_POINT('',(-1.5,0.,-81.));
#555=CARTESIAN_POINT('',(0.,0.,0.));
#556=CARTESIAN_POINT('',(1.5,0.,-81.));
#557=CARTESIAN_POINT('',(0.,0.,-76.06985724756));
#558=CARTESIAN_POINT('',(11.6963310004543,0.,-76.06985724756));
#559=CARTESIAN_POINT('',(0.,0.,-79.6685314859177));
#560=CARTESIAN_POINT('',(-8.18777017966674,0.,-79.6685314859177));
#561=CARTESIAN_POINT('',(0.,0.,-75.9734224604168));
#562=CARTESIAN_POINT('',(0.,0.,-58.8009273543279));
#563=CARTESIAN_POINT('',(11.3090565938807,0.,-58.8009273543279));
#564=CARTESIAN_POINT('',(0.,0.,-66.800927354328));
#565=CARTESIAN_POINT('',(12.1307425981555,0.,-66.800927354328));
#566=CARTESIAN_POINT('',(0.,0.,-66.800927354328));
#567=CARTESIAN_POINT('',(0.,0.,-31.));
#568=CARTESIAN_POINT('',(11.3090565938807,0.,-31.));
#569=CARTESIAN_POINT('',(0.,0.,-76.));
#570=CARTESIAN_POINT('',(0.,0.,-76.06985724756));
#571=CARTESIAN_POINT('',(0.,0.,-26.));
#572=CARTESIAN_POINT('',(-16.309057,0.,-26.));
#573=CARTESIAN_POINT('',(0.,0.,-31.0000000000001));
#574=CARTESIAN_POINT('',(0.,0.,-79.6685314859177));
#575=CARTESIAN_POINT('',(7.35446511152939,0.,-79.6685314859177));
#576=CARTESIAN_POINT('',(7.11460535908208,1.8629405951945,-79.6685314859177));
#577=CARTESIAN_POINT('',(0.,0.,-76.));
#578=CARTESIAN_POINT('',(1.64165580045083,0.,-76.));
#579=CARTESIAN_POINT('',(0.,0.,-76.));
#580=CARTESIAN_POINT('',(0.,0.,-77.9380225381066));
#581=CARTESIAN_POINT('',(4.44740059825951,0.,-77.9380225381066));
#582=CARTESIAN_POINT('',(4.44740059825951,0.,-77.9380225381066));
#583=CARTESIAN_POINT('',(4.44740059825951,8.89480119651902,-77.9380225381066));
#584=CARTESIAN_POINT('',(-4.44740059825951,8.89480119651902,-77.9380225381066));
#585=CARTESIAN_POINT('',(-4.44740059825951,0.,-77.9380225381066));
#586=CARTESIAN_POINT('',(-4.44740059825951,-8.89480119651902,-77.9380225381066));
#587=CARTESIAN_POINT('',(4.44740059825951,-8.89480119651902,-77.9380225381066));
#588=CARTESIAN_POINT('',(4.44740059825951,0.,-77.9380225381066));
#589=CARTESIAN_POINT('',(3.99112670782076,0.,-76.7325467719901));
#590=CARTESIAN_POINT('',(3.99112670782076,7.98225341564152,-76.7325467719901));
#591=CARTESIAN_POINT('',(-3.99112670782076,7.98225341564152,-76.7325467719901));
#592=CARTESIAN_POINT('',(-3.99112670782076,0.,-76.7325467719901));
#593=CARTESIAN_POINT('',(-3.99112670782076,-7.98225341564152,-76.7325467719901));
#594=CARTESIAN_POINT('',(3.99112670782076,-7.98225341564152,-76.7325467719901));
#595=CARTESIAN_POINT('',(3.99112670782076,0.,-76.7325467719901));
#596=CARTESIAN_POINT('',(2.93059244970493,0.,-76.0000000000001));
#597=CARTESIAN_POINT('',(2.93059244970492,5.86118489940985,-76.));
#598=CARTESIAN_POINT('',(-2.93059244970492,5.86118489940985,-76.));
#599=CARTESIAN_POINT('',(-2.93059244970493,0.,-76.0000000000001));
#600=CARTESIAN_POINT('',(-2.93059244970492,-5.86118489940985,-76.));
#601=CARTESIAN_POINT('',(2.93059244970492,-5.86118489940985,-76.));
#602=CARTESIAN_POINT('',(2.93059244970493,0.,-76.0000000000001));
#603=CARTESIAN_POINT('',(1.64165580045084,0.,-76.));
#604=CARTESIAN_POINT('',(1.64165580045084,3.28331160090167,-76.));
#605=CARTESIAN_POINT('',(-1.64165580045084,3.28331160090167,-76.));
#606=CARTESIAN_POINT('',(-1.64165580045084,0.,-76.));
#607=CARTESIAN_POINT('',(-1.64165580045084,-3.28331160090167,-76.));
#608=CARTESIAN_POINT('',(1.64165580045084,-3.28331160090167,-76.));
#609=CARTESIAN_POINT('',(1.64165580045084,0.,-76.));
#610=CARTESIAN_POINT('',(0.,0.,-78.0859075580889));
#611=CARTESIAN_POINT('',(4.50337523939418,0.,-78.0859075580889));
#612=CARTESIAN_POINT('',(0.,0.,-77.9380225381066));
#613=CARTESIAN_POINT('',(0.,0.,-79.506621568057));
#614=CARTESIAN_POINT('',(6.81737523939418,0.,-79.506621568057));
#615=CARTESIAN_POINT('',(0.,0.,-78.0859075580889));
#616=CARTESIAN_POINT('',(0.,0.,-78.5692037434222));
#617=CARTESIAN_POINT('',(0.,-8.32667268468867E-017,-26.));
#618=CARTESIAN_POINT('',(0.,31.47,-26.));
#619=CARTESIAN_POINT('',(0.,-8.32667268468867E-017,-26.));
#620=CARTESIAN_POINT('',(-3.82545972512017E-030,-8.32667268468867E-017,
0.));
#621=CARTESIAN_POINT('',(-31.47,-8.32667268468867E-017,-4.63919913485671E-030));
#622=CARTESIAN_POINT('',(0.,-8.32667268468867E-017,-14.6253876765867));
#623=CARTESIAN_POINT('',(0.,-31.47,-14.6253876765867));
#624=CARTESIAN_POINT('',(-8.52804798066288E-030,-8.32667268468867E-017,
31.8999999999999));
#625=CARTESIAN_POINT('',(0.,-8.32667268468867E-017,0.));
#626=CARTESIAN_POINT('',(0.,24.3206312625251,0.));
#627=CARTESIAN_POINT('',(2.97903892933578E-014,25.4302384828588,0.));
#628=CARTESIAN_POINT('',(0.,-8.32667268468867E-017,-16.0875000000001));
#629=CARTESIAN_POINT('',(0.,-27.475,-16.0875000000001));
#630=CARTESIAN_POINT('',(0.,-8.32667268468867E-017,-16.0875000000001));
#631=CARTESIAN_POINT('',(0.,-28.9375471694755,-16.0875000000001));
#632=CARTESIAN_POINT('',(3.38990448695419E-014,28.9375471694755,-16.0875000000001));
#633=CARTESIAN_POINT('',(0.,-8.32667268468867E-017,-19.9125));
#634=CARTESIAN_POINT('',(0.,-27.475,-19.9125));
#635=CARTESIAN_POINT('',(0.,-8.32667268468867E-017,-5.00000000000009));
#636=CARTESIAN_POINT('',(0.,-8.32667268468867E-017,-19.9125));
#637=CARTESIAN_POINT('',(0.,-28.9375471694755,-19.9125));
#638=CARTESIAN_POINT('',(3.21857361419049E-014,27.475,-19.9125));
#639=CARTESIAN_POINT('',(0.,-8.32667268468867E-017,-21.3746123234134));
#640=CARTESIAN_POINT('',(0.,-31.47,-21.3746123234134));
#641=CARTESIAN_POINT('',(0.,-8.32667268468867E-017,-19.9125));
#642=CARTESIAN_POINT('',(0.,-8.32667268468867E-017,-14.6253876765867));
#643=CARTESIAN_POINT('',(-8.52804798066288E-030,-8.32667268468867E-017,
31.8999999999999));
#644=CARTESIAN_POINT('',(-8.52804798066288E-030,-8.32667268468867E-017,
31.8999999999999));
#645=CARTESIAN_POINT('',(-22.7224348697396,-8.32667268468867E-017,31.8999999999999));
#646=CARTESIAN_POINT('',(-8.52804798066288E-030,-8.32667268468867E-017,
31.8999999999999));
#647=CARTESIAN_POINT('',(-8.52804798066288E-030,-8.32667268468867E-017,
31.8999999999999));
#648=MECHANICAL_DESIGN_GEOMETRIC_PRESENTATION_REPRESENTATION('',(#107,#108),
#649);
#649=(
GEOMETRIC_REPRESENTATION_CONTEXT(3)
GLOBAL_UNCERTAINTY_ASSIGNED_CONTEXT((#650))
GLOBAL_UNIT_ASSIGNED_CONTEXT((#656,#652,#651))
REPRESENTATION_CONTEXT('R790_025HA06S2_16L_SIM',
'TOP_LEVEL_ASSEMBLY_PART')
);
#650=UNCERTAINTY_MEASURE_WITH_UNIT(LENGTH_MEASURE(0.0254),#656,
'DISTANCE_ACCURACY_VALUE','Maximum Tolerance applied to model');
#651=(
NAMED_UNIT(*)
SI_UNIT($,.STERADIAN.)
SOLID_ANGLE_UNIT()
);
#652=(
CONVERSION_BASED_UNIT('DEGREE',#654)
NAMED_UNIT(#653)
PLANE_ANGLE_UNIT()
);
#653=DIMENSIONAL_EXPONENTS(0.,0.,0.,0.,0.,0.,0.);
#654=PLANE_ANGLE_MEASURE_WITH_UNIT(PLANE_ANGLE_MEASURE(0.0174532925),#655);
#655=(
NAMED_UNIT(*)
PLANE_ANGLE_UNIT()
SI_UNIT($,.RADIAN.)
);
#656=(
LENGTH_UNIT()
NAMED_UNIT(*)
SI_UNIT(.MILLI.,.METRE.)
);
ENDSEC;
END-ISO-10303-21;
