ISO-10303-21;
HEADER;
/* Generated by software containing ST-Developer
 * from STEP Tools, Inc. (www.steptools.com) 
 */
/* OPTION: using custom schema-name function */

FILE_DESCRIPTION(
/* description */ ('3-D model version:1'),
/* implementation_level */ '2;1');

FILE_NAME(
/* name */ 'R331.32-250Q60QM20.50',
/* time_stamp */ '2013-08-27T11:26:44+02:00',
/* author */ ('CappDp'),
/* organization */ ('AB Sandvik Coromant'),
/* preprocessor_version */ 'ST-DEVELOPER v11',
/* originating_system */ 'SIEMENS UGS NX 6.0',
/* authorisation */ '');

FILE_SCHEMA (('AP203_CONFIGURATION_CONTROLLED_3D_DESIGN_OF_MECHANICAL_PARTS_AND_ASSEMBLIES_MIM_LF'));
ENDSEC;

DATA;
#10=SHAPE_REPRESENTATION_RELATIONSHIP('None',
'relationship between 8895_2_3D-None and 8895_2_3D-None',#94,#11);
#11=ADVANCED_BREP_SHAPE_REPRESENTATION('8895_2_3D-None',(#117,#118),#561);
#12=CC_DESIGN_APPROVAL(#24,(#82));
#13=CC_DESIGN_APPROVAL(#25,(#84));
#14=CC_DESIGN_APPROVAL(#26,(#31));
#15=APPROVAL_PERSON_ORGANIZATION(#69,#24,#18);
#16=APPROVAL_PERSON_ORGANIZATION(#70,#25,#19);
#17=APPROVAL_PERSON_ORGANIZATION(#71,#26,#20);
#18=APPROVAL_ROLE('approver');
#19=APPROVAL_ROLE('approver');
#20=APPROVAL_ROLE('approver');
#21=APPROVAL_DATE_TIME(#39,#24);
#22=APPROVAL_DATE_TIME(#40,#25);
#23=APPROVAL_DATE_TIME(#41,#26);
#24=APPROVAL(#27,' ');
#25=APPROVAL(#28,' ');
#26=APPROVAL(#29,' ');
#27=APPROVAL_STATUS('not_yet_approved');
#28=APPROVAL_STATUS('not_yet_approved');
#29=APPROVAL_STATUS('not_yet_approved');
#30=CC_DESIGN_SECURITY_CLASSIFICATION(#31,(#84));
#31=SECURITY_CLASSIFICATION(' ',' ',#32);
#32=SECURITY_CLASSIFICATION_LEVEL('confidential');
#33=CC_DESIGN_DATE_AND_TIME_ASSIGNMENT(#37,#35,(#82));
#34=CC_DESIGN_DATE_AND_TIME_ASSIGNMENT(#38,#36,(#31));
#35=DATE_TIME_ROLE('creation_date');
#36=DATE_TIME_ROLE('classification_date');
#37=DATE_AND_TIME(#52,#42);
#38=DATE_AND_TIME(#53,#43);
#39=DATE_AND_TIME(#54,#44);
#40=DATE_AND_TIME(#55,#45);
#41=DATE_AND_TIME(#56,#46);
#42=LOCAL_TIME(0,0,0.,#47);
#43=LOCAL_TIME(0,0,0.,#48);
#44=LOCAL_TIME(0,0,0.,#49);
#45=LOCAL_TIME(0,0,0.,#50);
#46=LOCAL_TIME(0,0,0.,#51);
#47=COORDINATED_UNIVERSAL_TIME_OFFSET(0,0,.BEHIND.);
#48=COORDINATED_UNIVERSAL_TIME_OFFSET(0,0,.BEHIND.);
#49=COORDINATED_UNIVERSAL_TIME_OFFSET(0,0,.BEHIND.);
#50=COORDINATED_UNIVERSAL_TIME_OFFSET(0,0,.BEHIND.);
#51=COORDINATED_UNIVERSAL_TIME_OFFSET(0,0,.BEHIND.);
#52=CALENDAR_DATE(0,1,1);
#53=CALENDAR_DATE(0,1,1);
#54=CALENDAR_DATE(0,1,1);
#55=CALENDAR_DATE(0,1,1);
#56=CALENDAR_DATE(0,1,1);
#57=CC_DESIGN_PERSON_AND_ORGANIZATION_ASSIGNMENT(#65,#61,(#82,#84));
#58=CC_DESIGN_PERSON_AND_ORGANIZATION_ASSIGNMENT(#66,#62,(#86));
#59=CC_DESIGN_PERSON_AND_ORGANIZATION_ASSIGNMENT(#67,#63,(#84));
#60=CC_DESIGN_PERSON_AND_ORGANIZATION_ASSIGNMENT(#68,#64,(#31));
#61=PERSON_AND_ORGANIZATION_ROLE('creator');
#62=PERSON_AND_ORGANIZATION_ROLE('design_owner');
#63=PERSON_AND_ORGANIZATION_ROLE('design_supplier');
#64=PERSON_AND_ORGANIZATION_ROLE('classification_officer');
#65=PERSON_AND_ORGANIZATION(#79,#72);
#66=PERSON_AND_ORGANIZATION(#79,#73);
#67=PERSON_AND_ORGANIZATION(#79,#74);
#68=PERSON_AND_ORGANIZATION(#79,#75);
#69=PERSON_AND_ORGANIZATION(#79,#76);
#70=PERSON_AND_ORGANIZATION(#79,#77);
#71=PERSON_AND_ORGANIZATION(#79,#78);
#72=ORGANIZATION(' ',' ',' ');
#73=ORGANIZATION(' ',' ',' ');
#74=ORGANIZATION(' ',' ',' ');
#75=ORGANIZATION(' ',' ',' ');
#76=ORGANIZATION(' ',' ',' ');
#77=ORGANIZATION(' ',' ',' ');
#78=ORGANIZATION(' ',' ',' ');
#79=PERSON(' ',' ',' ',(' '),$,$);
#80=SHAPE_DEFINITION_REPRESENTATION(#81,#94);
#81=PRODUCT_DEFINITION_SHAPE('','',#82);
#82=PRODUCT_DEFINITION(' ','',#84,#83);
#83=DESIGN_CONTEXT('',#93,'design');
#84=PRODUCT_DEFINITION_FORMATION_WITH_SPECIFIED_SOURCE(' ',' ',#86,.NOT_KNOWN.);
#85=PRODUCT_RELATED_PRODUCT_CATEGORY('detail','',(#86));
#86=PRODUCT('8895_2_3D','8895_2_3D',' ',(#91));
#87=PRODUCT_CATEGORY_RELATIONSHIP(' ',' ',#89,#90);
#88=PRODUCT_CATEGORY_RELATIONSHIP('','',#90,#85);
#89=PRODUCT_CATEGORY('part',' ');
#90=PRODUCT_CATEGORY(' ','');
#91=MECHANICAL_CONTEXT(' ',#93,'mechanical');
#92=APPLICATION_PROTOCOL_DEFINITION('international standard',
'config_control_design',1994,#93);
#93=APPLICATION_CONTEXT(
'configuration controlled 3D designs of mechanical parts and assemblies');
#94=SHAPE_REPRESENTATION('8895_2_3D-None',(#358),#561);
#95=CONICAL_SURFACE('',#373,65.01,89.9911866206643);
#96=CONICAL_SURFACE('',#379,68.,45.);
#97=CONICAL_SURFACE('',#395,30.15,45.);
#98=CONICAL_SURFACE('',#399,30.0075,45.0000000000007);
#99=CONICAL_SURFACE('',#402,33.0075,45.);
#100=PRESENTATION_LAYER_ASSIGNMENT('1','Layer 1',(#117,#118));
#101=STYLED_ITEM('',(#103),#117);
#102=STYLED_ITEM('',(#104),#118);
#103=PRESENTATION_STYLE_ASSIGNMENT((#105));
#104=PRESENTATION_STYLE_ASSIGNMENT((#106));
#105=SURFACE_STYLE_USAGE(.BOTH.,#107);
#106=SURFACE_STYLE_USAGE(.BOTH.,#108);
#107=SURFACE_SIDE_STYLE('',(#109));
#108=SURFACE_SIDE_STYLE('',(#110));
#109=SURFACE_STYLE_FILL_AREA(#111);
#110=SURFACE_STYLE_FILL_AREA(#112);
#111=FILL_AREA_STYLE('',(#113));
#112=FILL_AREA_STYLE('',(#114));
#113=FILL_AREA_STYLE_COLOUR('',#115);
#114=FILL_AREA_STYLE_COLOUR('',#116);
#115=COLOUR_RGB('TLS_CUT',0.8,0.8,0.8);
#116=COLOUR_RGB('TLS_NOCUT',0.499992370489052,0.499992370489052,0.499992370489052);
#117=MANIFOLD_SOLID_BREP('CUT',#119);
#118=MANIFOLD_SOLID_BREP('NOCUT',#120);
#119=CLOSED_SHELL('',(#133,#134,#135,#136,#137,#138));
#120=CLOSED_SHELL('',(#139,#140,#141,#142,#143,#144,#145,#146,#147,#148,
#149,#150,#151,#152,#153,#154));
#121=PLANE('',#367);
#122=PLANE('',#370);
#123=PLANE('',#377);
#124=PLANE('',#385);
#125=PLANE('',#391);
#126=CYLINDRICAL_SURFACE('',#363,125.);
#127=CYLINDRICAL_SURFACE('',#369,69.);
#128=CYLINDRICAL_SURFACE('',#375,65.01);
#129=CYLINDRICAL_SURFACE('',#381,68.);
#130=CYLINDRICAL_SURFACE('',#388,122.2979);
#131=CYLINDRICAL_SURFACE('',#397,30.15);
#132=CYLINDRICAL_SURFACE('',#401,30.0075);
#133=ADVANCED_FACE('',(#160,#161),#155,.T.);
#134=ADVANCED_FACE('',(#162,#163),#126,.T.);
#135=ADVANCED_FACE('',(#164,#165),#156,.T.);
#136=ADVANCED_FACE('',(#166,#167),#121,.F.);
#137=ADVANCED_FACE('',(#168,#169),#127,.F.);
#138=ADVANCED_FACE('',(#170,#171),#122,.F.);
#139=ADVANCED_FACE('',(#172,#173),#95,.F.);
#140=ADVANCED_FACE('',(#174,#175),#128,.T.);
#141=ADVANCED_FACE('',(#176,#177),#123,.T.);
#142=ADVANCED_FACE('',(#178,#179),#96,.T.);
#143=ADVANCED_FACE('',(#180,#181),#129,.T.);
#144=ADVANCED_FACE('',(#182,#183),#157,.F.);
#145=ADVANCED_FACE('',(#184,#185),#124,.T.);
#146=ADVANCED_FACE('',(#186,#187),#130,.T.);
#147=ADVANCED_FACE('',(#188,#189),#125,.T.);
#148=ADVANCED_FACE('',(#190,#191),#158,.T.);
#149=ADVANCED_FACE('',(#192,#193),#159,.T.);
#150=ADVANCED_FACE('',(#194,#195),#97,.F.);
#151=ADVANCED_FACE('',(#196,#197),#131,.F.);
#152=ADVANCED_FACE('',(#198,#199),#98,.F.);
#153=ADVANCED_FACE('',(#200,#201),#132,.F.);
#154=ADVANCED_FACE('',(#202,#203),#99,.F.);
#155=TOROIDAL_SURFACE('',#361,124.2,0.799999999999997);
#156=TOROIDAL_SURFACE('',#365,124.2,0.799999999999983);
#157=TOROIDAL_SURFACE('',#383,68.8,0.8);
#158=TOROIDAL_SURFACE('',#392,121.2979,1.);
#159=TOROIDAL_SURFACE('',#393,121.2979,1.);
#160=FACE_BOUND('',#204,.T.);
#161=FACE_BOUND('',#205,.T.);
#162=FACE_BOUND('',#206,.T.);
#163=FACE_BOUND('',#207,.T.);
#164=FACE_BOUND('',#208,.T.);
#165=FACE_BOUND('',#209,.T.);
#166=FACE_BOUND('',#210,.T.);
#167=FACE_BOUND('',#211,.T.);
#168=FACE_BOUND('',#212,.T.);
#169=FACE_BOUND('',#213,.T.);
#170=FACE_BOUND('',#214,.T.);
#171=FACE_BOUND('',#215,.T.);
#172=FACE_BOUND('',#216,.T.);
#173=FACE_BOUND('',#217,.T.);
#174=FACE_BOUND('',#218,.T.);
#175=FACE_BOUND('',#219,.T.);
#176=FACE_BOUND('',#220,.T.);
#177=FACE_BOUND('',#221,.T.);
#178=FACE_BOUND('',#222,.T.);
#179=FACE_BOUND('',#223,.T.);
#180=FACE_BOUND('',#224,.T.);
#181=FACE_BOUND('',#225,.T.);
#182=FACE_BOUND('',#226,.T.);
#183=FACE_BOUND('',#227,.T.);
#184=FACE_BOUND('',#228,.T.);
#185=FACE_BOUND('',#229,.T.);
#186=FACE_BOUND('',#230,.T.);
#187=FACE_BOUND('',#231,.T.);
#188=FACE_BOUND('',#232,.T.);
#189=FACE_BOUND('',#233,.T.);
#190=FACE_BOUND('',#234,.T.);
#191=FACE_BOUND('',#235,.T.);
#192=FACE_BOUND('',#236,.T.);
#193=FACE_BOUND('',#237,.T.);
#194=FACE_BOUND('',#238,.T.);
#195=FACE_BOUND('',#239,.T.);
#196=FACE_BOUND('',#240,.T.);
#197=FACE_BOUND('',#241,.T.);
#198=FACE_BOUND('',#242,.T.);
#199=FACE_BOUND('',#243,.T.);
#200=FACE_BOUND('',#244,.T.);
#201=FACE_BOUND('',#245,.T.);
#202=FACE_BOUND('',#246,.T.);
#203=FACE_BOUND('',#247,.T.);
#204=EDGE_LOOP('',(#248));
#205=EDGE_LOOP('',(#249));
#206=EDGE_LOOP('',(#250));
#207=EDGE_LOOP('',(#251));
#208=EDGE_LOOP('',(#252));
#209=EDGE_LOOP('',(#253));
#210=EDGE_LOOP('',(#254));
#211=EDGE_LOOP('',(#255));
#212=EDGE_LOOP('',(#256));
#213=EDGE_LOOP('',(#257));
#214=EDGE_LOOP('',(#258));
#215=EDGE_LOOP('',(#259));
#216=EDGE_LOOP('',(#260));
#217=EDGE_LOOP('',(#261));
#218=EDGE_LOOP('',(#262));
#219=EDGE_LOOP('',(#263));
#220=EDGE_LOOP('',(#264));
#221=EDGE_LOOP('',(#265));
#222=EDGE_LOOP('',(#266));
#223=EDGE_LOOP('',(#267));
#224=EDGE_LOOP('',(#268));
#225=EDGE_LOOP('',(#269));
#226=EDGE_LOOP('',(#270));
#227=EDGE_LOOP('',(#271));
#228=EDGE_LOOP('',(#272));
#229=EDGE_LOOP('',(#273));
#230=EDGE_LOOP('',(#274));
#231=EDGE_LOOP('',(#275));
#232=EDGE_LOOP('',(#276));
#233=EDGE_LOOP('',(#277));
#234=EDGE_LOOP('',(#278));
#235=EDGE_LOOP('',(#279));
#236=EDGE_LOOP('',(#280));
#237=EDGE_LOOP('',(#281));
#238=EDGE_LOOP('',(#282));
#239=EDGE_LOOP('',(#283));
#240=EDGE_LOOP('',(#284));
#241=EDGE_LOOP('',(#285));
#242=EDGE_LOOP('',(#286));
#243=EDGE_LOOP('',(#287));
#244=EDGE_LOOP('',(#288));
#245=EDGE_LOOP('',(#289));
#246=EDGE_LOOP('',(#290));
#247=EDGE_LOOP('',(#291));
#248=ORIENTED_EDGE('',*,*,#314,.F.);
#249=ORIENTED_EDGE('',*,*,#315,.T.);
#250=ORIENTED_EDGE('',*,*,#316,.F.);
#251=ORIENTED_EDGE('',*,*,#314,.T.);
#252=ORIENTED_EDGE('',*,*,#317,.F.);
#253=ORIENTED_EDGE('',*,*,#316,.T.);
#254=ORIENTED_EDGE('',*,*,#318,.F.);
#255=ORIENTED_EDGE('',*,*,#317,.T.);
#256=ORIENTED_EDGE('',*,*,#319,.F.);
#257=ORIENTED_EDGE('',*,*,#318,.T.);
#258=ORIENTED_EDGE('',*,*,#315,.F.);
#259=ORIENTED_EDGE('',*,*,#319,.T.);
#260=ORIENTED_EDGE('',*,*,#320,.F.);
#261=ORIENTED_EDGE('',*,*,#321,.T.);
#262=ORIENTED_EDGE('',*,*,#320,.T.);
#263=ORIENTED_EDGE('',*,*,#322,.F.);
#264=ORIENTED_EDGE('',*,*,#322,.T.);
#265=ORIENTED_EDGE('',*,*,#323,.F.);
#266=ORIENTED_EDGE('',*,*,#323,.T.);
#267=ORIENTED_EDGE('',*,*,#324,.F.);
#268=ORIENTED_EDGE('',*,*,#324,.T.);
#269=ORIENTED_EDGE('',*,*,#325,.F.);
#270=ORIENTED_EDGE('',*,*,#325,.T.);
#271=ORIENTED_EDGE('',*,*,#326,.F.);
#272=ORIENTED_EDGE('',*,*,#326,.T.);
#273=ORIENTED_EDGE('',*,*,#327,.F.);
#274=ORIENTED_EDGE('',*,*,#328,.T.);
#275=ORIENTED_EDGE('',*,*,#329,.F.);
#276=ORIENTED_EDGE('',*,*,#330,.F.);
#277=ORIENTED_EDGE('',*,*,#331,.T.);
#278=ORIENTED_EDGE('',*,*,#328,.F.);
#279=ORIENTED_EDGE('',*,*,#327,.T.);
#280=ORIENTED_EDGE('',*,*,#331,.F.);
#281=ORIENTED_EDGE('',*,*,#329,.T.);
#282=ORIENTED_EDGE('',*,*,#330,.T.);
#283=ORIENTED_EDGE('',*,*,#332,.F.);
#284=ORIENTED_EDGE('',*,*,#332,.T.);
#285=ORIENTED_EDGE('',*,*,#333,.F.);
#286=ORIENTED_EDGE('',*,*,#333,.T.);
#287=ORIENTED_EDGE('',*,*,#334,.F.);
#288=ORIENTED_EDGE('',*,*,#334,.T.);
#289=ORIENTED_EDGE('',*,*,#335,.F.);
#290=ORIENTED_EDGE('',*,*,#321,.F.);
#291=ORIENTED_EDGE('',*,*,#335,.T.);
#292=VERTEX_POINT('',#495);
#293=VERTEX_POINT('',#497);
#294=VERTEX_POINT('',#500);
#295=VERTEX_POINT('',#503);
#296=VERTEX_POINT('',#506);
#297=VERTEX_POINT('',#509);
#298=VERTEX_POINT('',#513);
#299=VERTEX_POINT('',#515);
#300=VERTEX_POINT('',#518);
#301=VERTEX_POINT('',#521);
#302=VERTEX_POINT('',#524);
#303=VERTEX_POINT('',#527);
#304=VERTEX_POINT('',#530);
#305=VERTEX_POINT('',#533);
#306=VERTEX_POINT('',#536);
#307=VERTEX_POINT('',#538);
#308=VERTEX_POINT('',#541);
#309=VERTEX_POINT('',#543);
#310=VERTEX_POINT('',#548);
#311=VERTEX_POINT('',#551);
#312=VERTEX_POINT('',#554);
#313=VERTEX_POINT('',#557);
#314=EDGE_CURVE('',#292,#292,#336,.T.);
#315=EDGE_CURVE('',#293,#293,#337,.T.);
#316=EDGE_CURVE('',#294,#294,#338,.T.);
#317=EDGE_CURVE('',#295,#295,#339,.T.);
#318=EDGE_CURVE('',#296,#296,#340,.T.);
#319=EDGE_CURVE('',#297,#297,#341,.T.);
#320=EDGE_CURVE('',#298,#298,#342,.T.);
#321=EDGE_CURVE('',#299,#299,#343,.T.);
#322=EDGE_CURVE('',#300,#300,#344,.T.);
#323=EDGE_CURVE('',#301,#301,#345,.T.);
#324=EDGE_CURVE('',#302,#302,#346,.T.);
#325=EDGE_CURVE('',#303,#303,#347,.T.);
#326=EDGE_CURVE('',#304,#304,#348,.T.);
#327=EDGE_CURVE('',#305,#305,#349,.T.);
#328=EDGE_CURVE('',#306,#306,#350,.T.);
#329=EDGE_CURVE('',#307,#307,#351,.T.);
#330=EDGE_CURVE('',#308,#308,#352,.T.);
#331=EDGE_CURVE('',#309,#309,#353,.T.);
#332=EDGE_CURVE('',#310,#310,#354,.T.);
#333=EDGE_CURVE('',#311,#311,#355,.T.);
#334=EDGE_CURVE('',#312,#312,#356,.T.);
#335=EDGE_CURVE('',#313,#313,#357,.T.);
#336=CIRCLE('',#359,125.);
#337=CIRCLE('',#360,124.2);
#338=CIRCLE('',#362,125.);
#339=CIRCLE('',#364,124.2);
#340=CIRCLE('',#366,69.);
#341=CIRCLE('',#368,69.);
#342=CIRCLE('',#371,65.01);
#343=CIRCLE('',#372,33.0025765384615);
#344=CIRCLE('',#374,65.01);
#345=CIRCLE('',#376,67.01);
#346=CIRCLE('',#378,68.);
#347=CIRCLE('',#380,68.);
#348=CIRCLE('',#382,68.8);
#349=CIRCLE('',#384,121.2979);
#350=CIRCLE('',#386,122.2979);
#351=CIRCLE('',#387,122.2979);
#352=CIRCLE('',#389,32.15);
#353=CIRCLE('',#390,121.2979);
#354=CIRCLE('',#394,30.15);
#355=CIRCLE('',#396,30.15);
#356=CIRCLE('',#398,30.0075);
#357=CIRCLE('',#400,30.0075);
#358=AXIS2_PLACEMENT_3D('',#493,#403,#404);
#359=AXIS2_PLACEMENT_3D('',#494,#405,#406);
#360=AXIS2_PLACEMENT_3D('',#496,#407,#408);
#361=AXIS2_PLACEMENT_3D('',#498,#409,#410);
#362=AXIS2_PLACEMENT_3D('',#499,#411,#412);
#363=AXIS2_PLACEMENT_3D('',#501,#413,#414);
#364=AXIS2_PLACEMENT_3D('',#502,#415,#416);
#365=AXIS2_PLACEMENT_3D('',#504,#417,#418);
#366=AXIS2_PLACEMENT_3D('',#505,#419,#420);
#367=AXIS2_PLACEMENT_3D('',#507,#421,#422);
#368=AXIS2_PLACEMENT_3D('',#508,#423,#424);
#369=AXIS2_PLACEMENT_3D('',#510,#425,#426);
#370=AXIS2_PLACEMENT_3D('',#511,#427,#428);
#371=AXIS2_PLACEMENT_3D('',#512,#429,#430);
#372=AXIS2_PLACEMENT_3D('',#514,#431,#432);
#373=AXIS2_PLACEMENT_3D('',#516,#433,#434);
#374=AXIS2_PLACEMENT_3D('',#517,#435,#436);
#375=AXIS2_PLACEMENT_3D('',#519,#437,#438);
#376=AXIS2_PLACEMENT_3D('',#520,#439,#440);
#377=AXIS2_PLACEMENT_3D('',#522,#441,#442);
#378=AXIS2_PLACEMENT_3D('',#523,#443,#444);
#379=AXIS2_PLACEMENT_3D('',#525,#445,#446);
#380=AXIS2_PLACEMENT_3D('',#526,#447,#448);
#381=AXIS2_PLACEMENT_3D('',#528,#449,#450);
#382=AXIS2_PLACEMENT_3D('',#529,#451,#452);
#383=AXIS2_PLACEMENT_3D('',#531,#453,#454);
#384=AXIS2_PLACEMENT_3D('',#532,#455,#456);
#385=AXIS2_PLACEMENT_3D('',#534,#457,#458);
#386=AXIS2_PLACEMENT_3D('',#535,#459,#460);
#387=AXIS2_PLACEMENT_3D('',#537,#461,#462);
#388=AXIS2_PLACEMENT_3D('',#539,#463,#464);
#389=AXIS2_PLACEMENT_3D('',#540,#465,#466);
#390=AXIS2_PLACEMENT_3D('',#542,#467,#468);
#391=AXIS2_PLACEMENT_3D('',#544,#469,#470);
#392=AXIS2_PLACEMENT_3D('',#545,#471,#472);
#393=AXIS2_PLACEMENT_3D('',#546,#473,#474);
#394=AXIS2_PLACEMENT_3D('',#547,#475,#476);
#395=AXIS2_PLACEMENT_3D('',#549,#477,#478);
#396=AXIS2_PLACEMENT_3D('',#550,#479,#480);
#397=AXIS2_PLACEMENT_3D('',#552,#481,#482);
#398=AXIS2_PLACEMENT_3D('',#553,#483,#484);
#399=AXIS2_PLACEMENT_3D('',#555,#485,#486);
#400=AXIS2_PLACEMENT_3D('',#556,#487,#488);
#401=AXIS2_PLACEMENT_3D('',#558,#489,#490);
#402=AXIS2_PLACEMENT_3D('',#559,#491,#492);
#403=DIRECTION('',(0.,0.,1.));
#404=DIRECTION('',(1.,0.,0.));
#405=DIRECTION('',(0.,0.,1.));
#406=DIRECTION('',(1.,0.,0.));
#407=DIRECTION('',(0.,0.,1.));
#408=DIRECTION('',(1.,0.,0.));
#409=DIRECTION('',(0.,0.,1.));
#410=DIRECTION('',(1.,0.,0.));
#411=DIRECTION('',(0.,0.,1.));
#412=DIRECTION('',(1.,0.,0.));
#413=DIRECTION('',(0.,0.,1.));
#414=DIRECTION('',(1.,0.,0.));
#415=DIRECTION('',(0.,0.,1.));
#416=DIRECTION('',(1.,0.,0.));
#417=DIRECTION('',(0.,0.,1.));
#418=DIRECTION('',(1.,0.,0.));
#419=DIRECTION('',(0.,0.,1.));
#420=DIRECTION('',(1.,0.,0.));
#421=DIRECTION('',(0.,0.,-1.));
#422=DIRECTION('',(-1.,0.,0.));
#423=DIRECTION('',(0.,0.,1.));
#424=DIRECTION('',(1.,0.,0.));
#425=DIRECTION('',(0.,0.,1.));
#426=DIRECTION('',(1.,0.,0.));
#427=DIRECTION('',(0.,0.,1.));
#428=DIRECTION('',(1.,0.,0.));
#429=DIRECTION('',(0.,0.,-1.));
#430=DIRECTION('',(0.,1.,0.));
#431=DIRECTION('',(0.,0.,-1.));
#432=DIRECTION('',(0.,1.,0.));
#433=DIRECTION('',(0.,0.,1.));
#434=DIRECTION('',(0.,-1.,0.));
#435=DIRECTION('',(0.,0.,-1.));
#436=DIRECTION('',(0.,1.,0.));
#437=DIRECTION('',(0.,0.,-1.));
#438=DIRECTION('',(0.,1.,0.));
#439=DIRECTION('',(0.,0.,-1.));
#440=DIRECTION('',(0.,1.,0.));
#441=DIRECTION('',(0.,0.,1.));
#442=DIRECTION('',(0.,-1.,0.));
#443=DIRECTION('',(0.,0.,-1.));
#444=DIRECTION('',(0.,1.,0.));
#445=DIRECTION('',(0.,0.,-1.));
#446=DIRECTION('',(0.,1.,0.));
#447=DIRECTION('',(0.,0.,-1.));
#448=DIRECTION('',(0.,1.,0.));
#449=DIRECTION('',(0.,0.,-1.));
#450=DIRECTION('',(0.,1.,0.));
#451=DIRECTION('',(0.,0.,-1.));
#452=DIRECTION('',(0.,1.,0.));
#453=DIRECTION('',(0.,0.,-1.));
#454=DIRECTION('',(0.,1.,0.));
#455=DIRECTION('',(0.,0.,-1.));
#456=DIRECTION('',(0.,1.,0.));
#457=DIRECTION('',(0.,0.,1.));
#458=DIRECTION('',(0.,-1.,0.));
#459=DIRECTION('',(0.,0.,-1.));
#460=DIRECTION('',(0.,1.,0.));
#461=DIRECTION('',(0.,0.,-1.));
#462=DIRECTION('',(0.,1.,0.));
#463=DIRECTION('',(0.,0.,-1.));
#464=DIRECTION('',(0.,1.,0.));
#465=DIRECTION('',(0.,0.,-1.));
#466=DIRECTION('',(0.,1.,0.));
#467=DIRECTION('',(0.,0.,-1.));
#468=DIRECTION('',(0.,1.,0.));
#469=DIRECTION('',(0.,0.,-1.));
#470=DIRECTION('',(0.,1.,0.));
#471=DIRECTION('',(0.,0.,-1.));
#472=DIRECTION('',(0.,1.,0.));
#473=DIRECTION('',(0.,0.,-1.));
#474=DIRECTION('',(0.,1.,0.));
#475=DIRECTION('',(0.,0.,-1.));
#476=DIRECTION('',(0.,1.,0.));
#477=DIRECTION('',(0.,0.,-1.));
#478=DIRECTION('',(0.,1.,0.));
#479=DIRECTION('',(0.,0.,-1.));
#480=DIRECTION('',(0.,1.,0.));
#481=DIRECTION('',(0.,0.,-1.));
#482=DIRECTION('',(0.,1.,0.));
#483=DIRECTION('',(0.,0.,-1.));
#484=DIRECTION('',(0.,1.,0.));
#485=DIRECTION('',(0.,0.,-1.));
#486=DIRECTION('',(0.,1.,8.75776348723595E-017));
#487=DIRECTION('',(0.,0.,-1.));
#488=DIRECTION('',(0.,1.,0.));
#489=DIRECTION('',(0.,0.,-1.));
#490=DIRECTION('',(0.,1.,0.));
#491=DIRECTION('',(0.,0.,1.));
#492=DIRECTION('',(0.,-1.,0.));
#493=CARTESIAN_POINT('',(0.,0.,0.));
#494=CARTESIAN_POINT('',(0.,0.,-62.2));
#495=CARTESIAN_POINT('',(125.,0.,-62.2));
#496=CARTESIAN_POINT('',(0.,0.,-63.));
#497=CARTESIAN_POINT('',(124.2,0.,-63.));
#498=CARTESIAN_POINT('',(0.,0.,-62.2));
#499=CARTESIAN_POINT('',(0.,0.,-43.3));
#500=CARTESIAN_POINT('',(125.,0.,-43.3));
#501=CARTESIAN_POINT('',(0.,0.,66.2952357642815));
#502=CARTESIAN_POINT('',(0.,0.,-42.5));
#503=CARTESIAN_POINT('',(124.2,0.,-42.5));
#504=CARTESIAN_POINT('',(0.,0.,-43.3));
#505=CARTESIAN_POINT('',(0.,0.,-42.5));
#506=CARTESIAN_POINT('',(69.,0.,-42.5));
#507=CARTESIAN_POINT('',(-124.2,0.,-42.5));
#508=CARTESIAN_POINT('',(0.,0.,-63.));
#509=CARTESIAN_POINT('',(69.,0.,-63.));
#510=CARTESIAN_POINT('',(0.,0.,66.2952357642815));
#511=CARTESIAN_POINT('',(-69.,0.,-63.));
#512=CARTESIAN_POINT('',(0.,0.,0.));
#513=CARTESIAN_POINT('',(0.,65.01,0.));
#514=CARTESIAN_POINT('',(0.,0.,-0.00492346153846412));
#515=CARTESIAN_POINT('',(0.,33.0025765384615,-0.00492346153846412));
#516=CARTESIAN_POINT('',(0.,0.,0.));
#517=CARTESIAN_POINT('',(0.,0.,-0.399999999999998));
#518=CARTESIAN_POINT('',(0.,65.01,-0.399999999999998));
#519=CARTESIAN_POINT('',(0.,0.,-62.4));
#520=CARTESIAN_POINT('',(0.,0.,-0.399999999999998));
#521=CARTESIAN_POINT('',(0.,67.01,-0.399999999999998));
#522=CARTESIAN_POINT('',(67.01,0.,-0.399999999999998));
#523=CARTESIAN_POINT('',(0.,0.,-1.39));
#524=CARTESIAN_POINT('',(0.,68.,-1.39));
#525=CARTESIAN_POINT('',(0.,0.,-1.39));
#526=CARTESIAN_POINT('',(0.,0.,-42.3));
#527=CARTESIAN_POINT('',(0.,68.,-42.3));
#528=CARTESIAN_POINT('',(0.,0.,-62.4));
#529=CARTESIAN_POINT('',(0.,0.,-43.1));
#530=CARTESIAN_POINT('',(0.,68.8,-43.1));
#531=CARTESIAN_POINT('',(0.,0.,-42.3));
#532=CARTESIAN_POINT('',(0.,0.,-43.1));
#533=CARTESIAN_POINT('',(0.,121.2979,-43.1));
#534=CARTESIAN_POINT('',(121.2979,0.,-43.1));
#535=CARTESIAN_POINT('',(0.,0.,-44.1));
#536=CARTESIAN_POINT('',(0.,122.2979,-44.1));
#537=CARTESIAN_POINT('',(0.,0.,-61.4));
#538=CARTESIAN_POINT('',(0.,122.2979,-61.4));
#539=CARTESIAN_POINT('',(0.,0.,-62.4));
#540=CARTESIAN_POINT('',(0.,0.,-62.4));
#541=CARTESIAN_POINT('',(0.,32.15,-62.4));
#542=CARTESIAN_POINT('',(0.,0.,-62.4));
#543=CARTESIAN_POINT('',(0.,121.2979,-62.4));
#544=CARTESIAN_POINT('',(0.,0.,-62.4));
#545=CARTESIAN_POINT('',(0.,0.,-44.1));
#546=CARTESIAN_POINT('',(0.,0.,-61.4));
#547=CARTESIAN_POINT('',(0.,0.,-60.4));
#548=CARTESIAN_POINT('',(0.,30.15,-60.4));
#549=CARTESIAN_POINT('',(0.,0.,-60.4));
#550=CARTESIAN_POINT('',(0.,0.,-25.1425));
#551=CARTESIAN_POINT('',(0.,30.15,-25.1425));
#552=CARTESIAN_POINT('',(0.,0.,-62.4));
#553=CARTESIAN_POINT('',(0.,0.,-25.));
#554=CARTESIAN_POINT('',(0.,30.0075,-25.));
#555=CARTESIAN_POINT('',(0.,0.,-25.));
#556=CARTESIAN_POINT('',(0.,0.,-3.));
#557=CARTESIAN_POINT('',(0.,30.0075,-3.));
#558=CARTESIAN_POINT('',(0.,0.,-62.4));
#559=CARTESIAN_POINT('',(0.,0.,0.));
#560=MECHANICAL_DESIGN_GEOMETRIC_PRESENTATION_REPRESENTATION('',(#101,#102),
#561);
#561=(
GEOMETRIC_REPRESENTATION_CONTEXT(3)
GLOBAL_UNCERTAINTY_ASSIGNED_CONTEXT((#562))
GLOBAL_UNIT_ASSIGNED_CONTEXT((#568,#564,#563))
REPRESENTATION_CONTEXT('8895_2_3D','TOP_LEVEL_ASSEMBLY_PART')
);
#562=UNCERTAINTY_MEASURE_WITH_UNIT(LENGTH_MEASURE(2.E-005),#568,
'DISTANCE_ACCURACY_VALUE','Maximum Tolerance applied to model');
#563=(
NAMED_UNIT(*)
SI_UNIT($,.STERADIAN.)
SOLID_ANGLE_UNIT()
);
#564=(
CONVERSION_BASED_UNIT('DEGREE',#566)
NAMED_UNIT(#565)
PLANE_ANGLE_UNIT()
);
#565=DIMENSIONAL_EXPONENTS(0.,0.,0.,0.,0.,0.,0.);
#566=PLANE_ANGLE_MEASURE_WITH_UNIT(PLANE_ANGLE_MEASURE(0.0174532925),#567);
#567=(
NAMED_UNIT(*)
PLANE_ANGLE_UNIT()
SI_UNIT($,.RADIAN.)
);
#568=(
LENGTH_UNIT()
NAMED_UNIT(*)
SI_UNIT(.MILLI.,.METRE.)
);
ENDSEC;
END-ISO-10303-21;
