ISO-10303-21;
HEADER;
FILE_DESCRIPTION(('STEP'), '1');
FILE_NAME('C:\\Users\\ds2002\\OneDrive - Sandvik\\HomeShare\\Documents\\Batchrepair\\CorSRT2\\NEW_MILTH_SLD\\Output\\MOD000000000000000020084666600000.stp', '2019-01-04T08:50:30', (''), (''), 'Express v3.0.0.0', 'Express Tool', 'Unknown');
FILE_SCHEMA(('AUTOMOTIVE_DESIGN'));
ENDSEC;

DATA;
#1 = MANIFOLD_SOLID_BREP('NOCUT', #2);
#2 = CLOSED_SHELL('', (#3, #50, #89, #128, #137));
#3 = ADVANCED_FACE('', (#4), #31, .T.);
#4 = FACE_OUTER_BOUND('', #5, .T.);
#5 = EDGE_LOOP('', (#6, #16, #23, #24));
#6 = ORIENTED_EDGE('', *, *, #7, .F.);
#7 = EDGE_CURVE('', #8, #10, #12, .T.);
#8 = VERTEX_POINT('', #9);
#9 = CARTESIAN_POINT('', (-10., 3.91886975727153E-15, -54.));
#10 = VERTEX_POINT('', #11);
#11 = CARTESIAN_POINT('', (-10., 4.83735485663205E-15, -69.));
#12 = LINE('', #13, #14);
#13 = CARTESIAN_POINT('', (-10., 3.91886975727153E-15, -54.));
#14 = VECTOR('', #15, 15.);
#15 = DIRECTION('', (0., 9.1848509936051E-16, -15.));
#16 = ORIENTED_EDGE('', *, *, #17, .T.);
#17 = EDGE_CURVE('', #8, #8, #18, .T.);
#18 = CIRCLE('', #19, 10.);
#19 = AXIS2_PLACEMENT_3D('', #20, #21, #22);
#20 = CARTESIAN_POINT('', (-1.22124532708767E-15, -3.10862446895044E-15, -54.));
#21 = DIRECTION('', (0., 0., -1.));
#22 = DIRECTION('', (-1., 7.02749422622197E-16, 0.));
#23 = ORIENTED_EDGE('', *, *, #7, .T.);
#24 = ORIENTED_EDGE('', *, *, #25, .F.);
#25 = EDGE_CURVE('', #10, #10, #26, .T.);
#26 = CIRCLE('', #27, 10.);
#27 = AXIS2_PLACEMENT_3D('', #28, #29, #30);
#28 = CARTESIAN_POINT('', (-3.77475828372553E-15, 3.33066907387547E-15, -69.));
#29 = DIRECTION('', (7.28741416260358E-31, 4.83671794477998E-15, -1.));
#30 = DIRECTION('', (-1., 1.50668578275657E-16, 0.));
#31 = (
   BOUNDED_SURFACE ()
   B_SPLINE_SURFACE (2, 1, ((#32, #33), (#34, #35), (#36, #37), (#38, #39), (#40, #41), (#42, #43), (#44, #45), (#46, #47), (#48, #49)), .UNSPECIFIED., .T., .F., .U.)
   B_SPLINE_SURFACE_WITH_KNOTS ((3, 2, 2, 2, 3), (2, 2), (0., 15.707963267949, 31.415926535898, 47.1238898038469, 62.8318530717959), (0., 1.), .UNSPECIFIED.)
   GEOMETRIC_REPRESENTATION_ITEM ()
   RATIONAL_B_SPLINE_SURFACE (((1., 1.), (0.707106781186548, 0.707106781186548), (1., 1.), (0.707106781186548, 0.707106781186548), (1., 1.), (0.707106781186548, 0.707106781186548), (1., 1.), (0.707106781186548, 0.707106781186548), (1., 1.)))
   REPRESENTATION_ITEM ('')
   SURFACE ()
);
#32 = CARTESIAN_POINT('', (-10., 3.91886975727153E-15, -54.));
#33 = CARTESIAN_POINT('', (-9.99999999999999, 7.69362804099706E-15, -69.));
#34 = CARTESIAN_POINT('', (-10., 10., -54.));
#35 = CARTESIAN_POINT('', (-9.99999999999999, 10., -69.));
#36 = CARTESIAN_POINT('', (2.27959005991958E-15, 10., -54.));
#37 = CARTESIAN_POINT('', (1.29377310963211E-14, 10., -69.));
#38 = CARTESIAN_POINT('', (10., 10., -54.));
#39 = CARTESIAN_POINT('', (10., 10., -69.));
#40 = CARTESIAN_POINT('', (10., -3.5824013778243E-15, -54.));
#41 = CARTESIAN_POINT('', (10., 1.9235690590122E-16, -69.));
#42 = CARTESIAN_POINT('', (10., -10., -54.));
#43 = CARTESIAN_POINT('', (10., -10., -69.));
#44 = CARTESIAN_POINT('', (-3.99703427602889E-15, -10., -54.));
#45 = CARTESIAN_POINT('', (6.66110676037261E-15, -10., -69.));
#46 = CARTESIAN_POINT('', (-10., -10., -54.));
#47 = CARTESIAN_POINT('', (-9.99999999999999, -9.99999999999999, -69.));
#48 = CARTESIAN_POINT('', (-10., 3.91886975727153E-15, -54.));
#49 = CARTESIAN_POINT('', (-9.99999999999999, 7.69362804099706E-15, -69.));
#50 = ADVANCED_FACE('', (#51), #70, .T.);
#51 = FACE_OUTER_BOUND('', #52, .T.);
#52 = EDGE_LOOP('', (#53, #61, #68, #69));
#53 = ORIENTED_EDGE('', *, *, #54, .T.);
#54 = EDGE_CURVE('', #8, #55, #57, .T.);
#55 = VERTEX_POINT('', #56);
#56 = CARTESIAN_POINT('', (-10., 6.73555739531044E-16, -1.));
#57 = LINE('', #58, #59);
#58 = CARTESIAN_POINT('', (-10., 3.91886975727153E-15, -54.));
#59 = VECTOR('', #60, 53.);
#60 = DIRECTION('', (0., -3.24531401774049E-15, 53.));
#61 = ORIENTED_EDGE('', *, *, #62, .T.);
#62 = EDGE_CURVE('', #55, #55, #63, .T.);
#63 = CIRCLE('', #64, 10.);
#64 = AXIS2_PLACEMENT_3D('', #65, #66, #67);
#65 = CARTESIAN_POINT('', (-3.10862446895044E-15, -3.99680288865056E-15, -1.));
#66 = DIRECTION('', (1.11022302462516E-17, 3.94546482371774E-17, -1.));
#67 = DIRECTION('', (-1., 4.67035862818161E-16, -1.11022302462516E-17));
#68 = ORIENTED_EDGE('', *, *, #54, .F.);
#69 = ORIENTED_EDGE('', *, *, #17, .F.);
#70 = (
   BOUNDED_SURFACE ()
   B_SPLINE_SURFACE (1, 2, ((#71, #72, #73, #74, #75, #76, #77, #78, #79), (#80, #81, #82, #83, #84, #85, #86, #87, #88)), .UNSPECIFIED., .F., .T., .U.)
   B_SPLINE_SURFACE_WITH_KNOTS ((2, 2), (3, 2, 2, 2, 3), (0., 1.), (0., 15.707963267949, 31.415926535898, 47.1238898038469, 62.8318530717959), .UNSPECIFIED.)
   GEOMETRIC_REPRESENTATION_ITEM ()
   RATIONAL_B_SPLINE_SURFACE (((1., 0.707106781186548, 1., 0.707106781186548, 1., 0.707106781186548, 1., 0.707106781186548, 1.), (1., 0.707106781186548, 1., 0.707106781186548, 1., 0.707106781186548, 1., 0.707106781186548, 1.)))
   REPRESENTATION_ITEM ('')
   SURFACE ()
);
#71 = CARTESIAN_POINT('', (-10., 4.22626941833155E-15, -54.));
#72 = CARTESIAN_POINT('', (-10., 10., -54.));
#73 = CARTESIAN_POINT('', (1.53782896270883E-15, 10., -54.));
#74 = CARTESIAN_POINT('', (10., 10., -54.));
#75 = CARTESIAN_POINT('', (10., -3.88980103888432E-15, -54.));
#76 = CARTESIAN_POINT('', (10., -10., -54.));
#77 = CARTESIAN_POINT('', (-5.35359469535968E-15, -10., -54.));
#78 = CARTESIAN_POINT('', (-10., -10., -54.));
#79 = CARTESIAN_POINT('', (-10., 4.22626941833155E-15, -54.));
#80 = CARTESIAN_POINT('', (-10., 6.73555739531046E-16, -1.));
#81 = CARTESIAN_POINT('', (-10., 10., -0.999999999999999));
#82 = CARTESIAN_POINT('', (9.49410759657495E-16, 10., -0.999999999999999));
#83 = CARTESIAN_POINT('', (10., 9.99999999999999, -0.999999999999999));
#84 = CARTESIAN_POINT('', (10., -7.44251471768482E-15, -1.));
#85 = CARTESIAN_POINT('', (9.99999999999999, -10., -1.));
#86 = CARTESIAN_POINT('', (-5.94201289841102E-15, -10., -1.));
#87 = CARTESIAN_POINT('', (-10., -10., -1.));
#88 = CARTESIAN_POINT('', (-10., 6.73555739531046E-16, -1.));
#89 = ADVANCED_FACE('', (#90), #109, .T.);
#90 = FACE_OUTER_BOUND('', #91, .T.);
#91 = EDGE_LOOP('', (#92, #100, #107, #108));
#92 = ORIENTED_EDGE('', *, *, #93, .T.);
#93 = EDGE_CURVE('', #55, #94, #96, .T.);
#94 = VERTEX_POINT('', #95);
#95 = CARTESIAN_POINT('', (-9., 5.51091059616309E-16, 0.));
#96 = LINE('', #97, #98);
#97 = CARTESIAN_POINT('', (-10., 6.73555739531044E-16, -1.));
#98 = VECTOR('', #99, 1.4142135623731);
#99 = DIRECTION('', (1., -1.22464679914735E-16, 1.));
#100 = ORIENTED_EDGE('', *, *, #101, .T.);
#101 = EDGE_CURVE('', #94, #94, #102, .T.);
#102 = CIRCLE('', #103, 9.);
#103 = AXIS2_PLACEMENT_3D('', #104, #105, #106);
#104 = CARTESIAN_POINT('', (4.57966997657877E-15, 0., 0.));
#105 = DIRECTION('', (3.74939945665464E-33, 6.12323399573677E-17, -1.));
#106 = DIRECTION('', (-1., 6.12323399573676E-17, 0.));
#107 = ORIENTED_EDGE('', *, *, #93, .F.);
#108 = ORIENTED_EDGE('', *, *, #62, .F.);
#109 = (
   BOUNDED_SURFACE ()
   B_SPLINE_SURFACE (1, 2, ((#110, #111, #112, #113, #114, #115, #116, #117, #118), (#119, #120, #121, #122, #123, #124, #125, #126, #127)), .UNSPECIFIED., .F., .T., .U.)
   B_SPLINE_SURFACE_WITH_KNOTS ((2, 2), (3, 2, 2, 2, 3), (0., 1.), (0., 0.25, 0.5, 0.75, 1.), .UNSPECIFIED.)
   GEOMETRIC_REPRESENTATION_ITEM ()
   RATIONAL_B_SPLINE_SURFACE (((1., 0.707106781186548, 1., 0.707106781186548, 1., 0.707106781186548, 1., 0.707106781186548, 1.), (1., 0.707106781186548, 1., 0.707106781186548, 1., 0.707106781186548, 1., 0.707106781186548, 1.)))
   REPRESENTATION_ITEM ('')
   SURFACE ()
);
#110 = CARTESIAN_POINT('', (-9.99999999999999, -5.38288093340217E-15, -1.));
#111 = CARTESIAN_POINT('', (-9.99999999999999, 9.99999999999999, -1.00000000000006));
#112 = CARTESIAN_POINT('', (4.57966997657877E-15, 9.99999999999999, -1.00000000000006));
#113 = CARTESIAN_POINT('', (10., 9.99999999999999, -1.00000000000006));
#114 = CARTESIAN_POINT('', (10., -5.38288093340217E-15, -1.));
#115 = CARTESIAN_POINT('', (10., -10., -0.99999999999994));
#116 = CARTESIAN_POINT('', (5.80431677572612E-15, -10., -0.99999999999994));
#117 = CARTESIAN_POINT('', (-9.99999999999999, -10., -0.99999999999994));
#118 = CARTESIAN_POINT('', (-9.99999999999999, -5.38288093340217E-15, -1.));
#119 = CARTESIAN_POINT('', (-9., 5.51091059616309E-16, 0.));
#120 = CARTESIAN_POINT('', (-9., 9., -5.39568389967826E-14));
#121 = CARTESIAN_POINT('', (4.57966997657877E-15, 9., -5.39568389967826E-14));
#122 = CARTESIAN_POINT('', (9.00000000000001, 9., -5.39568389967826E-14));
#123 = CARTESIAN_POINT('', (9.00000000000001, 5.51091059616309E-16, -6.60780701695189E-30));
#124 = CARTESIAN_POINT('', (9.00000000000001, -9., 5.39568389967826E-14));
#125 = CARTESIAN_POINT('', (5.68185209581139E-15, -9., 5.39568389967826E-14));
#126 = CARTESIAN_POINT('', (-8.99999999999999, -9., 5.39568389967826E-14));
#127 = CARTESIAN_POINT('', (-9., 5.51091059616309E-16, 0.));
#128 = ADVANCED_FACE('', (#129), #132, .T.);
#129 = FACE_OUTER_BOUND('', #130, .T.);
#130 = EDGE_LOOP('', (#131));
#131 = ORIENTED_EDGE('', *, *, #101, .F.);
#132 = B_SPLINE_SURFACE_WITH_KNOTS('', 1, 1, ((#133, #134), (#135, #136)), .UNSPECIFIED., .F., .F., .U., (2, 2), (2, 2), (0.0454545454545454, 0.954545454545454), (0.0454545454545454, 0.954545454545454), .UNSPECIFIED.);
#133 = CARTESIAN_POINT('', (9., -9., -5.51091059616309E-16));
#134 = CARTESIAN_POINT('', (-9., -9., -5.51091059616309E-16));
#135 = CARTESIAN_POINT('', (9., 9., 5.51091059616309E-16));
#136 = CARTESIAN_POINT('', (-9., 9., 5.51091059616309E-16));
#137 = ADVANCED_FACE('', (#138), #141, .T.);
#138 = FACE_OUTER_BOUND('', #139, .T.);
#139 = EDGE_LOOP('', (#140));
#140 = ORIENTED_EDGE('', *, *, #25, .T.);
#141 = B_SPLINE_SURFACE_WITH_KNOTS('', 1, 1, ((#142, #143), (#144, #145)), .UNSPECIFIED., .F., .F., .U., (2, 2), (2, 2), (0.468774719544159, 0.561558417321466), (0.438441582678534, 0.53122528045584), .UNSPECIFIED.);
#142 = CARTESIAN_POINT('', (-10., 10., -69.));
#143 = CARTESIAN_POINT('', (-10., -9.99999999999997, -69.));
#144 = CARTESIAN_POINT('', (9.99999999999999, 10., -69.));
#145 = CARTESIAN_POINT('', (9.99999999999999, -9.99999999999997, -69.));
#146 = DRAUGHTING_MODEL('', (#154, #229, #268, #273, #278, #283, #288), #302);
#147 = PRESENTATION_STYLE_ASSIGNMENT((#148));
#148 = SURFACE_STYLE_USAGE(.POSITIVE., #149);
#149 = SURFACE_SIDE_STYLE('', (#150));
#150 = SURFACE_STYLE_FILL_AREA(#151);
#151 = FILL_AREA_STYLE('', (#152));
#152 = FILL_AREA_STYLE_COLOUR('', #153);
#153 = COLOUR_RGB('', 0.50196078431373, 0.50196078431373, 0.50196078431373);
#154 = STYLED_ITEM('', (#147), #1);
#155 = MANIFOLD_SOLID_BREP('CUT', #156);
#156 = CLOSED_SHELL('', (#157, #174, #213));
#157 = ADVANCED_FACE('', (#158), #169, .T.);
#158 = FACE_OUTER_BOUND('', #159, .T.);
#159 = EDGE_LOOP('', (#160));
#160 = ORIENTED_EDGE('', *, *, #161, .F.);
#161 = EDGE_CURVE('', #162, #162, #164, .T.);
#162 = VERTEX_POINT('', #163);
#163 = CARTESIAN_POINT('', (-10., 4.83735485663205E-15, -69.));
#164 = CIRCLE('', #165, 10.);
#165 = AXIS2_PLACEMENT_3D('', #166, #167, #168);
#166 = CARTESIAN_POINT('', (-1.55431223447522E-15, 8.88178419700125E-16, -69.));
#167 = DIRECTION('', (1.91010525396109E-30, 4.83671794477998E-15, -1.));
#168 = DIRECTION('', (-1., 3.94917643693193E-16, 0.));
#169 = B_SPLINE_SURFACE_WITH_KNOTS('', 1, 1, ((#170, #171), (#172, #173)), .UNSPECIFIED., .F., .F., .U., (2, 2), (2, 2), (0.438441582678534, 0.531225280455841), (0.468774719544159, 0.561558417321466), .UNSPECIFIED.);
#170 = CARTESIAN_POINT('', (-10., 10., -69.));
#171 = CARTESIAN_POINT('', (10., 10., -69.));
#172 = CARTESIAN_POINT('', (-10., -9.99999999999999, -69.));
#173 = CARTESIAN_POINT('', (10., -9.99999999999999, -69.));
#174 = ADVANCED_FACE('', (#175), #194, .T.);
#175 = FACE_OUTER_BOUND('', #176, .T.);
#176 = EDGE_LOOP('', (#177, #185, #186, #187));
#177 = ORIENTED_EDGE('', *, *, #178, .F.);
#178 = EDGE_CURVE('', #162, #179, #181, .T.);
#179 = VERTEX_POINT('', #180);
#180 = CARTESIAN_POINT('', (-10., 6.98048675513991E-15, -104.));
#181 = LINE('', #182, #183);
#182 = CARTESIAN_POINT('', (-10., 4.83735485663205E-15, -69.));
#183 = VECTOR('', #184, 35.);
#184 = DIRECTION('', (0., 2.14313189850786E-15, -35.));
#185 = ORIENTED_EDGE('', *, *, #161, .T.);
#186 = ORIENTED_EDGE('', *, *, #178, .T.);
#187 = ORIENTED_EDGE('', *, *, #188, .F.);
#188 = EDGE_CURVE('', #179, #179, #189, .T.);
#189 = CIRCLE('', #190, 10.);
#190 = AXIS2_PLACEMENT_3D('', #191, #192, #193);
#191 = CARTESIAN_POINT('', (-3.7470027081099E-15, 4.66293670342566E-15, -104.));
#192 = DIRECTION('', (0., 0., -1.));
#193 = DIRECTION('', (-1., 2.31755005171425E-16, 0.));
#194 = (
   BOUNDED_SURFACE ()
   B_SPLINE_SURFACE (2, 1, ((#195, #196), (#197, #198), (#199, #200), (#201, #202), (#203, #204), (#205, #206), (#207, #208), (#209, #210), (#211, #212)), .UNSPECIFIED., .T., .F., .U.)
   B_SPLINE_SURFACE_WITH_KNOTS ((3, 2, 2, 2, 3), (2, 2), (0., 15.707963267949, 31.415926535898, 47.1238898038469, 62.8318530717959), (0., 1.), .UNSPECIFIED.)
   GEOMETRIC_REPRESENTATION_ITEM ()
   RATIONAL_B_SPLINE_SURFACE (((1., 1.), (0.707106781186548, 0.707106781186548), (1., 1.), (0.707106781186548, 0.707106781186548), (1., 1.), (0.707106781186548, 0.707106781186548), (1., 1.), (0.707106781186548, 0.707106781186548), (1., 1.)))
   REPRESENTATION_ITEM ('')
   SURFACE ()
);
#195 = CARTESIAN_POINT('', (-10., 4.83735485663205E-15, -69.));
#196 = CARTESIAN_POINT('', (-10., 8.61211314035758E-15, -104.));
#197 = CARTESIAN_POINT('', (-10., 10., -69.));
#198 = CARTESIAN_POINT('', (-10., 10., -104.));
#199 = CARTESIAN_POINT('', (1.78254080288303E-15, 10., -69.));
#200 = CARTESIAN_POINT('', (1.78254080288303E-15, 10., -104.));
#201 = CARTESIAN_POINT('', (10., 10., -69.));
#202 = CARTESIAN_POINT('', (10., 10., -104.));
#203 = CARTESIAN_POINT('', (10., -1.83635121808445E-15, -69.));
#204 = CARTESIAN_POINT('', (10., 1.93840706564108E-15, -104.));
#205 = CARTESIAN_POINT('', (10., -10., -69.));
#206 = CARTESIAN_POINT('', (10., -10., -104.));
#207 = CARTESIAN_POINT('', (-3.66651847268612E-15, -10., -69.));
#208 = CARTESIAN_POINT('', (-3.66651847268611E-15, -9.99999999999999, -104.));
#209 = CARTESIAN_POINT('', (-10., -10., -69.));
#210 = CARTESIAN_POINT('', (-10., -9.99999999999999, -104.));
#211 = CARTESIAN_POINT('', (-10., 4.83735485663205E-15, -69.));
#212 = CARTESIAN_POINT('', (-10., 8.61211314035758E-15, -104.));
#213 = ADVANCED_FACE('', (#214), #217, .T.);
#214 = FACE_OUTER_BOUND('', #215, .T.);
#215 = EDGE_LOOP('', (#216));
#216 = ORIENTED_EDGE('', *, *, #188, .T.);
#217 = B_SPLINE_SURFACE_WITH_KNOTS('', 1, 1, ((#218, #219), (#220, #221)), .UNSPECIFIED., .F., .F., .U., (2, 2), (2, 2), (0.0454545454545454, 0.954545454545455), (0.0454545454545454, 0.954545454545455), .UNSPECIFIED.);
#218 = CARTESIAN_POINT('', (10., -9.99999999999999, -104.));
#219 = CARTESIAN_POINT('', (10., 10., -104.));
#220 = CARTESIAN_POINT('', (-10., -9.99999999999999, -104.));
#221 = CARTESIAN_POINT('', (-10., 10., -104.));
#222 = PRESENTATION_STYLE_ASSIGNMENT((#223));
#223 = SURFACE_STYLE_USAGE(.POSITIVE., #224);
#224 = SURFACE_SIDE_STYLE('', (#225));
#225 = SURFACE_STYLE_FILL_AREA(#226);
#226 = FILL_AREA_STYLE('', (#227));
#227 = FILL_AREA_STYLE_COLOUR('', #228);
#228 = COLOUR_RGB('', 0.8, 0.8, 0.8);
#229 = STYLED_ITEM('', (#222), #155);
#230 = TRIMMED_CURVE('cutting part line', #231, (#235), (#236), .T., .CARTESIAN.);
#231 = LINE('', #232, #233);
#232 = CARTESIAN_POINT('', (1.11022302462516E-16, 0., -104.));
#233 = VECTOR('', #234, 10.);
#234 = DIRECTION('', (10., 0., 0.));
#235 = CARTESIAN_POINT('', (1.11022302462516E-16, 0., -104.));
#236 = CARTESIAN_POINT('', (10., 0., -104.));
#237 = TRIMMED_CURVE('cutting part line', #238, (#242), (#243), .T., .CARTESIAN.);
#238 = LINE('', #239, #240);
#239 = CARTESIAN_POINT('', (10., 3.77418336975547E-15, -104.));
#240 = VECTOR('', #241, 35.);
#241 = DIRECTION('', (0., -3.77418336975547E-15, 35.));
#242 = CARTESIAN_POINT('', (10., 3.77418336975547E-15, -104.));
#243 = CARTESIAN_POINT('', (10., 0., -69.));
#244 = TRIMMED_CURVE('cutting part line', #245, (#249), (#250), .T., .CARTESIAN.);
#245 = LINE('', #246, #247);
#246 = CARTESIAN_POINT('', (10., 0., -69.));
#247 = VECTOR('', #248, 10.);
#248 = DIRECTION('', (-10., 0., 0.));
#249 = CARTESIAN_POINT('', (10., 0., -69.));
#250 = CARTESIAN_POINT('', (-2.77555756156289E-17, 0., -69.));
#251 = TRIMMED_CURVE('cutting part line', #252, (#256), (#257), .T., .CARTESIAN.);
#252 = LINE('', #253, #254);
#253 = CARTESIAN_POINT('', (0., 0., -69.));
#254 = VECTOR('', #255, 35.);
#255 = DIRECTION('', (0., 0., -35.));
#256 = CARTESIAN_POINT('', (0., 0., -69.));
#257 = CARTESIAN_POINT('', (0., 0., -104.));
#258 = COMPOSITE_CURVE('cutting part line', (#259, #260, #261, #262), .U.);
#259 = COMPOSITE_CURVE_SEGMENT(.CONTINUOUS., .T., #230);
#260 = COMPOSITE_CURVE_SEGMENT(.CONTINUOUS., .T., #237);
#261 = COMPOSITE_CURVE_SEGMENT(.CONTINUOUS., .T., #244);
#262 = COMPOSITE_CURVE_SEGMENT(.CONTINUOUS., .T., #251);
#263 = GEOMETRIC_SET('', (#258, #301));
#264 = PRESENTATION_STYLE_ASSIGNMENT((#265));
#265 = CURVE_STYLE('', #267, POSITIVE_LENGTH_MEASURE(1.E-6), #266);
#266 = COLOUR_RGB('', 0., 0., 1.);
#267 = DRAUGHTING_PRE_DEFINED_CURVE_FONT('continuous');
#268 = STYLED_ITEM('', (#264), #258);
#269 = PRESENTATION_STYLE_ASSIGNMENT((#270));
#270 = CURVE_STYLE('', #272, POSITIVE_LENGTH_MEASURE(1.E-6), #271);
#271 = COLOUR_RGB('', 0., 0., 1.);
#272 = DRAUGHTING_PRE_DEFINED_CURVE_FONT('continuous');
#273 = OVER_RIDING_STYLED_ITEM('', (#269), #230, #268);
#274 = PRESENTATION_STYLE_ASSIGNMENT((#275));
#275 = CURVE_STYLE('', #277, POSITIVE_LENGTH_MEASURE(1.E-6), #276);
#276 = COLOUR_RGB('', 0., 0., 1.);
#277 = DRAUGHTING_PRE_DEFINED_CURVE_FONT('continuous');
#278 = OVER_RIDING_STYLED_ITEM('', (#274), #237, #268);
#279 = PRESENTATION_STYLE_ASSIGNMENT((#280));
#280 = CURVE_STYLE('', #282, POSITIVE_LENGTH_MEASURE(1.E-6), #281);
#281 = COLOUR_RGB('', 0., 0., 1.);
#282 = DRAUGHTING_PRE_DEFINED_CURVE_FONT('continuous');
#283 = OVER_RIDING_STYLED_ITEM('', (#279), #244, #268);
#284 = PRESENTATION_STYLE_ASSIGNMENT((#285));
#285 = CURVE_STYLE('', #287, POSITIVE_LENGTH_MEASURE(1.E-6), #286);
#286 = COLOUR_RGB('', 0., 0., 1.);
#287 = DRAUGHTING_PRE_DEFINED_CURVE_FONT('continuous');
#288 = OVER_RIDING_STYLED_ITEM('', (#284), #251, #268);
#289 = AXIS2_PLACEMENT_3D('MCS', #290, #291, #292);
#290 = CARTESIAN_POINT('', (0., 0., -47.));
#291 = DIRECTION('', (0., 0., 1.));
#292 = DIRECTION('', (1., 0., 0.));
#293 = AXIS2_PLACEMENT_3D('PCS', #294, #295, #296);
#294 = CARTESIAN_POINT('', (0., 0., 0.));
#295 = DIRECTION('', (0., 0., 1.));
#296 = DIRECTION('', (1., 0., 0.));
#297 = AXIS2_PLACEMENT_3D('CIP', #298, #299, #300);
#298 = CARTESIAN_POINT('', (0., 0., -104.));
#299 = DIRECTION('', (0., 0., 1.));
#300 = DIRECTION('', (1., 0., 0.));
#301 = CARTESIAN_POINT('CRP', (10., 0., -104.));
#302 = (
   GEOMETRIC_REPRESENTATION_CONTEXT (3)
   GLOBAL_UNCERTAINTY_ASSIGNED_CONTEXT ((#304))
   GLOBAL_UNIT_ASSIGNED_CONTEXT ((#303, #305, #306))
   REPRESENTATION_CONTEXT ('', '3D')
);
#303 = (
   LENGTH_UNIT ()
   NAMED_UNIT (*)
   SI_UNIT (.MILLI., .METRE.)
);
#304 = UNCERTAINTY_MEASURE_WITH_UNIT(LENGTH_MEASURE(1.E-6), #303, 'DISTANCE_ACCURACY_VALUE', '');
#305 = (
   NAMED_UNIT (*)
   SI_UNIT ($, .STERADIAN.)
   SOLID_ANGLE_UNIT ()
);
#306 = (
   NAMED_UNIT (*)
   PLANE_ANGLE_UNIT ()
   SI_UNIT ($, .RADIAN.)
);
#307 = SHAPE_REPRESENTATION('', (), #302);
#308 = PRODUCT_DEFINITION_SHAPE('', '', #309);
#309 = PRODUCT_DEFINITION('', '', #312, #316);
#310 = APPLICATION_CONTEXT('configuration controlled 3D designs of mechanical parts and assemblies');
#311 = APPLICATION_PROTOCOL_DEFINITION('International Standard', 'automotive_design', 2002, #310);
#312 = PRODUCT_DEFINITION_FORMATION_WITH_SPECIFIED_SOURCE('', '', #313, .NOT_KNOWN.);
#313 = PRODUCT('product-name', 'R217.95-200140BC35N 1630', '', (#314));
#314 = PRODUCT_CONTEXT('', #310, 'mechanical');
#315 = PRODUCT_RELATED_PRODUCT_CATEGORY('detail', '', (#313));
#316 = PRODUCT_DEFINITION_CONTEXT('part definition', #310, 'design');
#317 = SHAPE_DEFINITION_REPRESENTATION(#308, #307);
#318 = CONSTRUCTIVE_GEOMETRY_REPRESENTATION('supplemental geometry', (#289, #293, #297), #302);
#319 = CONSTRUCTIVE_GEOMETRY_REPRESENTATION_RELATIONSHIP('', '', #307, #318);
#320 = SHAPE_REPRESENTATION_RELATIONSHIP('', '', #307, #321);
#321 = SHAPE_REPRESENTATION('', (#263), #302);
#322 = SHAPE_REPRESENTATION_RELATIONSHIP('', '', #307, #323);
#323 = ADVANCED_BREP_SHAPE_REPRESENTATION('', (#1, #155), #302);
ENDSEC;
END-ISO-10303-21;
