ISO-10303-21;
HEADER;
FILE_DESCRIPTION(('STEP'), '1');
FILE_NAME('C:\\Users\\ds2002\\OneDrive - Sandvik\\HomeShare\\Documents\\Batchrepair\\CorSRT2\\NEW_MILTH_SLD\\Output\\MOD000000000000000020084666500000.stp', '2019-01-04T08:50:50', (''), (''), 'Express v3.0.0.0', 'Express Tool', 'Unknown');
FILE_SCHEMA(('AUTOMOTIVE_DESIGN'));
ENDSEC;

DATA;
#1 = MANIFOLD_SOLID_BREP('NOCUT', #2);
#2 = CLOSED_SHELL('', (#3, #50, #89, #128, #137));
#3 = ADVANCED_FACE('', (#4), #31, .T.);
#4 = FACE_OUTER_BOUND('', #5, .T.);
#5 = EDGE_LOOP('', (#6, #16, #23, #24));
#6 = ORIENTED_EDGE('', *, *, #7, .F.);
#7 = EDGE_CURVE('', #8, #10, #12, .T.);
#8 = VERTEX_POINT('', #9);
#9 = CARTESIAN_POINT('', (-8., 3.6310777594719E-15, -51.3));
#10 = VERTEX_POINT('', #11);
#11 = CARTESIAN_POINT('', (-8., 4.28626379701574E-15, -62.));
#12 = LINE('', #13, #14);
#13 = CARTESIAN_POINT('', (-8., 3.6310777594719E-15, -51.3));
#14 = VECTOR('', #15, 10.7);
#15 = DIRECTION('', (0., 6.5518603754384E-16, -10.7));
#16 = ORIENTED_EDGE('', *, *, #17, .T.);
#17 = EDGE_CURVE('', #8, #8, #18, .T.);
#18 = CIRCLE('', #19, 8.);
#19 = AXIS2_PLACEMENT_3D('', #20, #21, #22);
#20 = CARTESIAN_POINT('', (5.55111512312578E-17, 3.33066907387547E-15, -51.3));
#21 = DIRECTION('', (0., 0., -1.));
#22 = DIRECTION('', (-1., 3.75510856995538E-17, 0.));
#23 = ORIENTED_EDGE('', *, *, #7, .T.);
#24 = ORIENTED_EDGE('', *, *, #25, .F.);
#25 = EDGE_CURVE('', #10, #10, #26, .T.);
#26 = CIRCLE('', #27, 8.);
#27 = AXIS2_PLACEMENT_3D('', #28, #29, #30);
#28 = CARTESIAN_POINT('', (7.7715611723761E-16, 4.44089209850063E-16, -62.));
#29 = DIRECTION('', (0., 0., -1.));
#30 = DIRECTION('', (-1., 4.8027182339571E-16, 0.));
#31 = (
   BOUNDED_SURFACE ()
   B_SPLINE_SURFACE (2, 1, ((#32, #33), (#34, #35), (#36, #37), (#38, #39), (#40, #41), (#42, #43), (#44, #45), (#46, #47), (#48, #49)), .UNSPECIFIED., .T., .F., .U.)
   B_SPLINE_SURFACE_WITH_KNOTS ((3, 2, 2, 2, 3), (2, 2), (0., 12.5663706143592, 25.1327412287184, 37.6991118430775, 50.2654824574367), (0., 1.), .UNSPECIFIED.)
   GEOMETRIC_REPRESENTATION_ITEM ()
   RATIONAL_B_SPLINE_SURFACE (((1., 1.), (0.707106781186548, 0.707106781186548), (1., 1.), (0.707106781186548, 0.707106781186548), (1., 1.), (0.707106781186548, 0.707106781186548), (1., 1.), (0.707106781186548, 0.707106781186548), (1., 1.)))
   REPRESENTATION_ITEM ('')
   SURFACE ()
);
#32 = CARTESIAN_POINT('', (-8., 3.6310777594719E-15, -51.3));
#33 = CARTESIAN_POINT('', (-8., 4.29721157424699E-15, -62.));
#34 = CARTESIAN_POINT('', (-7.99999999999999, 8., -51.3));
#35 = CARTESIAN_POINT('', (-7.99999999999999, 8., -62.));
#36 = CARTESIAN_POINT('', (4.19593091320686E-15, 8., -51.3));
#37 = CARTESIAN_POINT('', (4.19593091320686E-15, 8., -62.));
#38 = CARTESIAN_POINT('', (8., 8., -51.3));
#39 = CARTESIAN_POINT('', (8., 8., -62.));
#40 = CARTESIAN_POINT('', (8., -3.09544953000408E-15, -51.3));
#41 = CARTESIAN_POINT('', (8., -2.42931571522899E-15, -62.));
#42 = CARTESIAN_POINT('', (8., -8., -51.3));
#43 = CARTESIAN_POINT('', (8., -8., -62.));
#44 = CARTESIAN_POINT('', (-1.55087893695124E-15, -8., -51.3));
#45 = CARTESIAN_POINT('', (-1.55087893695124E-15, -8., -62.));
#46 = CARTESIAN_POINT('', (-8., -8., -51.3));
#47 = CARTESIAN_POINT('', (-8., -8., -62.));
#48 = CARTESIAN_POINT('', (-8., 3.6310777594719E-15, -51.3));
#49 = CARTESIAN_POINT('', (-8., 4.29721157424699E-15, -62.));
#50 = ADVANCED_FACE('', (#51), #70, .T.);
#51 = FACE_OUTER_BOUND('', #52, .T.);
#52 = EDGE_LOOP('', (#53, #61, #68, #69));
#53 = ORIENTED_EDGE('', *, *, #54, .T.);
#54 = EDGE_CURVE('', #8, #55, #57, .T.);
#55 = VERTEX_POINT('', #56);
#56 = CARTESIAN_POINT('', (-8., 5.38844591624835E-16, -0.799999999999997));
#57 = LINE('', #58, #59);
#58 = CARTESIAN_POINT('', (-8., 3.6310777594719E-15, -51.3));
#59 = VECTOR('', #60, 50.5);
#60 = DIRECTION('', (0., -3.09223316784706E-15, 50.5));
#61 = ORIENTED_EDGE('', *, *, #62, .T.);
#62 = EDGE_CURVE('', #55, #55, #63, .T.);
#63 = CIRCLE('', #64, 8.);
#64 = AXIS2_PLACEMENT_3D('', #65, #66, #67);
#65 = CARTESIAN_POINT('', (5.27355936696949E-16, -4.44089209850063E-16, -0.799999999999997));
#66 = DIRECTION('', (-1.38777878078144E-17, 9.23824107420045E-17, -1.));
#67 = DIRECTION('', (-1., 1.22866725184362E-16, 1.38777878078145E-17));
#68 = ORIENTED_EDGE('', *, *, #54, .F.);
#69 = ORIENTED_EDGE('', *, *, #17, .F.);
#70 = (
   BOUNDED_SURFACE ()
   B_SPLINE_SURFACE (1, 2, ((#71, #72, #73, #74, #75, #76, #77, #78, #79), (#80, #81, #82, #83, #84, #85, #86, #87, #88)), .UNSPECIFIED., .F., .T., .U.)
   B_SPLINE_SURFACE_WITH_KNOTS ((2, 2), (3, 2, 2, 2, 3), (0., 1.), (0., 12.5663706143592, 25.1327412287184, 37.6991118430775, 50.2654824574367), .UNSPECIFIED.)
   GEOMETRIC_REPRESENTATION_ITEM ()
   RATIONAL_B_SPLINE_SURFACE (((1., 0.707106781186548, 1., 0.707106781186548, 1., 0.707106781186548, 1., 0.707106781186548, 1.), (1., 0.707106781186548, 1., 0.707106781186548, 1., 0.707106781186548, 1., 0.707106781186548, 1.)))
   REPRESENTATION_ITEM ('')
   SURFACE ()
);
#71 = CARTESIAN_POINT('', (-8., 7.60889196549866E-16, -51.3));
#72 = CARTESIAN_POINT('', (-8., 8., -51.3));
#73 = CARTESIAN_POINT('', (3.19602734218276E-16, 8., -51.3));
#74 = CARTESIAN_POINT('', (8., 8., -51.3));
#75 = CARTESIAN_POINT('', (8., -2.25260967082046E-16, -51.3));
#76 = CARTESIAN_POINT('', (8., -8., -51.3));
#77 = CARTESIAN_POINT('', (3.13170009904245E-16, -8., -51.3));
#78 = CARTESIAN_POINT('', (-8., -8., -51.3));
#79 = CARTESIAN_POINT('', (-8., 7.60889196549866E-16, -51.3));
#80 = CARTESIAN_POINT('', (-8., 5.38844591624835E-16, -0.799999999999997));
#81 = CARTESIAN_POINT('', (-8., 8., -0.799999999999997));
#82 = CARTESIAN_POINT('', (1.02043101851291E-15, 8., -0.799999999999997));
#83 = CARTESIAN_POINT('', (8., 8., -0.799999999999997));
#84 = CARTESIAN_POINT('', (8., -4.47305572007078E-16, -0.799999999999997));
#85 = CARTESIAN_POINT('', (8., -8., -0.799999999999997));
#86 = CARTESIAN_POINT('', (1.01399829419888E-15, -8., -0.799999999999997));
#87 = CARTESIAN_POINT('', (-8., -8., -0.799999999999997));
#88 = CARTESIAN_POINT('', (-8., 5.38844591624835E-16, -0.799999999999997));
#89 = ADVANCED_FACE('', (#90), #109, .T.);
#90 = FACE_OUTER_BOUND('', #91, .T.);
#91 = EDGE_LOOP('', (#92, #100, #107, #108));
#92 = ORIENTED_EDGE('', *, *, #93, .T.);
#93 = EDGE_CURVE('', #55, #94, #96, .T.);
#94 = VERTEX_POINT('', #95);
#95 = CARTESIAN_POINT('', (-7.2, 4.40872847693047E-16, 0.));
#96 = LINE('', #97, #98);
#97 = CARTESIAN_POINT('', (-8., 5.38844591624835E-16, -0.799999999999997));
#98 = VECTOR('', #99, 1.13137084989847);
#99 = DIRECTION('', (0.8, -9.7971743931788E-17, 0.799999999999997));
#100 = ORIENTED_EDGE('', *, *, #101, .T.);
#101 = EDGE_CURVE('', #94, #94, #102, .T.);
#102 = CIRCLE('', #103, 7.2);
#103 = AXIS2_PLACEMENT_3D('', #104, #105, #106);
#104 = CARTESIAN_POINT('', (-8.32667268468867E-17, -6.66133814775094E-16, -4.93038065763132E-32));
#105 = DIRECTION('', (2.56677801597318E-33, 6.12323399573677E-17, -1.));
#106 = DIRECTION('', (-1., 1.53750925342797E-16, 6.84775091337684E-33));
#107 = ORIENTED_EDGE('', *, *, #93, .F.);
#108 = ORIENTED_EDGE('', *, *, #62, .F.);
#109 = (
   BOUNDED_SURFACE ()
   B_SPLINE_SURFACE (1, 2, ((#110, #111, #112, #113, #114, #115, #116, #117, #118), (#119, #120, #121, #122, #123, #124, #125, #126, #127)), .UNSPECIFIED., .F., .T., .U.)
   B_SPLINE_SURFACE_WITH_KNOTS ((2, 2), (3, 2, 2, 2, 3), (0., 1.), (0., 0.25, 0.5, 0.75, 1.), .UNSPECIFIED.)
   GEOMETRIC_REPRESENTATION_ITEM ()
   RATIONAL_B_SPLINE_SURFACE (((1., 0.707106781186548, 1., 0.707106781186548, 1., 0.707106781186548, 1., 0.707106781186548, 1.), (1., 0.707106781186548, 1., 0.707106781186548, 1., 0.707106781186548, 1., 0.707106781186548, 1.)))
   REPRESENTATION_ITEM ('')
   SURFACE ()
);
#110 = CARTESIAN_POINT('', (-8., -4.09906311545837E-15, -0.799999999999997));
#111 = CARTESIAN_POINT('', (-8., 7.99999999999999, -0.800000000000044));
#112 = CARTESIAN_POINT('', (6.56881956236551E-16, 7.99999999999999, -0.800000000000044));
#113 = CARTESIAN_POINT('', (8., 7.99999999999999, -0.800000000000044));
#114 = CARTESIAN_POINT('', (8., -5.57936048162525E-15, -0.799999999999997));
#115 = CARTESIAN_POINT('', (8., -8.00000000000001, -0.799999999999951));
#116 = CARTESIAN_POINT('', (1.56302029387557E-16, -8.00000000000001, -0.799999999999951));
#117 = CARTESIAN_POINT('', (-8., -8.00000000000001, -0.799999999999951));
#118 = CARTESIAN_POINT('', (-8., -4.09906311545837E-15, -0.799999999999997));
#119 = CARTESIAN_POINT('', (-7.2, 4.40872847693047E-16, 0.));
#120 = CARTESIAN_POINT('', (-7.2, 7.2, -4.19664303308311E-14));
#121 = CARTESIAN_POINT('', (5.82867087928207E-16, 7.2, -4.19664303308311E-14));
#122 = CARTESIAN_POINT('', (7.2, 7.2, -4.19664303308311E-14));
#123 = CARTESIAN_POINT('', (7.2, -8.9139478185714E-16, -5.23801307078189E-30));
#124 = CARTESIAN_POINT('', (7.2, -7.2, 4.19664303308311E-14));
#125 = CARTESIAN_POINT('', (1.32345153764114E-16, -7.2, 4.19664303308311E-14));
#126 = CARTESIAN_POINT('', (-7.2, -7.2, 4.19664303308311E-14));
#127 = CARTESIAN_POINT('', (-7.2, 4.40872847693047E-16, 0.));
#128 = ADVANCED_FACE('', (#129), #132, .T.);
#129 = FACE_OUTER_BOUND('', #130, .T.);
#130 = EDGE_LOOP('', (#131));
#131 = ORIENTED_EDGE('', *, *, #101, .F.);
#132 = B_SPLINE_SURFACE_WITH_KNOTS('', 1, 1, ((#133, #134), (#135, #136)), .UNSPECIFIED., .F., .F., .U., (2, 2), (2, 2), (0.0454545454545454, 0.954545454545455), (0.0454545454545454, 0.954545454545454), .UNSPECIFIED.);
#133 = CARTESIAN_POINT('', (7.2, -7.2, -4.40872847693047E-16));
#134 = CARTESIAN_POINT('', (-7.2, -7.2, -4.40872847693047E-16));
#135 = CARTESIAN_POINT('', (7.2, 7.2, 4.40872847693047E-16));
#136 = CARTESIAN_POINT('', (-7.2, 7.2, 4.40872847693047E-16));
#137 = ADVANCED_FACE('', (#138), #141, .T.);
#138 = FACE_OUTER_BOUND('', #139, .T.);
#139 = EDGE_LOOP('', (#140));
#140 = ORIENTED_EDGE('', *, *, #25, .T.);
#141 = B_SPLINE_SURFACE_WITH_KNOTS('', 1, 1, ((#142, #143), (#144, #145)), .UNSPECIFIED., .F., .F., .U., (2, 2), (2, 2), (0.472465200363866, 0.556905261881987), (0.443094738118012, 0.527534799636134), .UNSPECIFIED.);
#142 = CARTESIAN_POINT('', (-8.00000000000003, 8.00000000000006, -62.));
#143 = CARTESIAN_POINT('', (-8.00000000000003, -7.99999999999997, -62.));
#144 = CARTESIAN_POINT('', (7.99999999999997, 8.00000000000006, -62.));
#145 = CARTESIAN_POINT('', (7.99999999999997, -7.99999999999997, -62.));
#146 = DRAUGHTING_MODEL('', (#154, #229, #268, #273, #278, #283, #288), #302);
#147 = PRESENTATION_STYLE_ASSIGNMENT((#148));
#148 = SURFACE_STYLE_USAGE(.POSITIVE., #149);
#149 = SURFACE_SIDE_STYLE('', (#150));
#150 = SURFACE_STYLE_FILL_AREA(#151);
#151 = FILL_AREA_STYLE('', (#152));
#152 = FILL_AREA_STYLE_COLOUR('', #153);
#153 = COLOUR_RGB('', 0.50196078431373, 0.50196078431373, 0.50196078431373);
#154 = STYLED_ITEM('', (#147), #1);
#155 = MANIFOLD_SOLID_BREP('CUT', #156);
#156 = CLOSED_SHELL('', (#157, #174, #213));
#157 = ADVANCED_FACE('', (#158), #169, .T.);
#158 = FACE_OUTER_BOUND('', #159, .T.);
#159 = EDGE_LOOP('', (#160));
#160 = ORIENTED_EDGE('', *, *, #161, .F.);
#161 = EDGE_CURVE('', #162, #162, #164, .T.);
#162 = VERTEX_POINT('', #163);
#163 = CARTESIAN_POINT('', (-8., 4.28626379701574E-15, -62.));
#164 = CIRCLE('', #165, 8.);
#165 = AXIS2_PLACEMENT_3D('', #166, #167, #168);
#166 = CARTESIAN_POINT('', (7.7715611723761E-16, 4.44089209850063E-16, -62.));
#167 = DIRECTION('', (0., 0., -1.));
#168 = DIRECTION('', (-1., 4.8027182339571E-16, 0.));
#169 = B_SPLINE_SURFACE_WITH_KNOTS('', 1, 1, ((#170, #171), (#172, #173)), .UNSPECIFIED., .F., .F., .U., (2, 2), (2, 2), (0.443094738118012, 0.527534799636134), (0.472465200363866, 0.556905261881987), .UNSPECIFIED.);
#170 = CARTESIAN_POINT('', (-8.00000000000001, 8.00000000000001, -62.));
#171 = CARTESIAN_POINT('', (8., 8.00000000000001, -62.));
#172 = CARTESIAN_POINT('', (-8.00000000000001, -7.99999999999999, -62.));
#173 = CARTESIAN_POINT('', (8., -7.99999999999999, -62.));
#174 = ADVANCED_FACE('', (#175), #194, .T.);
#175 = FACE_OUTER_BOUND('', #176, .T.);
#176 = EDGE_LOOP('', (#177, #185, #186, #187));
#177 = ORIENTED_EDGE('', *, *, #178, .F.);
#178 = EDGE_CURVE('', #162, #179, #181, .T.);
#179 = VERTEX_POINT('', #180);
#180 = CARTESIAN_POINT('', (-8., 6.12323399573677E-15, -92.));
#181 = LINE('', #182, #183);
#182 = CARTESIAN_POINT('', (-8., 4.28626379701574E-15, -62.));
#183 = VECTOR('', #184, 30.);
#184 = DIRECTION('', (0., 1.83697019872103E-15, -30.));
#185 = ORIENTED_EDGE('', *, *, #161, .T.);
#186 = ORIENTED_EDGE('', *, *, #178, .T.);
#187 = ORIENTED_EDGE('', *, *, #188, .F.);
#188 = EDGE_CURVE('', #179, #179, #189, .T.);
#189 = CIRCLE('', #190, 8.);
#190 = AXIS2_PLACEMENT_3D('', #191, #192, #193);
#191 = CARTESIAN_POINT('', (7.21644966006352E-16, 5.77315972805081E-15, -92.));
#192 = DIRECTION('', (0., 0., -1.));
#193 = DIRECTION('', (-1., 4.37592834607445E-17, 0.));
#194 = (
   BOUNDED_SURFACE ()
   B_SPLINE_SURFACE (2, 1, ((#195, #196), (#197, #198), (#199, #200), (#201, #202), (#203, #204), (#205, #206), (#207, #208), (#209, #210), (#211, #212)), .UNSPECIFIED., .T., .F., .U.)
   B_SPLINE_SURFACE_WITH_KNOTS ((3, 2, 2, 2, 3), (2, 2), (0., 12.5663706143592, 25.1327412287184, 37.6991118430775, 50.2654824574367), (0., 1.), .UNSPECIFIED.)
   GEOMETRIC_REPRESENTATION_ITEM ()
   RATIONAL_B_SPLINE_SURFACE (((1., 1.), (0.707106781186548, 0.707106781186548), (1., 1.), (0.707106781186548, 0.707106781186548), (1., 1.), (0.707106781186548, 0.707106781186548), (1., 1.), (0.707106781186548, 0.707106781186548), (1., 1.)))
   REPRESENTATION_ITEM ('')
   SURFACE ()
);
#195 = CARTESIAN_POINT('', (-8., 4.28626379701574E-15, -62.));
#196 = CARTESIAN_POINT('', (-8., 9.61533431521649E-15, -92.));
#197 = CARTESIAN_POINT('', (-7.99999999999999, 8., -62.));
#198 = CARTESIAN_POINT('', (-7.99999999999999, 8.00000000000001, -92.));
#199 = CARTESIAN_POINT('', (4.12947198474435E-15, 8., -62.));
#200 = CARTESIAN_POINT('', (4.12947198474435E-15, 8.00000000000001, -92.));
#201 = CARTESIAN_POINT('', (8., 8., -62.));
#202 = CARTESIAN_POINT('', (8., 8., -92.));
#203 = CARTESIAN_POINT('', (8., -2.41836793799773E-15, -62.));
#204 = CARTESIAN_POINT('', (8., 2.91070258020302E-15, -92.));
#205 = CARTESIAN_POINT('', (8., -8., -62.));
#206 = CARTESIAN_POINT('', (8., -8., -92.));
#207 = CARTESIAN_POINT('', (-1.59544231095124E-15, -8., -62.));
#208 = CARTESIAN_POINT('', (-1.59544231095124E-15, -7.99999999999999, -92.));
#209 = CARTESIAN_POINT('', (-8., -8., -62.));
#210 = CARTESIAN_POINT('', (-8., -7.99999999999999, -92.));
#211 = CARTESIAN_POINT('', (-8., 4.28626379701574E-15, -62.));
#212 = CARTESIAN_POINT('', (-8., 9.61533431521649E-15, -92.));
#213 = ADVANCED_FACE('', (#214), #217, .T.);
#214 = FACE_OUTER_BOUND('', #215, .T.);
#215 = EDGE_LOOP('', (#216));
#216 = ORIENTED_EDGE('', *, *, #188, .T.);
#217 = B_SPLINE_SURFACE_WITH_KNOTS('', 1, 1, ((#218, #219), (#220, #221)), .UNSPECIFIED., .F., .F., .U., (2, 2), (2, 2), (0.0454545454545455, 0.954545454545454), (0.0454545454545454, 0.954545454545454), .UNSPECIFIED.);
#218 = CARTESIAN_POINT('', (8., -8., -92.));
#219 = CARTESIAN_POINT('', (8., 8.00000000000001, -92.));
#220 = CARTESIAN_POINT('', (-8., -8., -92.));
#221 = CARTESIAN_POINT('', (-8., 8.00000000000001, -92.));
#222 = PRESENTATION_STYLE_ASSIGNMENT((#223));
#223 = SURFACE_STYLE_USAGE(.POSITIVE., #224);
#224 = SURFACE_SIDE_STYLE('', (#225));
#225 = SURFACE_STYLE_FILL_AREA(#226);
#226 = FILL_AREA_STYLE('', (#227));
#227 = FILL_AREA_STYLE_COLOUR('', #228);
#228 = COLOUR_RGB('', 0.8, 0.8, 0.8);
#229 = STYLED_ITEM('', (#222), #155);
#230 = TRIMMED_CURVE('cutting part line', #231, (#235), (#236), .T., .CARTESIAN.);
#231 = LINE('', #232, #233);
#232 = CARTESIAN_POINT('', (4.44089209850063E-16, 0., -92.));
#233 = VECTOR('', #234, 8.);
#234 = DIRECTION('', (8., 0., 0.));
#235 = CARTESIAN_POINT('', (4.44089209850063E-16, 0., -92.));
#236 = CARTESIAN_POINT('', (8., 0., -92.));
#237 = TRIMMED_CURVE('cutting part line', #238, (#242), (#243), .T., .CARTESIAN.);
#238 = LINE('', #239, #240);
#239 = CARTESIAN_POINT('', (8., 5.3282588749489E-15, -92.));
#240 = VECTOR('', #241, 30.);
#241 = DIRECTION('', (0., -5.3282588749489E-15, 30.));
#242 = CARTESIAN_POINT('', (8., 5.3282588749489E-15, -92.));
#243 = CARTESIAN_POINT('', (8., 0., -62.));
#244 = TRIMMED_CURVE('cutting part line', #245, (#249), (#250), .T., .CARTESIAN.);
#245 = LINE('', #246, #247);
#246 = CARTESIAN_POINT('', (8., 0., -62.));
#247 = VECTOR('', #248, 8.);
#248 = DIRECTION('', (-8., 0., -7.105427357601E-15));
#249 = CARTESIAN_POINT('', (8., 0., -62.));
#250 = CARTESIAN_POINT('', (-2.77555756156289E-17, 0., -62.));
#251 = TRIMMED_CURVE('cutting part line', #252, (#256), (#257), .T., .CARTESIAN.);
#252 = LINE('', #253, #254);
#253 = CARTESIAN_POINT('', (0., 0., -62.));
#254 = VECTOR('', #255, 30.);
#255 = DIRECTION('', (0., 0., -30.));
#256 = CARTESIAN_POINT('', (0., 0., -62.));
#257 = CARTESIAN_POINT('', (0., 0., -92.));
#258 = COMPOSITE_CURVE('cutting part line', (#259, #260, #261, #262), .U.);
#259 = COMPOSITE_CURVE_SEGMENT(.CONTINUOUS., .T., #230);
#260 = COMPOSITE_CURVE_SEGMENT(.CONTINUOUS., .T., #237);
#261 = COMPOSITE_CURVE_SEGMENT(.CONTINUOUS., .T., #244);
#262 = COMPOSITE_CURVE_SEGMENT(.CONTINUOUS., .T., #251);
#263 = GEOMETRIC_SET('', (#258, #301));
#264 = PRESENTATION_STYLE_ASSIGNMENT((#265));
#265 = CURVE_STYLE('', #267, POSITIVE_LENGTH_MEASURE(1.E-6), #266);
#266 = COLOUR_RGB('', 0., 0., 1.);
#267 = DRAUGHTING_PRE_DEFINED_CURVE_FONT('continuous');
#268 = STYLED_ITEM('', (#264), #258);
#269 = PRESENTATION_STYLE_ASSIGNMENT((#270));
#270 = CURVE_STYLE('', #272, POSITIVE_LENGTH_MEASURE(1.E-6), #271);
#271 = COLOUR_RGB('', 0., 0., 1.);
#272 = DRAUGHTING_PRE_DEFINED_CURVE_FONT('continuous');
#273 = OVER_RIDING_STYLED_ITEM('', (#269), #230, #268);
#274 = PRESENTATION_STYLE_ASSIGNMENT((#275));
#275 = CURVE_STYLE('', #277, POSITIVE_LENGTH_MEASURE(1.E-6), #276);
#276 = COLOUR_RGB('', 0., 0., 1.);
#277 = DRAUGHTING_PRE_DEFINED_CURVE_FONT('continuous');
#278 = OVER_RIDING_STYLED_ITEM('', (#274), #237, #268);
#279 = PRESENTATION_STYLE_ASSIGNMENT((#280));
#280 = CURVE_STYLE('', #282, POSITIVE_LENGTH_MEASURE(1.E-6), #281);
#281 = COLOUR_RGB('', 0., 0., 1.);
#282 = DRAUGHTING_PRE_DEFINED_CURVE_FONT('continuous');
#283 = OVER_RIDING_STYLED_ITEM('', (#279), #244, #268);
#284 = PRESENTATION_STYLE_ASSIGNMENT((#285));
#285 = CURVE_STYLE('', #287, POSITIVE_LENGTH_MEASURE(1.E-6), #286);
#286 = COLOUR_RGB('', 0., 0., 1.);
#287 = DRAUGHTING_PRE_DEFINED_CURVE_FONT('continuous');
#288 = OVER_RIDING_STYLED_ITEM('', (#284), #251, #268);
#289 = AXIS2_PLACEMENT_3D('MCS', #290, #291, #292);
#290 = CARTESIAN_POINT('', (0., 0., -48.));
#291 = DIRECTION('', (0., 0., 1.));
#292 = DIRECTION('', (1., 0., 0.));
#293 = AXIS2_PLACEMENT_3D('PCS', #294, #295, #296);
#294 = CARTESIAN_POINT('', (0., 0., 0.));
#295 = DIRECTION('', (0., 0., 1.));
#296 = DIRECTION('', (1., 0., 0.));
#297 = AXIS2_PLACEMENT_3D('CIP', #298, #299, #300);
#298 = CARTESIAN_POINT('', (0., 0., -92.));
#299 = DIRECTION('', (0., 0., 1.));
#300 = DIRECTION('', (1., 0., 0.));
#301 = CARTESIAN_POINT('CRP', (8., 0., -92.));
#302 = (
   GEOMETRIC_REPRESENTATION_CONTEXT (3)
   GLOBAL_UNCERTAINTY_ASSIGNED_CONTEXT ((#304))
   GLOBAL_UNIT_ASSIGNED_CONTEXT ((#303, #305, #306))
   REPRESENTATION_CONTEXT ('', '3D')
);
#303 = (
   LENGTH_UNIT ()
   NAMED_UNIT (*)
   SI_UNIT (.MILLI., .METRE.)
);
#304 = UNCERTAINTY_MEASURE_WITH_UNIT(LENGTH_MEASURE(1.E-6), #303, 'DISTANCE_ACCURACY_VALUE', '');
#305 = (
   NAMED_UNIT (*)
   SI_UNIT ($, .STERADIAN.)
   SOLID_ANGLE_UNIT ()
);
#306 = (
   NAMED_UNIT (*)
   PLANE_ANGLE_UNIT ()
   SI_UNIT ($, .RADIAN.)
);
#307 = SHAPE_REPRESENTATION('', (), #302);
#308 = PRODUCT_DEFINITION_SHAPE('', '', #309);
#309 = PRODUCT_DEFINITION('', '', #312, #316);
#310 = APPLICATION_CONTEXT('configuration controlled 3D designs of mechanical parts and assemblies');
#311 = APPLICATION_PROTOCOL_DEFINITION('International Standard', 'automotive_design', 2002, #310);
#312 = PRODUCT_DEFINITION_FORMATION_WITH_SPECIFIED_SOURCE('', '', #313, .NOT_KNOWN.);
#313 = PRODUCT('product-name', 'R217.95-160140BC30N 1630', '', (#314));
#314 = PRODUCT_CONTEXT('', #310, 'mechanical');
#315 = PRODUCT_RELATED_PRODUCT_CATEGORY('detail', '', (#313));
#316 = PRODUCT_DEFINITION_CONTEXT('part definition', #310, 'design');
#317 = SHAPE_DEFINITION_REPRESENTATION(#308, #307);
#318 = CONSTRUCTIVE_GEOMETRY_REPRESENTATION('supplemental geometry', (#289, #293, #297), #302);
#319 = CONSTRUCTIVE_GEOMETRY_REPRESENTATION_RELATIONSHIP('', '', #307, #318);
#320 = SHAPE_REPRESENTATION_RELATIONSHIP('', '', #307, #321);
#321 = SHAPE_REPRESENTATION('', (#263), #302);
#322 = SHAPE_REPRESENTATION_RELATIONSHIP('', '', #307, #323);
#323 = ADVANCED_BREP_SHAPE_REPRESENTATION('', (#1, #155), #302);
ENDSEC;
END-ISO-10303-21;
