ISO-10303-21;
HEADER;
FILE_DESCRIPTION(('STEP'), '1');
FILE_NAME('C:\\Users\\ds2002\\OneDrive - Sandvik\\HomeShare\\Documents\\Batchrepair\\CorSRT2\\NEW_MILTH_SLD\\Output\\MOD000000000000000020084664000000.stp', '2019-01-04T08:50:53', (''), (''), 'Express v3.0.0.0', 'Express Tool', 'Unknown');
FILE_SCHEMA(('AUTOMOTIVE_DESIGN'));
ENDSEC;

DATA;
#1 = MANIFOLD_SOLID_BREP('NOCUT', #2);
#2 = CLOSED_SHELL('', (#3, #20, #67, #106, #145, #154, #174));
#3 = ADVANCED_FACE('', (#4), #15, .T.);
#4 = FACE_OUTER_BOUND('', #5, .T.);
#5 = EDGE_LOOP('', (#6));
#6 = ORIENTED_EDGE('', *, *, #7, .T.);
#7 = EDGE_CURVE('', #8, #8, #10, .T.);
#8 = VERTEX_POINT('', #9);
#9 = CARTESIAN_POINT('', (-10.76795, 8.06845990988542E-15, -121.));
#10 = CIRCLE('', #11, 10.76795);
#11 = AXIS2_PLACEMENT_3D('', #12, #13, #14);
#12 = CARTESIAN_POINT('', (6.38378239159465E-16, 1.06581410364015E-14, -121.));
#13 = DIRECTION('', (0., 0., -1.));
#14 = DIRECTION('', (-1., -2.40498992520961E-16, 0.));
#15 = B_SPLINE_SURFACE_WITH_KNOTS('', 1, 1, ((#16, #17), (#18, #19)), .UNSPECIFIED., .F., .F., .U., (2, 2), (2, 2), (0.108438181818182, 0.891561818181818), (0.108438181818182, 0.891561818181818), .UNSPECIFIED.);
#16 = CARTESIAN_POINT('', (10.76795, -10.76795, -121.));
#17 = CARTESIAN_POINT('', (10.76795, 10.76795, -121.));
#18 = CARTESIAN_POINT('', (-10.76795, -10.76795, -121.));
#19 = CARTESIAN_POINT('', (-10.76795, 10.76795, -121.));
#20 = ADVANCED_FACE('', (#21), #48, .T.);
#21 = FACE_OUTER_BOUND('', #22, .T.);
#22 = EDGE_LOOP('', (#23, #33, #40, #41));
#23 = ORIENTED_EDGE('', *, *, #24, .F.);
#24 = EDGE_CURVE('', #25, #27, #29, .T.);
#25 = VERTEX_POINT('', #26);
#26 = CARTESIAN_POINT('', (-12.5, 4.48833051887505E-15, -60.8));
#27 = VERTEX_POINT('', #28);
#28 = CARTESIAN_POINT('', (-12.5, 5.35782974626967E-15, -75.));
#29 = LINE('', #30, #31);
#30 = CARTESIAN_POINT('', (-12.5, 4.48833051887505E-15, -60.8));
#31 = VECTOR('', #32, 14.2);
#32 = DIRECTION('', (0., 8.6949922739462E-16, -14.2));
#33 = ORIENTED_EDGE('', *, *, #34, .T.);
#34 = EDGE_CURVE('', #25, #25, #35, .T.);
#35 = CIRCLE('', #36, 12.5);
#36 = AXIS2_PLACEMENT_3D('', #37, #38, #39);
#37 = CARTESIAN_POINT('', (1.11022302462516E-16, 5.99520433297585E-15, -60.8));
#38 = DIRECTION('', (0., 0., -1.));
#39 = DIRECTION('', (-1., -1.20549905128064E-16, 0.));
#40 = ORIENTED_EDGE('', *, *, #24, .T.);
#41 = ORIENTED_EDGE('', *, *, #42, .F.);
#42 = EDGE_CURVE('', #27, #27, #43, .T.);
#43 = CIRCLE('', #44, 12.5);
#44 = AXIS2_PLACEMENT_3D('', #45, #46, #47);
#45 = CARTESIAN_POINT('', (-9.99200722162641E-16, 4.88498130835069E-15, -75.));
#46 = DIRECTION('', (0., 0., -1.));
#47 = DIRECTION('', (-1., 3.78278750335185E-17, 0.));
#48 = (
   BOUNDED_SURFACE ()
   B_SPLINE_SURFACE (2, 1, ((#49, #50), (#51, #52), (#53, #54), (#55, #56), (#57, #58), (#59, #60), (#61, #62), (#63, #64), (#65, #66)), .UNSPECIFIED., .T., .F., .U.)
   B_SPLINE_SURFACE_WITH_KNOTS ((3, 2, 2, 2, 3), (2, 2), (0., 19.6349540849362, 39.2699081698724, 58.9048622548086, 78.5398163397448), (0., 1.), .UNSPECIFIED.)
   GEOMETRIC_REPRESENTATION_ITEM ()
   RATIONAL_B_SPLINE_SURFACE (((1., 1.), (0.707106781186548, 0.707106781186548), (1., 1.), (0.707106781186548, 0.707106781186548), (1., 1.), (0.707106781186548, 0.707106781186548), (1., 1.), (0.707106781186548, 0.707106781186548), (1., 1.)))
   REPRESENTATION_ITEM ('')
   SURFACE ()
);
#49 = CARTESIAN_POINT('', (-12.5, 4.48833051887505E-15, -60.8));
#50 = CARTESIAN_POINT('', (-12.5, 5.15446433365014E-15, -75.));
#51 = CARTESIAN_POINT('', (-12.5, 12.5, -60.8));
#52 = CARTESIAN_POINT('', (-12.5, 12.5, -75.));
#53 = CARTESIAN_POINT('', (3.36746044301226E-16, 12.5, -60.8));
#54 = CARTESIAN_POINT('', (3.36746044301226E-16, 12.5, -75.));
#55 = CARTESIAN_POINT('', (12.5, 12.5, -60.8));
#56 = CARTESIAN_POINT('', (12.5, 12.5, -75.));
#57 = CARTESIAN_POINT('', (12.5, 5.48017296721033E-15, -60.8));
#58 = CARTESIAN_POINT('', (12.5, 6.14630678198543E-15, -75.));
#59 = CARTESIAN_POINT('', (12.5, -12.5, -60.8));
#60 = CARTESIAN_POINT('', (12.5, -12.5, -75.));
#61 = CARTESIAN_POINT('', (2.8593969915707E-15, -12.5, -60.8));
#62 = CARTESIAN_POINT('', (2.8593969915707E-15, -12.5, -75.));
#63 = CARTESIAN_POINT('', (-12.5, -12.5, -60.8));
#64 = CARTESIAN_POINT('', (-12.5, -12.5, -75.));
#65 = CARTESIAN_POINT('', (-12.5, 4.48833051887505E-15, -60.8));
#66 = CARTESIAN_POINT('', (-12.5, 5.15446433365014E-15, -75.));
#67 = ADVANCED_FACE('', (#68), #87, .T.);
#68 = FACE_OUTER_BOUND('', #69, .T.);
#69 = EDGE_LOOP('', (#70, #78, #85, #86));
#70 = ORIENTED_EDGE('', *, *, #71, .T.);
#71 = EDGE_CURVE('', #25, #72, #74, .T.);
#72 = VERTEX_POINT('', #73);
#73 = CARTESIAN_POINT('', (-12.5, 8.41944674413805E-16, -1.25));
#74 = LINE('', #75, #76);
#75 = CARTESIAN_POINT('', (-12.5, 4.48833051887505E-15, -60.8));
#76 = VECTOR('', #77, 59.55);
#77 = DIRECTION('', (0., -3.64638584446124E-15, 59.55));
#78 = ORIENTED_EDGE('', *, *, #79, .T.);
#79 = EDGE_CURVE('', #72, #72, #80, .T.);
#80 = CIRCLE('', #81, 12.5);
#81 = AXIS2_PLACEMENT_3D('', #82, #83, #84);
#82 = CARTESIAN_POINT('', (-7.7715611723761E-16, 4.44089209850063E-16, -1.25));
#83 = DIRECTION('', (-1.77635683940025E-16, 5.77905114400149E-16, -1.));
#84 = DIRECTION('', (-1., 3.18284371650994E-17, 1.77635683940025E-16));
#85 = ORIENTED_EDGE('', *, *, #71, .F.);
#86 = ORIENTED_EDGE('', *, *, #34, .F.);
#87 = (
   BOUNDED_SURFACE ()
   B_SPLINE_SURFACE (1, 2, ((#88, #89, #90, #91, #92, #93, #94, #95, #96), (#97, #98, #99, #100, #101, #102, #103, #104, #105)), .UNSPECIFIED., .F., .T., .U.)
   B_SPLINE_SURFACE_WITH_KNOTS ((2, 2), (3, 2, 2, 2, 3), (0., 1.), (0., 19.6349540849362, 39.2699081698724, 58.9048622548086, 78.5398163397448), .UNSPECIFIED.)
   GEOMETRIC_REPRESENTATION_ITEM ()
   RATIONAL_B_SPLINE_SURFACE (((1., 0.707106781186548, 1., 0.707106781186548, 1., 0.707106781186548, 1., 0.707106781186548, 1.), (1., 0.707106781186548, 1., 0.707106781186548, 1., 0.707106781186548, 1., 0.707106781186548, 1.)))
   REPRESENTATION_ITEM ('')
   SURFACE ()
);
#88 = CARTESIAN_POINT('', (-12.5, 4.61670295813934E-15, -60.8));
#89 = CARTESIAN_POINT('', (-12.5, 12.5, -60.8));
#90 = CARTESIAN_POINT('', (-1.17229098807695E-14, 12.5, -60.8));
#91 = CARTESIAN_POINT('', (12.5, 12.5, -60.8));
#92 = CARTESIAN_POINT('', (12.5, 5.35180052794604E-15, -60.8));
#93 = CARTESIAN_POINT('', (12.5, -12.5, -60.8));
#94 = CARTESIAN_POINT('', (-9.45700381202856E-15, -12.5, -60.8));
#95 = CARTESIAN_POINT('', (-12.5, -12.5, -60.8));
#96 = CARTESIAN_POINT('', (-12.5, 4.61670295813934E-15, -60.8));
#97 = CARTESIAN_POINT('', (-12.5, 8.41944674413805E-16, -1.25));
#98 = CARTESIAN_POINT('', (-12.5, 12.5, -1.25));
#99 = CARTESIAN_POINT('', (-1.14470490214096E-15, 12.5, -1.25));
#100 = CARTESIAN_POINT('', (12.5, 12.5, -1.25));
#101 = CARTESIAN_POINT('', (12.5, 1.57704224422051E-15, -1.25));
#102 = CARTESIAN_POINT('', (12.5, -12.5, -1.25000000000001));
#103 = CARTESIAN_POINT('', (1.12120116659994E-15, -12.5, -1.25));
#104 = CARTESIAN_POINT('', (-12.5, -12.5, -1.25));
#105 = CARTESIAN_POINT('', (-12.5, 8.41944674413805E-16, -1.25));
#106 = ADVANCED_FACE('', (#107), #126, .T.);
#107 = FACE_OUTER_BOUND('', #108, .T.);
#108 = EDGE_LOOP('', (#109, #117, #124, #125));
#109 = ORIENTED_EDGE('', *, *, #110, .T.);
#110 = EDGE_CURVE('', #72, #111, #113, .T.);
#111 = VERTEX_POINT('', #112);
#112 = CARTESIAN_POINT('', (-11.25, 6.88863824520386E-16, 0.));
#113 = LINE('', #114, #115);
#114 = CARTESIAN_POINT('', (-12.5, 8.41944674413805E-16, -1.25));
#115 = VECTOR('', #116, 1.76776695296637);
#116 = DIRECTION('', (1.25, -1.53080849893419E-16, 1.25));
#117 = ORIENTED_EDGE('', *, *, #118, .T.);
#118 = EDGE_CURVE('', #111, #111, #119, .T.);
#119 = CIRCLE('', #120, 11.25);
#120 = AXIS2_PLACEMENT_3D('', #121, #122, #123);
#121 = CARTESIAN_POINT('', (3.13638004456607E-15, 3.77475828372553E-15, -1.55750205063638E-15));
#122 = DIRECTION('', (-1.38444626723234E-16, 4.46123178594214E-16, -1.));
#123 = DIRECTION('', (-1., -2.74301729707124E-16, 1.38444626723233E-16));
#124 = ORIENTED_EDGE('', *, *, #110, .F.);
#125 = ORIENTED_EDGE('', *, *, #79, .F.);
#126 = (
   BOUNDED_SURFACE ()
   B_SPLINE_SURFACE (1, 2, ((#127, #128, #129, #130, #131, #132, #133, #134, #135), (#136, #137, #138, #139, #140, #141, #142, #143, #144)), .UNSPECIFIED., .F., .T., .U.)
   B_SPLINE_SURFACE_WITH_KNOTS ((2, 2), (3, 2, 2, 2, 3), (0., 1.), (0., 0.25, 0.5, 0.75, 1.), .UNSPECIFIED.)
   GEOMETRIC_REPRESENTATION_ITEM ()
   RATIONAL_B_SPLINE_SURFACE (((1., 0.707106781186548, 1., 0.707106781186548, 1., 0.707106781186548, 1., 0.707106781186548, 1.), (1., 0.707106781186548, 1., 0.707106781186548, 1., 0.707106781186548, 1., 0.707106781186548, 1.)))
   REPRESENTATION_ITEM ('')
   SURFACE ()
);
#127 = CARTESIAN_POINT('', (-12.5, -7.64236362238674E-16, -1.25));
#128 = CARTESIAN_POINT('', (-12.5, 12.5, -1.25000000000001));
#129 = CARTESIAN_POINT('', (-1.23085160964412E-15, 12.5, -1.25000000000001));
#130 = CARTESIAN_POINT('', (12.5, 12.5, -1.25000000000002));
#131 = CARTESIAN_POINT('', (12.5, 7.62411537937362E-15, -1.25));
#132 = CARTESIAN_POINT('', (12.5, -12.5, -1.24999999999999));
#133 = CARTESIAN_POINT('', (8.68830863090236E-15, -12.5, -1.24999999999999));
#134 = CARTESIAN_POINT('', (-12.5, -12.5, -1.24999999999999));
#135 = CARTESIAN_POINT('', (-12.5, -7.64236362238674E-16, -1.25));
#136 = CARTESIAN_POINT('', (-11.25, 6.88863824520387E-16, -5.91645678915759E-31));
#137 = CARTESIAN_POINT('', (-11.25, 11.25, -9.9920072216264E-15));
#138 = CARTESIAN_POINT('', (-6.38378239159465E-16, 11.25, -1.15495092722628E-14));
#139 = CARTESIAN_POINT('', (11.25, 11.25, -1.31070113228991E-14));
#140 = CARTESIAN_POINT('', (11.25, 8.23838039197145E-15, -3.11500410127275E-15));
#141 = CARTESIAN_POINT('', (11.25, -11.25, 6.87700312035364E-15));
#142 = CARTESIAN_POINT('', (8.28886597733237E-15, -11.25, 8.43450517099002E-15));
#143 = CARTESIAN_POINT('', (-11.25, -11.25, 9.9920072216264E-15));
#144 = CARTESIAN_POINT('', (-11.25, 6.88863824520387E-16, -5.91645678915759E-31));
#145 = ADVANCED_FACE('', (#146), #149, .T.);
#146 = FACE_OUTER_BOUND('', #147, .T.);
#147 = EDGE_LOOP('', (#148));
#148 = ORIENTED_EDGE('', *, *, #118, .F.);
#149 = B_SPLINE_SURFACE_WITH_KNOTS('', 1, 1, ((#150, #151), (#152, #153)), .UNSPECIFIED., .F., .F., .U., (2, 2), (2, 2), (0.0454545454545454, 0.954545454545454), (0.0454545454545454, 0.954545454545454), .UNSPECIFIED.);
#150 = CARTESIAN_POINT('', (11.25, -11.25, -6.88863824520386E-16));
#151 = CARTESIAN_POINT('', (-11.25, -11.25, -6.88863824520386E-16));
#152 = CARTESIAN_POINT('', (11.25, 11.25, 6.88863824520386E-16));
#153 = CARTESIAN_POINT('', (-11.25, 11.25, 6.88863824520386E-16));
#154 = ADVANCED_FACE('', (#155, #158), #169, .T.);
#155 = FACE_OUTER_BOUND('', #156, .T.);
#156 = EDGE_LOOP('', (#157));
#157 = ORIENTED_EDGE('', *, *, #42, .T.);
#158 = FACE_BOUND('', #159, .T.);
#159 = EDGE_LOOP('', (#160));
#160 = ORIENTED_EDGE('', *, *, #161, .F.);
#161 = EDGE_CURVE('', #162, #162, #164, .T.);
#162 = VERTEX_POINT('', #163);
#163 = CARTESIAN_POINT('', (-10.76795, 5.25177227184651E-15, -75.));
#164 = CIRCLE('', #165, 10.76795);
#165 = AXIS2_PLACEMENT_3D('', #166, #167, #168);
#166 = CARTESIAN_POINT('', (6.93889390390723E-16, 8.21565038222616E-15, -75.));
#167 = DIRECTION('', (-1.23636027024746E-30, 4.4917722916432E-15, -1.));
#168 = DIRECTION('', (-1., -2.75249988194563E-16, 0.));
#169 = B_SPLINE_SURFACE_WITH_KNOTS('', 1, 1, ((#170, #171), (#172, #173)), .UNSPECIFIED., .F., .F., .U., (2, 2), (2, 2), (0.0454545454545453, 0.954545454545454), (0.0454545454545451, 0.954545454545454), .UNSPECIFIED.);
#170 = CARTESIAN_POINT('', (12.5, -12.5, -75.));
#171 = CARTESIAN_POINT('', (12.5, 12.5, -75.));
#172 = CARTESIAN_POINT('', (-12.5, -12.5, -75.));
#173 = CARTESIAN_POINT('', (-12.5, 12.5, -75.));
#174 = ADVANCED_FACE('', (#175), #186, .T.);
#175 = FACE_OUTER_BOUND('', #176, .T.);
#176 = EDGE_LOOP('', (#177, #183, #184, #185));
#177 = ORIENTED_EDGE('', *, *, #178, .T.);
#178 = EDGE_CURVE('', #8, #162, #179, .T.);
#179 = LINE('', #180, #181);
#180 = CARTESIAN_POINT('', (-10.76795, 8.06845990988542E-15, -121.));
#181 = VECTOR('', #182, 46.);
#182 = DIRECTION('', (0., -2.81668763803891E-15, 46.));
#183 = ORIENTED_EDGE('', *, *, #161, .T.);
#184 = ORIENTED_EDGE('', *, *, #178, .F.);
#185 = ORIENTED_EDGE('', *, *, #7, .F.);
#186 = (
   BOUNDED_SURFACE ()
   B_SPLINE_SURFACE (1, 2, ((#187, #188, #189, #190, #191, #192, #193, #194, #195), (#196, #197, #198, #199, #200, #201, #202, #203, #204)), .UNSPECIFIED., .F., .T., .U.)
   B_SPLINE_SURFACE_WITH_KNOTS ((2, 2), (3, 2, 2, 2, 3), (0., 1.), (0., 16.9142563071111, 33.8285126142222, 50.7427689213333, 67.6570252284444), .UNSPECIFIED.)
   GEOMETRIC_REPRESENTATION_ITEM ()
   RATIONAL_B_SPLINE_SURFACE (((1., 0.707106781186548, 1., 0.707106781186548, 1., 0.707106781186548, 1., 0.707106781186548, 1.), (1., 0.707106781186548, 1., 0.707106781186548, 1., 0.707106781186548, 1., 0.707106781186548, 1.)))
   REPRESENTATION_ITEM ('')
   SURFACE ()
);
#187 = CARTESIAN_POINT('', (-10.76795, 7.69426292602185E-15, -121.));
#188 = CARTESIAN_POINT('', (-10.76795, 10.76795, -121.));
#189 = CARTESIAN_POINT('', (-2.92933549503286E-15, 10.76795, -121.));
#190 = CARTESIAN_POINT('', (10.76795, 10.76795, -121.));
#191 = CARTESIAN_POINT('', (10.76795, 1.4940712696869E-14, -121.));
#192 = CARTESIAN_POINT('', (10.76795, -10.76795, -121.));
#193 = CARTESIAN_POINT('', (5.63580782590218E-15, -10.76795, -121.));
#194 = CARTESIAN_POINT('', (-10.76795, -10.76795, -121.));
#195 = CARTESIAN_POINT('', (-10.76795, 7.69426292602185E-15, -121.));
#196 = CARTESIAN_POINT('', (-10.76795, 5.25177227184651E-15, -75.));
#197 = CARTESIAN_POINT('', (-10.76795, 10.76795, -75.));
#198 = CARTESIAN_POINT('', (-2.92933549503286E-15, 10.76795, -75.));
#199 = CARTESIAN_POINT('', (10.76795, 10.76795, -75.));
#200 = CARTESIAN_POINT('', (10.76795, 1.24982220426937E-14, -75.));
#201 = CARTESIAN_POINT('', (10.76795, -10.76795, -75.));
#202 = CARTESIAN_POINT('', (5.63580782590218E-15, -10.76795, -75.));
#203 = CARTESIAN_POINT('', (-10.76795, -10.76795, -75.));
#204 = CARTESIAN_POINT('', (-10.76795, 5.25177227184651E-15, -75.));
#205 = DRAUGHTING_MODEL('', (#213, #351, #390, #395, #400, #405, #410), #424);
#206 = PRESENTATION_STYLE_ASSIGNMENT((#207));
#207 = SURFACE_STYLE_USAGE(.POSITIVE., #208);
#208 = SURFACE_SIDE_STYLE('', (#209));
#209 = SURFACE_STYLE_FILL_AREA(#210);
#210 = FILL_AREA_STYLE('', (#211));
#211 = FILL_AREA_STYLE_COLOUR('', #212);
#212 = COLOUR_RGB('', 0.50196078431373, 0.50196078431373, 0.50196078431373);
#213 = STYLED_ITEM('', (#206), #1);
#214 = MANIFOLD_SOLID_BREP('CUT', #215);
#215 = CLOSED_SHELL('', (#216, #263, #288, #327));
#216 = ADVANCED_FACE('', (#217), #244, .T.);
#217 = FACE_OUTER_BOUND('', #218, .T.);
#218 = EDGE_LOOP('', (#219, #229, #236, #237));
#219 = ORIENTED_EDGE('', *, *, #220, .F.);
#220 = EDGE_CURVE('', #221, #223, #225, .T.);
#221 = VERTEX_POINT('', #222);
#222 = CARTESIAN_POINT('', (-12.5, 5.35782974626967E-15, -75.));
#223 = VERTEX_POINT('', #224);
#224 = CARTESIAN_POINT('', (-12.5, 8.17451738430858E-15, -121.));
#225 = LINE('', #226, #227);
#226 = CARTESIAN_POINT('', (-12.5, 5.35782974626967E-15, -75.));
#227 = VECTOR('', #228, 46.);
#228 = DIRECTION('', (0., 2.81668763803891E-15, -46.));
#229 = ORIENTED_EDGE('', *, *, #230, .T.);
#230 = EDGE_CURVE('', #221, #221, #231, .T.);
#231 = CIRCLE('', #232, 12.5);
#232 = AXIS2_PLACEMENT_3D('', #233, #234, #235);
#233 = CARTESIAN_POINT('', (5.55111512312578E-17, 7.105427357601E-15, -75.));
#234 = DIRECTION('', (0., 0., -1.));
#235 = DIRECTION('', (-1., -1.39807808906507E-16, 0.));
#236 = ORIENTED_EDGE('', *, *, #220, .T.);
#237 = ORIENTED_EDGE('', *, *, #238, .F.);
#238 = EDGE_CURVE('', #223, #223, #239, .T.);
#239 = CIRCLE('', #240, 12.5);
#240 = AXIS2_PLACEMENT_3D('', #241, #242, #243);
#241 = CARTESIAN_POINT('', (-1.11022302462516E-15, 7.7715611723761E-15, -121.));
#242 = DIRECTION('', (0., 0., -1.));
#243 = DIRECTION('', (-1., 3.22364969545988E-17, 0.));
#244 = (
   BOUNDED_SURFACE ()
   B_SPLINE_SURFACE (2, 1, ((#245, #246), (#247, #248), (#249, #250), (#251, #252), (#253, #254), (#255, #256), (#257, #258), (#259, #260), (#261, #262)), .UNSPECIFIED., .T., .F., .U.)
   B_SPLINE_SURFACE_WITH_KNOTS ((3, 2, 2, 2, 3), (2, 2), (0., 19.6349540849362, 39.2699081698724, 58.9048622548086, 78.5398163397448), (0., 1.), .UNSPECIFIED.)
   GEOMETRIC_REPRESENTATION_ITEM ()
   RATIONAL_B_SPLINE_SURFACE (((1., 1.), (0.707106781186548, 0.707106781186548), (1., 1.), (0.707106781186548, 0.707106781186548), (1., 1.), (0.707106781186548, 0.707106781186548), (1., 1.), (0.707106781186548, 0.707106781186548), (1., 1.)))
   REPRESENTATION_ITEM ('')
   SURFACE ()
);
#245 = CARTESIAN_POINT('', (-12.5, 5.35782974626967E-15, -75.));
#246 = CARTESIAN_POINT('', (-12.5, 8.24440961029508E-15, -121.));
#247 = CARTESIAN_POINT('', (-12.5, 12.5, -75.));
#248 = CARTESIAN_POINT('', (-12.5, 12.5, -121.));
#249 = CARTESIAN_POINT('', (-1.29175653371076E-15, 12.5, -75.));
#250 = CARTESIAN_POINT('', (-1.29175653371076E-15, 12.5, -121.));
#251 = CARTESIAN_POINT('', (12.5, 12.5, -75.));
#252 = CARTESIAN_POINT('', (12.5, 12.5, -121.));
#253 = CARTESIAN_POINT('', (12.5, 5.9429413693659E-15, -75.));
#254 = CARTESIAN_POINT('', (12.5, 8.82952123339131E-15, -121.));
#255 = CARTESIAN_POINT('', (12.5, -12.5, -75.));
#256 = CARTESIAN_POINT('', (12.5, -12.5, -121.));
#257 = CARTESIAN_POINT('', (8.24163588319665E-16, -12.5, -75.));
#258 = CARTESIAN_POINT('', (8.24163588319666E-16, -12.5, -121.));
#259 = CARTESIAN_POINT('', (-12.5, -12.5, -75.));
#260 = CARTESIAN_POINT('', (-12.5, -12.5, -121.));
#261 = CARTESIAN_POINT('', (-12.5, 5.35782974626967E-15, -75.));
#262 = CARTESIAN_POINT('', (-12.5, 8.24440961029508E-15, -121.));
#263 = ADVANCED_FACE('', (#264), #283, .T.);
#264 = FACE_OUTER_BOUND('', #265, .T.);
#265 = EDGE_LOOP('', (#266, #274, #281, #282));
#266 = ORIENTED_EDGE('', *, *, #267, .F.);
#267 = EDGE_CURVE('', #268, #221, #270, .T.);
#268 = VERTEX_POINT('', #269);
#269 = CARTESIAN_POINT('', (-10.76795, 5.25177227184651E-15, -75.));
#270 = LINE('', #271, #272);
#271 = CARTESIAN_POINT('', (-10.76795, 5.25177227184651E-15, -75.));
#272 = VECTOR('', #273, 1.73205);
#273 = DIRECTION('', (-1.73205, 1.0605747442316E-16, 0.));
#274 = ORIENTED_EDGE('', *, *, #275, .T.);
#275 = EDGE_CURVE('', #268, #268, #276, .T.);
#276 = CIRCLE('', #277, 10.76795);
#277 = AXIS2_PLACEMENT_3D('', #278, #279, #280);
#278 = CARTESIAN_POINT('', (6.93889390390723E-16, 8.21565038222616E-15, -75.));
#279 = DIRECTION('', (-1.23636027024746E-30, 4.4917722916432E-15, -1.));
#280 = DIRECTION('', (-1., -2.75249988194563E-16, 0.));
#281 = ORIENTED_EDGE('', *, *, #267, .T.);
#282 = ORIENTED_EDGE('', *, *, #230, .F.);
#283 = B_SPLINE_SURFACE_WITH_KNOTS('', 1, 1, ((#284, #285), (#286, #287)), .UNSPECIFIED., .F., .F., .U., (2, 2), (2, 2), (0., 1.), (0., 1.), .UNSPECIFIED.);
#284 = CARTESIAN_POINT('', (13.75, -13.75, -75.));
#285 = CARTESIAN_POINT('', (-13.75, -13.75, -75.));
#286 = CARTESIAN_POINT('', (13.75, 13.75, -75.));
#287 = CARTESIAN_POINT('', (-13.75, 13.75, -75.));
#288 = ADVANCED_FACE('', (#289), #308, .T.);
#289 = FACE_OUTER_BOUND('', #290, .T.);
#290 = EDGE_LOOP('', (#291, #299, #306, #307));
#291 = ORIENTED_EDGE('', *, *, #292, .F.);
#292 = EDGE_CURVE('', #293, #268, #295, .T.);
#293 = VERTEX_POINT('', #294);
#294 = CARTESIAN_POINT('', (-10.76795, 8.06845990988542E-15, -121.));
#295 = LINE('', #296, #297);
#296 = CARTESIAN_POINT('', (-10.76795, 8.06845990988542E-15, -121.));
#297 = VECTOR('', #298, 46.);
#298 = DIRECTION('', (0., -2.81668763803891E-15, 46.));
#299 = ORIENTED_EDGE('', *, *, #300, .T.);
#300 = EDGE_CURVE('', #293, #293, #301, .T.);
#301 = CIRCLE('', #302, 10.76795);
#302 = AXIS2_PLACEMENT_3D('', #303, #304, #305);
#303 = CARTESIAN_POINT('', (6.38378239159465E-16, 1.06581410364015E-14, -121.));
#304 = DIRECTION('', (0., 0., -1.));
#305 = DIRECTION('', (-1., -2.40498992520961E-16, 0.));
#306 = ORIENTED_EDGE('', *, *, #292, .T.);
#307 = ORIENTED_EDGE('', *, *, #275, .F.);
#308 = (
   BOUNDED_SURFACE ()
   B_SPLINE_SURFACE (2, 1, ((#309, #310), (#311, #312), (#313, #314), (#315, #316), (#317, #318), (#319, #320), (#321, #322), (#323, #324), (#325, #326)), .UNSPECIFIED., .T., .F., .U.)
   B_SPLINE_SURFACE_WITH_KNOTS ((3, 2, 2, 2, 3), (2, 2), (0., 16.9142563071111, 33.8285126142222, 50.7427689213333, 67.6570252284444), (0., 1.), .UNSPECIFIED.)
   GEOMETRIC_REPRESENTATION_ITEM ()
   RATIONAL_B_SPLINE_SURFACE (((1., 1.), (0.707106781186548, 0.707106781186548), (1., 1.), (0.707106781186548, 0.707106781186548), (1., 1.), (0.707106781186548, 0.707106781186548), (1., 1.), (0.707106781186548, 0.707106781186548), (1., 1.)))
   REPRESENTATION_ITEM ('')
   SURFACE ()
);
#309 = CARTESIAN_POINT('', (-10.76795, 7.69426292602185E-15, -121.));
#310 = CARTESIAN_POINT('', (-10.76795, 5.25177227184651E-15, -75.));
#311 = CARTESIAN_POINT('', (-10.76795, 10.76795, -121.));
#312 = CARTESIAN_POINT('', (-10.76795, 10.76795, -75.));
#313 = CARTESIAN_POINT('', (-2.92933549503286E-15, 10.76795, -121.));
#314 = CARTESIAN_POINT('', (-2.92933549503286E-15, 10.76795, -75.));
#315 = CARTESIAN_POINT('', (10.76795, 10.76795, -121.));
#316 = CARTESIAN_POINT('', (10.76795, 10.76795, -75.));
#317 = CARTESIAN_POINT('', (10.76795, 1.4940712696869E-14, -121.));
#318 = CARTESIAN_POINT('', (10.76795, 1.24982220426937E-14, -75.));
#319 = CARTESIAN_POINT('', (10.76795, -10.76795, -121.));
#320 = CARTESIAN_POINT('', (10.76795, -10.76795, -75.));
#321 = CARTESIAN_POINT('', (5.63580782590218E-15, -10.76795, -121.));
#322 = CARTESIAN_POINT('', (5.63580782590218E-15, -10.76795, -75.));
#323 = CARTESIAN_POINT('', (-10.76795, -10.76795, -121.));
#324 = CARTESIAN_POINT('', (-10.76795, -10.76795, -75.));
#325 = CARTESIAN_POINT('', (-10.76795, 7.69426292602185E-15, -121.));
#326 = CARTESIAN_POINT('', (-10.76795, 5.25177227184651E-15, -75.));
#327 = ADVANCED_FACE('', (#328), #339, .T.);
#328 = FACE_OUTER_BOUND('', #329, .T.);
#329 = EDGE_LOOP('', (#330, #336, #337, #338));
#330 = ORIENTED_EDGE('', *, *, #331, .F.);
#331 = EDGE_CURVE('', #223, #293, #332, .T.);
#332 = LINE('', #333, #334);
#333 = CARTESIAN_POINT('', (-12.5, 8.17451738430858E-15, -121.));
#334 = VECTOR('', #335, 1.73205);
#335 = DIRECTION('', (1.73205, -1.06057474423161E-16, 0.));
#336 = ORIENTED_EDGE('', *, *, #238, .T.);
#337 = ORIENTED_EDGE('', *, *, #331, .T.);
#338 = ORIENTED_EDGE('', *, *, #300, .F.);
#339 = B_SPLINE_SURFACE_WITH_KNOTS('', 1, 1, ((#340, #341), (#342, #343)), .UNSPECIFIED., .F., .F., .U., (2, 2), (2, 2), (0., 1.), (0., 1.), .UNSPECIFIED.);
#340 = CARTESIAN_POINT('', (13.75, -13.75, -121.));
#341 = CARTESIAN_POINT('', (13.75, 13.75, -121.));
#342 = CARTESIAN_POINT('', (-13.75, -13.75, -121.));
#343 = CARTESIAN_POINT('', (-13.75, 13.75, -121.));
#344 = PRESENTATION_STYLE_ASSIGNMENT((#345));
#345 = SURFACE_STYLE_USAGE(.POSITIVE., #346);
#346 = SURFACE_SIDE_STYLE('', (#347));
#347 = SURFACE_STYLE_FILL_AREA(#348);
#348 = FILL_AREA_STYLE('', (#349));
#349 = FILL_AREA_STYLE_COLOUR('', #350);
#350 = COLOUR_RGB('', 0.8, 0.8, 0.8);
#351 = STYLED_ITEM('', (#344), #214);
#352 = TRIMMED_CURVE('cutting part line', #353, (#357), (#358), .T., .CARTESIAN.);
#353 = LINE('', #354, #355);
#354 = CARTESIAN_POINT('', (12.5, 0., -75.));
#355 = VECTOR('', #356, 1.73205);
#356 = DIRECTION('', (-1.73205, 0., 0.));
#357 = CARTESIAN_POINT('', (12.5, 0., -75.));
#358 = CARTESIAN_POINT('', (10.76795, 0., -75.));
#359 = TRIMMED_CURVE('cutting part line', #360, (#364), (#365), .T., .CARTESIAN.);
#360 = LINE('', #361, #362);
#361 = CARTESIAN_POINT('', (10.76795, 0., -75.));
#362 = VECTOR('', #363, 46.);
#363 = DIRECTION('', (0., 2.44211865101824E-15, -46.));
#364 = CARTESIAN_POINT('', (10.76795, 0., -75.));
#365 = CARTESIAN_POINT('', (10.76795, 2.44211865101824E-15, -121.));
#366 = TRIMMED_CURVE('cutting part line', #367, (#371), (#372), .T., .CARTESIAN.);
#367 = LINE('', #368, #369);
#368 = CARTESIAN_POINT('', (10.76795, 0., -121.));
#369 = VECTOR('', #370, 1.73204999999999);
#370 = DIRECTION('', (1.73204999999999, 0., 0.));
#371 = CARTESIAN_POINT('', (10.76795, 0., -121.));
#372 = CARTESIAN_POINT('', (12.5, 0., -121.));
#373 = TRIMMED_CURVE('cutting part line', #374, (#378), (#379), .T., .CARTESIAN.);
#374 = LINE('', #375, #376);
#375 = CARTESIAN_POINT('', (12.5, 2.88614022393065E-15, -121.));
#376 = VECTOR('', #377, 46.);
#377 = DIRECTION('', (0., -2.88614022393065E-15, 46.));
#378 = CARTESIAN_POINT('', (12.5, 2.88614022393065E-15, -121.));
#379 = CARTESIAN_POINT('', (12.5, 0., -75.));
#380 = COMPOSITE_CURVE('cutting part line', (#381, #382, #383, #384), .U.);
#381 = COMPOSITE_CURVE_SEGMENT(.CONTINUOUS., .T., #352);
#382 = COMPOSITE_CURVE_SEGMENT(.CONTINUOUS., .T., #359);
#383 = COMPOSITE_CURVE_SEGMENT(.CONTINUOUS., .T., #366);
#384 = COMPOSITE_CURVE_SEGMENT(.CONTINUOUS., .T., #373);
#385 = GEOMETRIC_SET('', (#380, #423));
#386 = PRESENTATION_STYLE_ASSIGNMENT((#387));
#387 = CURVE_STYLE('', #389, POSITIVE_LENGTH_MEASURE(1.E-6), #388);
#388 = COLOUR_RGB('', 0., 0., 1.);
#389 = DRAUGHTING_PRE_DEFINED_CURVE_FONT('continuous');
#390 = STYLED_ITEM('', (#386), #380);
#391 = PRESENTATION_STYLE_ASSIGNMENT((#392));
#392 = CURVE_STYLE('', #394, POSITIVE_LENGTH_MEASURE(1.E-6), #393);
#393 = COLOUR_RGB('', 0., 0., 1.);
#394 = DRAUGHTING_PRE_DEFINED_CURVE_FONT('continuous');
#395 = OVER_RIDING_STYLED_ITEM('', (#391), #352, #390);
#396 = PRESENTATION_STYLE_ASSIGNMENT((#397));
#397 = CURVE_STYLE('', #399, POSITIVE_LENGTH_MEASURE(1.E-6), #398);
#398 = COLOUR_RGB('', 0., 0., 1.);
#399 = DRAUGHTING_PRE_DEFINED_CURVE_FONT('continuous');
#400 = OVER_RIDING_STYLED_ITEM('', (#396), #359, #390);
#401 = PRESENTATION_STYLE_ASSIGNMENT((#402));
#402 = CURVE_STYLE('', #404, POSITIVE_LENGTH_MEASURE(1.E-6), #403);
#403 = COLOUR_RGB('', 0., 0., 1.);
#404 = DRAUGHTING_PRE_DEFINED_CURVE_FONT('continuous');
#405 = OVER_RIDING_STYLED_ITEM('', (#401), #366, #390);
#406 = PRESENTATION_STYLE_ASSIGNMENT((#407));
#407 = CURVE_STYLE('', #409, POSITIVE_LENGTH_MEASURE(1.E-6), #408);
#408 = COLOUR_RGB('', 0., 0., 1.);
#409 = DRAUGHTING_PRE_DEFINED_CURVE_FONT('continuous');
#410 = OVER_RIDING_STYLED_ITEM('', (#406), #373, #390);
#411 = AXIS2_PLACEMENT_3D('MCS', #412, #413, #414);
#412 = CARTESIAN_POINT('', (0., 0., -56.));
#413 = DIRECTION('', (0., 0., 1.));
#414 = DIRECTION('', (1., 0., 0.));
#415 = AXIS2_PLACEMENT_3D('PCS', #416, #417, #418);
#416 = CARTESIAN_POINT('', (0., 0., 0.));
#417 = DIRECTION('', (0., 0., 1.));
#418 = DIRECTION('', (1., 0., 0.));
#419 = AXIS2_PLACEMENT_3D('CIP', #420, #421, #422);
#420 = CARTESIAN_POINT('', (0., 0., -121.));
#421 = DIRECTION('', (0., 0., 1.));
#422 = DIRECTION('', (1., 0., 0.));
#423 = CARTESIAN_POINT('CRP', (12.5, 0., -121.));
#424 = (
   GEOMETRIC_REPRESENTATION_CONTEXT (3)
   GLOBAL_UNCERTAINTY_ASSIGNED_CONTEXT ((#426))
   GLOBAL_UNIT_ASSIGNED_CONTEXT ((#425, #427, #428))
   REPRESENTATION_CONTEXT ('', '3D')
);
#425 = (
   LENGTH_UNIT ()
   NAMED_UNIT (*)
   SI_UNIT (.MILLI., .METRE.)
);
#426 = UNCERTAINTY_MEASURE_WITH_UNIT(LENGTH_MEASURE(1.E-6), #425, 'DISTANCE_ACCURACY_VALUE', '');
#427 = (
   NAMED_UNIT (*)
   SI_UNIT ($, .STERADIAN.)
   SOLID_ANGLE_UNIT ()
);
#428 = (
   NAMED_UNIT (*)
   PLANE_ANGLE_UNIT ()
   SI_UNIT ($, .RADIAN.)
);
#429 = SHAPE_REPRESENTATION('', (), #424);
#430 = PRODUCT_DEFINITION_SHAPE('', '', #431);
#431 = PRODUCT_DEFINITION('', '', #434, #438);
#432 = APPLICATION_CONTEXT('configuration controlled 3D designs of mechanical parts and assemblies');
#433 = APPLICATION_PROTOCOL_DEFINITION('International Standard', 'automotive_design', 2002, #432);
#434 = PRODUCT_DEFINITION_FORMATION_WITH_SPECIFIED_SOURCE('', '', #435, .NOT_KNOWN.);
#435 = PRODUCT('product-name', 'R217.16-250200AC46N 1630', '', (#436));
#436 = PRODUCT_CONTEXT('', #432, 'mechanical');
#437 = PRODUCT_RELATED_PRODUCT_CATEGORY('detail', '', (#435));
#438 = PRODUCT_DEFINITION_CONTEXT('part definition', #432, 'design');
#439 = SHAPE_DEFINITION_REPRESENTATION(#430, #429);
#440 = CONSTRUCTIVE_GEOMETRY_REPRESENTATION('supplemental geometry', (#411, #415, #419), #424);
#441 = CONSTRUCTIVE_GEOMETRY_REPRESENTATION_RELATIONSHIP('', '', #429, #440);
#442 = SHAPE_REPRESENTATION_RELATIONSHIP('', '', #429, #443);
#443 = SHAPE_REPRESENTATION('', (#385), #424);
#444 = SHAPE_REPRESENTATION_RELATIONSHIP('', '', #429, #445);
#445 = ADVANCED_BREP_SHAPE_REPRESENTATION('', (#1, #214), #424);
ENDSEC;
END-ISO-10303-21;
