ISO-10303-21;
HEADER;
FILE_DESCRIPTION(('STEP'), '1');
FILE_NAME('C:\\Users\\ds2002\\OneDrive - Sandvik\\HomeShare\\Documents\\Batchrepair\\CorSRT2\\NEW_MILTH_SLD\\Output\\MOD000000000000000020084663700000.stp', '2019-01-04T08:50:42', (''), (''), 'Express v3.0.0.0', 'Express Tool', 'Unknown');
FILE_SCHEMA(('AUTOMOTIVE_DESIGN'));
ENDSEC;

DATA;
#1 = MANIFOLD_SOLID_BREP('NOCUT', #2);
#2 = CLOSED_SHELL('', (#3, #31, #78, #87, #118, #135));
#3 = ADVANCED_FACE('', (#4, #15), #26, .T.);
#4 = FACE_OUTER_BOUND('', #5, .T.);
#5 = EDGE_LOOP('', (#6));
#6 = ORIENTED_EDGE('', *, *, #7, .T.);
#7 = EDGE_CURVE('', #8, #8, #10, .T.);
#8 = VERTEX_POINT('', #9);
#9 = CARTESIAN_POINT('', (-10., 5.20474889637625E-15, -75.));
#10 = CIRCLE('', #11, 10.);
#11 = AXIS2_PLACEMENT_3D('', #12, #13, #14);
#12 = CARTESIAN_POINT('', (-1.13797860024079E-15, -1.33226762955019E-15, -75.));
#13 = DIRECTION('', (3.16177051362712E-30, 4.83671794477991E-15, -1.));
#14 = DIRECTION('', (-1., 6.53701652592644E-16, 0.));
#15 = FACE_BOUND('', #16, .T.);
#16 = EDGE_LOOP('', (#17));
#17 = ORIENTED_EDGE('', *, *, #18, .F.);
#18 = EDGE_CURVE('', #19, #19, #21, .T.);
#19 = VERTEX_POINT('', #20);
#20 = CARTESIAN_POINT('', (-6.901925, 5.01504651476283E-15, -75.));
#21 = CIRCLE('', #22, 6.901925);
#22 = AXIS2_PLACEMENT_3D('', #23, #24, #25);
#23 = CARTESIAN_POINT('', (1.13797860024079E-15, 4.21884749357559E-15, -75.));
#24 = DIRECTION('', (2.05896973890646E-15, -6.69848037352071E-15, -1.));
#25 = DIRECTION('', (-1., 1.1535897900763E-16, -2.05896973890646E-15));
#26 = B_SPLINE_SURFACE_WITH_KNOTS('', 1, 1, ((#27, #28), (#29, #30)), .UNSPECIFIED., .F., .F., .U., (2, 2), (2, 2), (5.5553491861041, 25.5573491861041), (5.555349186104, 25.557349186104), .UNSPECIFIED.);
#27 = CARTESIAN_POINT('', (10.001, -10.001, -75.));
#28 = CARTESIAN_POINT('', (10.001, 10.001, -75.));
#29 = CARTESIAN_POINT('', (-10.001, -10.001, -75.));
#30 = CARTESIAN_POINT('', (-10.001, 10.001, -75.));
#31 = ADVANCED_FACE('', (#32), #59, .T.);
#32 = FACE_OUTER_BOUND('', #33, .T.);
#33 = EDGE_LOOP('', (#34, #44, #51, #52));
#34 = ORIENTED_EDGE('', *, *, #35, .T.);
#35 = EDGE_CURVE('', #36, #38, #40, .T.);
#36 = VERTEX_POINT('', #37);
#37 = CARTESIAN_POINT('', (-10., 6.73555739531044E-16, -1.));
#38 = VERTEX_POINT('', #39);
#39 = CARTESIAN_POINT('', (-9., 5.51091059616309E-16, 0.));
#40 = LINE('', #41, #42);
#41 = CARTESIAN_POINT('', (-10., 6.73555739531044E-16, -1.));
#42 = VECTOR('', #43, 1.4142135623731);
#43 = DIRECTION('', (1., -1.22464679914735E-16, 1.));
#44 = ORIENTED_EDGE('', *, *, #45, .T.);
#45 = EDGE_CURVE('', #38, #38, #46, .T.);
#46 = CIRCLE('', #47, 9.);
#47 = AXIS2_PLACEMENT_3D('', #48, #49, #50);
#48 = CARTESIAN_POINT('', (2.72004641033163E-15, 2.22044604925031E-16, 1.23259516440783E-32));
#49 = DIRECTION('', (3.60824844661125E-33, 6.12323399573677E-17, -1.));
#50 = DIRECTION('', (-1., 3.65607171879198E-17, -1.36955018267537E-33));
#51 = ORIENTED_EDGE('', *, *, #35, .F.);
#52 = ORIENTED_EDGE('', *, *, #53, .F.);
#53 = EDGE_CURVE('', #36, #36, #54, .T.);
#54 = CIRCLE('', #55, 10.);
#55 = AXIS2_PLACEMENT_3D('', #56, #57, #58);
#56 = CARTESIAN_POINT('', (-1.2490009027033E-15, -6.21724893790088E-15, -1.));
#57 = DIRECTION('', (5.20763728707942E-32, 7.55737178871861E-17, -1.));
#58 = DIRECTION('', (-1., 6.89080467743192E-16, 0.));
#59 = (
   BOUNDED_SURFACE ()
   B_SPLINE_SURFACE (1, 2, ((#60, #61, #62, #63, #64, #65, #66, #67, #68), (#69, #70, #71, #72, #73, #74, #75, #76, #77)), .UNSPECIFIED., .F., .T., .U.)
   B_SPLINE_SURFACE_WITH_KNOTS ((2, 2), (3, 2, 2, 2, 3), (0., 1.), (0., 0.25, 0.5, 0.75, 1.), .UNSPECIFIED.)
   GEOMETRIC_REPRESENTATION_ITEM ()
   RATIONAL_B_SPLINE_SURFACE (((1., 0.707106781186548, 1., 0.707106781186548, 1., 0.707106781186548, 1., 0.707106781186548, 1.), (1., 0.707106781186548, 1., 0.707106781186548, 1., 0.707106781186548, 1., 0.707106781186548, 1.)))
   REPRESENTATION_ITEM ('')
   SURFACE ()
);
#60 = CARTESIAN_POINT('', (-9.99999999999999, -5.38288093340217E-15, -1.));
#61 = CARTESIAN_POINT('', (-9.99999999999999, 9.99999999999999, -1.00000000000006));
#62 = CARTESIAN_POINT('', (4.57966997657877E-15, 9.99999999999999, -1.00000000000006));
#63 = CARTESIAN_POINT('', (10., 9.99999999999999, -1.00000000000006));
#64 = CARTESIAN_POINT('', (10., -5.38288093340217E-15, -1.));
#65 = CARTESIAN_POINT('', (10., -10., -0.99999999999994));
#66 = CARTESIAN_POINT('', (5.80431677572612E-15, -10., -0.99999999999994));
#67 = CARTESIAN_POINT('', (-9.99999999999999, -10., -0.99999999999994));
#68 = CARTESIAN_POINT('', (-9.99999999999999, -5.38288093340217E-15, -1.));
#69 = CARTESIAN_POINT('', (-9., 5.51091059616309E-16, 0.));
#70 = CARTESIAN_POINT('', (-9., 9., -5.39568389967826E-14));
#71 = CARTESIAN_POINT('', (4.57966997657877E-15, 9., -5.39568389967826E-14));
#72 = CARTESIAN_POINT('', (9.00000000000001, 9., -5.39568389967826E-14));
#73 = CARTESIAN_POINT('', (9.00000000000001, 5.51091059616309E-16, -6.60780701695189E-30));
#74 = CARTESIAN_POINT('', (9.00000000000001, -9., 5.39568389967826E-14));
#75 = CARTESIAN_POINT('', (5.68185209581139E-15, -9., 5.39568389967826E-14));
#76 = CARTESIAN_POINT('', (-8.99999999999999, -9., 5.39568389967826E-14));
#77 = CARTESIAN_POINT('', (-9., 5.51091059616309E-16, 0.));
#78 = ADVANCED_FACE('', (#79), #82, .T.);
#79 = FACE_OUTER_BOUND('', #80, .T.);
#80 = EDGE_LOOP('', (#81));
#81 = ORIENTED_EDGE('', *, *, #45, .F.);
#82 = B_SPLINE_SURFACE_WITH_KNOTS('', 1, 1, ((#83, #84), (#85, #86)), .UNSPECIFIED., .F., .F., .U., (2, 2), (2, 2), (4.9997142674936, 23.0017142674936), (4.9997142674936, 23.0017142674936), .UNSPECIFIED.);
#83 = CARTESIAN_POINT('', (9.001, -9.001, -7.65736914148591E-15));
#84 = CARTESIAN_POINT('', (-9.001, -9.001, -7.65736914148592E-15));
#85 = CARTESIAN_POINT('', (9.001, 9.001, 7.65736914148587E-15));
#86 = CARTESIAN_POINT('', (-9.001, 9.001, 7.65736914148586E-15));
#87 = ADVANCED_FACE('', (#88), #99, .T.);
#88 = FACE_OUTER_BOUND('', #89, .T.);
#89 = EDGE_LOOP('', (#90, #96, #97, #98));
#90 = ORIENTED_EDGE('', *, *, #91, .F.);
#91 = EDGE_CURVE('', #8, #36, #92, .T.);
#92 = LINE('', #93, #94);
#93 = CARTESIAN_POINT('', (-10., 5.20474889637625E-15, -75.));
#94 = VECTOR('', #95, 74.);
#95 = DIRECTION('', (0., -4.53119315684521E-15, 74.));
#96 = ORIENTED_EDGE('', *, *, #7, .F.);
#97 = ORIENTED_EDGE('', *, *, #91, .T.);
#98 = ORIENTED_EDGE('', *, *, #53, .T.);
#99 = (
   BOUNDED_SURFACE ()
   B_SPLINE_SURFACE (1, 2, ((#100, #101, #102, #103, #104, #105, #106, #107, #108), (#109, #110, #111, #112, #113, #114, #115, #116, #117)), .UNSPECIFIED., .F., .T., .U.)
   B_SPLINE_SURFACE_WITH_KNOTS ((2, 2), (3, 2, 2, 2, 3), (-0.510204081632653, 1.), (0., 0.25, 0.5, 0.75, 1.), .UNSPECIFIED.)
   GEOMETRIC_REPRESENTATION_ITEM ()
   RATIONAL_B_SPLINE_SURFACE (((1., 0.707106781186548, 1., 0.707106781186548, 1., 0.707106781186548, 1., 0.707106781186548, 1.), (1., 0.707106781186548, 1., 0.707106781186548, 1., 0.707106781186548, 1., 0.707106781186548, 1.)))
   REPRESENTATION_ITEM ('')
   SURFACE ()
);
#100 = CARTESIAN_POINT('', (-10., 5.55853704788174E-15, -75.));
#101 = CARTESIAN_POINT('', (-10., 10., -75.));
#102 = CARTESIAN_POINT('', (7.78856853267495E-17, 10., -75.));
#103 = CARTESIAN_POINT('', (10., 10., -75.));
#104 = CARTESIAN_POINT('', (10., -2.11344419948407E-15, -75.));
#105 = CARTESIAN_POINT('', (10., -10., -75.));
#106 = CARTESIAN_POINT('', (-6.3694487628917E-15, -10., -75.));
#107 = CARTESIAN_POINT('', (-10., -10., -75.));
#108 = CARTESIAN_POINT('', (-10., 5.55853704788174E-15, -75.));
#109 = CARTESIAN_POINT('', (-10., 6.73555739531046E-16, -1.));
#110 = CARTESIAN_POINT('', (-10., 10., -0.999999999999999));
#111 = CARTESIAN_POINT('', (-7.43679352895869E-16, 10., -0.999999999999999));
#112 = CARTESIAN_POINT('', (10., 9.99999999999999, -0.999999999999999));
#113 = CARTESIAN_POINT('', (9.99999999999999, -6.99842550783476E-15, -1.));
#114 = CARTESIAN_POINT('', (9.99999999999999, -10., -1.));
#115 = CARTESIAN_POINT('', (-7.19101380111432E-15, -10., -1.));
#116 = CARTESIAN_POINT('', (-10., -10., -1.));
#117 = CARTESIAN_POINT('', (-10., 6.73555739531046E-16, -1.));
#118 = ADVANCED_FACE('', (#119), #130, .T.);
#119 = FACE_OUTER_BOUND('', #120, .T.);
#120 = EDGE_LOOP('', (#121));
#121 = ORIENTED_EDGE('', *, *, #122, .T.);
#122 = EDGE_CURVE('', #123, #123, #125, .T.);
#123 = VERTEX_POINT('', #124);
#124 = CARTESIAN_POINT('', (-6.901925, 8.07666351263121E-15, -125.));
#125 = CIRCLE('', #126, 6.901925);
#126 = AXIS2_PLACEMENT_3D('', #127, #128, #129);
#127 = CARTESIAN_POINT('', (1.49880108324396E-15, 1.02140518265514E-14, -125.));
#128 = DIRECTION('', (0., 0., -1.));
#129 = DIRECTION('', (-1., -3.09680026068122E-16, 0.));
#130 = B_SPLINE_SURFACE_WITH_KNOTS('', 1, 1, ((#131, #132), (#133, #134)), .UNSPECIFIED., .F., .F., .U., (2, 2), (2, 2), (5.9310630785358, 19.7369130785358), (5.9310630785358, 19.7369130785358), .UNSPECIFIED.);
#131 = CARTESIAN_POINT('', (6.902925, -6.902925, -125.));
#132 = CARTESIAN_POINT('', (6.902925, 6.90292500000001, -125.));
#133 = CARTESIAN_POINT('', (-6.902925, -6.90292499999999, -125.));
#134 = CARTESIAN_POINT('', (-6.902925, 6.90292500000001, -125.));
#135 = ADVANCED_FACE('', (#136), #147, .T.);
#136 = FACE_OUTER_BOUND('', #137, .T.);
#137 = EDGE_LOOP('', (#138, #144, #145, #146));
#138 = ORIENTED_EDGE('', *, *, #139, .T.);
#139 = EDGE_CURVE('', #123, #19, #140, .T.);
#140 = LINE('', #141, #142);
#141 = CARTESIAN_POINT('', (-6.901925, 8.07666351263121E-15, -125.));
#142 = VECTOR('', #143, 50.);
#143 = DIRECTION('', (0., -3.06161699786838E-15, 50.));
#144 = ORIENTED_EDGE('', *, *, #18, .T.);
#145 = ORIENTED_EDGE('', *, *, #139, .F.);
#146 = ORIENTED_EDGE('', *, *, #122, .F.);
#147 = (
   BOUNDED_SURFACE ()
   B_SPLINE_SURFACE (1, 2, ((#148, #149, #150, #151, #152, #153, #154, #155, #156), (#157, #158, #159, #160, #161, #162, #163, #164, #165)), .UNSPECIFIED., .F., .T., .U.)
   B_SPLINE_SURFACE_WITH_KNOTS ((2, 2), (3, 2, 2, 2, 3), (0., 1.), (0., 10.8415184378139, 21.6830368756277, 32.5245553134416, 43.3660737512555), .UNSPECIFIED.)
   GEOMETRIC_REPRESENTATION_ITEM ()
   RATIONAL_B_SPLINE_SURFACE (((1., 0.707106781186548, 1., 0.707106781186548, 1., 0.707106781186548, 1., 0.707106781186548, 1.), (1., 0.707106781186548, 1., 0.707106781186548, 1., 0.707106781186548, 1., 0.707106781186548, 1.)))
   REPRESENTATION_ITEM ('')
   SURFACE ()
);
#148 = CARTESIAN_POINT('', (-6.901925, 1.03441170329636E-14, -125.));
#149 = CARTESIAN_POINT('', (-6.90192499999999, 6.90192500000001, -125.));
#150 = CARTESIAN_POINT('', (4.50915876995569E-15, 6.90192500000001, -125.));
#151 = CARTESIAN_POINT('', (6.901925, 6.901925, -125.));
#152 = CARTESIAN_POINT('', (6.901925, 1.60335524920849E-15, -125.));
#153 = CARTESIAN_POINT('', (6.901925, -6.901925, -125.));
#154 = CARTESIAN_POINT('', (-3.38636097787889E-15, -6.90192499999999, -125.));
#155 = CARTESIAN_POINT('', (-6.901925, -6.90192499999999, -125.));
#156 = CARTESIAN_POINT('', (-6.901925, 1.03441170329636E-14, -125.));
#157 = CARTESIAN_POINT('', (-6.901925, 5.01504651476283E-15, -75.));
#158 = CARTESIAN_POINT('', (-6.90192499999999, 6.90192500000001, -75.));
#159 = CARTESIAN_POINT('', (4.50915876995569E-15, 6.901925, -75.));
#160 = CARTESIAN_POINT('', (6.901925, 6.901925, -75.));
#161 = CARTESIAN_POINT('', (6.901925, -3.72571526899226E-15, -75.));
#162 = CARTESIAN_POINT('', (6.901925, -6.901925, -75.));
#163 = CARTESIAN_POINT('', (-3.38636097787889E-15, -6.901925, -75.));
#164 = CARTESIAN_POINT('', (-6.901925, -6.901925, -75.));
#165 = CARTESIAN_POINT('', (-6.901925, 5.01504651476283E-15, -75.));
#166 = DRAUGHTING_MODEL('', (#174, #341, #388, #393, #398, #403, #408, #413), #427);
#167 = PRESENTATION_STYLE_ASSIGNMENT((#168));
#168 = SURFACE_STYLE_USAGE(.POSITIVE., #169);
#169 = SURFACE_SIDE_STYLE('', (#170));
#170 = SURFACE_STYLE_FILL_AREA(#171);
#171 = FILL_AREA_STYLE('', (#172));
#172 = FILL_AREA_STYLE_COLOUR('', #173);
#173 = COLOUR_RGB('', 0.50196078431373, 0.50196078431373, 0.50196078431373);
#174 = STYLED_ITEM('', (#167), #1);
#175 = MANIFOLD_SOLID_BREP('CUT', #176);
#176 = CLOSED_SHELL('', (#177, #205, #244, #264, #303));
#177 = ADVANCED_FACE('', (#178, #189), #200, .T.);
#178 = FACE_OUTER_BOUND('', #179, .T.);
#179 = EDGE_LOOP('', (#180));
#180 = ORIENTED_EDGE('', *, *, #181, .T.);
#181 = EDGE_CURVE('', #182, #182, #184, .T.);
#182 = VERTEX_POINT('', #183);
#183 = CARTESIAN_POINT('', (-8.25, 8.15920929931924E-15, -125.));
#184 = CIRCLE('', #185, 8.25);
#185 = AXIS2_PLACEMENT_3D('', #186, #187, #188);
#186 = CARTESIAN_POINT('', (-2.05391259555654E-15, 7.99360577730113E-15, -125.));
#187 = DIRECTION('', (0., 0., -1.));
#188 = DIRECTION('', (-1., 2.00731541840141E-17, 0.));
#189 = FACE_BOUND('', #190, .T.);
#190 = EDGE_LOOP('', (#191));
#191 = ORIENTED_EDGE('', *, *, #192, .F.);
#192 = EDGE_CURVE('', #193, #193, #195, .T.);
#193 = VERTEX_POINT('', #194);
#194 = CARTESIAN_POINT('', (-6.901925, 8.07666351263121E-15, -125.));
#195 = CIRCLE('', #196, 6.901925);
#196 = AXIS2_PLACEMENT_3D('', #197, #198, #199);
#197 = CARTESIAN_POINT('', (1.49880108324396E-15, 1.02140518265514E-14, -125.));
#198 = DIRECTION('', (0., 0., -1.));
#199 = DIRECTION('', (-1., -3.09680026068122E-16, 0.));
#200 = B_SPLINE_SURFACE_WITH_KNOTS('', 1, 1, ((#201, #202), (#203, #204)), .UNSPECIFIED., .F., .F., .U., (2, 2), (2, 2), (4.5829880785358, 21.0849880785358), (4.58298807853581, 21.0849880785358), .UNSPECIFIED.);
#201 = CARTESIAN_POINT('', (8.251, -8.25099999999999, -125.));
#202 = CARTESIAN_POINT('', (8.251, 8.25100000000001, -125.));
#203 = CARTESIAN_POINT('', (-8.251, -8.25099999999999, -125.));
#204 = CARTESIAN_POINT('', (-8.251, 8.25100000000001, -125.));
#205 = ADVANCED_FACE('', (#206), #225, .T.);
#206 = FACE_OUTER_BOUND('', #207, .T.);
#207 = EDGE_LOOP('', (#208, #216, #217, #218));
#208 = ORIENTED_EDGE('', *, *, #209, .F.);
#209 = EDGE_CURVE('', #193, #210, #212, .T.);
#210 = VERTEX_POINT('', #211);
#211 = CARTESIAN_POINT('', (-6.901925, 5.01504651476283E-15, -75.));
#212 = LINE('', #213, #214);
#213 = CARTESIAN_POINT('', (-6.901925, 8.07666351263121E-15, -125.));
#214 = VECTOR('', #215, 50.);
#215 = DIRECTION('', (0., -3.06161699786838E-15, 50.));
#216 = ORIENTED_EDGE('', *, *, #192, .T.);
#217 = ORIENTED_EDGE('', *, *, #209, .T.);
#218 = ORIENTED_EDGE('', *, *, #219, .F.);
#219 = EDGE_CURVE('', #210, #210, #220, .T.);
#220 = CIRCLE('', #221, 6.901925);
#221 = AXIS2_PLACEMENT_3D('', #222, #223, #224);
#222 = CARTESIAN_POINT('', (1.13797860024079E-15, 4.21884749357559E-15, -75.));
#223 = DIRECTION('', (2.05896973890646E-15, -6.69848037352071E-15, -1.));
#224 = DIRECTION('', (-1., 1.1535897900763E-16, -2.05896973890646E-15));
#225 = (
   BOUNDED_SURFACE ()
   B_SPLINE_SURFACE (2, 1, ((#226, #227), (#228, #229), (#230, #231), (#232, #233), (#234, #235), (#236, #237), (#238, #239), (#240, #241), (#242, #243)), .UNSPECIFIED., .T., .F., .U.)
   B_SPLINE_SURFACE_WITH_KNOTS ((3, 2, 2, 2, 3), (2, 2), (0., 10.8415184378139, 21.6830368756277, 32.5245553134416, 43.3660737512555), (0., 1.), .UNSPECIFIED.)
   GEOMETRIC_REPRESENTATION_ITEM ()
   RATIONAL_B_SPLINE_SURFACE (((1., 1.), (0.707106781186548, 0.707106781186548), (1., 1.), (0.707106781186548, 0.707106781186548), (1., 1.), (0.707106781186548, 0.707106781186548), (1., 1.), (0.707106781186548, 0.707106781186548), (1., 1.)))
   REPRESENTATION_ITEM ('')
   SURFACE ()
);
#226 = CARTESIAN_POINT('', (-6.901925, 1.03441170329636E-14, -125.));
#227 = CARTESIAN_POINT('', (-6.901925, 5.01504651476283E-15, -75.));
#228 = CARTESIAN_POINT('', (-6.90192499999999, 6.90192500000001, -125.));
#229 = CARTESIAN_POINT('', (-6.90192499999999, 6.90192500000001, -75.));
#230 = CARTESIAN_POINT('', (4.50915876995569E-15, 6.90192500000001, -125.));
#231 = CARTESIAN_POINT('', (4.50915876995569E-15, 6.901925, -75.));
#232 = CARTESIAN_POINT('', (6.901925, 6.901925, -125.));
#233 = CARTESIAN_POINT('', (6.901925, 6.901925, -75.));
#234 = CARTESIAN_POINT('', (6.901925, 1.60335524920849E-15, -125.));
#235 = CARTESIAN_POINT('', (6.901925, -3.72571526899226E-15, -75.));
#236 = CARTESIAN_POINT('', (6.901925, -6.901925, -125.));
#237 = CARTESIAN_POINT('', (6.901925, -6.901925, -75.));
#238 = CARTESIAN_POINT('', (-3.38636097787889E-15, -6.90192499999999, -125.));
#239 = CARTESIAN_POINT('', (-3.38636097787889E-15, -6.901925, -75.));
#240 = CARTESIAN_POINT('', (-6.901925, -6.90192499999999, -125.));
#241 = CARTESIAN_POINT('', (-6.901925, -6.901925, -75.));
#242 = CARTESIAN_POINT('', (-6.901925, 1.03441170329636E-14, -125.));
#243 = CARTESIAN_POINT('', (-6.901925, 5.01504651476283E-15, -75.));
#244 = ADVANCED_FACE('', (#245, #256), #259, .T.);
#245 = FACE_OUTER_BOUND('', #246, .T.);
#246 = EDGE_LOOP('', (#247));
#247 = ORIENTED_EDGE('', *, *, #248, .F.);
#248 = EDGE_CURVE('', #249, #249, #251, .T.);
#249 = VERTEX_POINT('', #250);
#250 = CARTESIAN_POINT('', (-9.5, 5.17413272639757E-15, -75.));
#251 = CIRCLE('', #252, 9.5);
#252 = AXIS2_PLACEMENT_3D('', #253, #254, #255);
#253 = CARTESIAN_POINT('', (-1.97064586870965E-15, 7.32747196252603E-15, -75.));
#254 = DIRECTION('', (-1.15402709413643E-30, 5.09128204713678E-15, -1.));
#255 = DIRECTION('', (-1., -2.26667288013522E-16, 0.));
#256 = FACE_BOUND('', #257, .T.);
#257 = EDGE_LOOP('', (#258));
#258 = ORIENTED_EDGE('', *, *, #219, .T.);
#259 = B_SPLINE_SURFACE_WITH_KNOTS('', 1, 1, ((#260, #261), (#262, #263)), .UNSPECIFIED., .F., .F., .U., (2, 2), (2, 2), (5.2775317267988, 24.2795317267988), (5.2775317267988, 24.2795317267988), .UNSPECIFIED.);
#260 = CARTESIAN_POINT('', (9.501, -9.501, -75.));
#261 = CARTESIAN_POINT('', (-9.501, -9.50099999999999, -75.));
#262 = CARTESIAN_POINT('', (9.501, 9.50100000000001, -75.));
#263 = CARTESIAN_POINT('', (-9.501, 9.50100000000002, -75.));
#264 = ADVANCED_FACE('', (#265), #284, .T.);
#265 = FACE_OUTER_BOUND('', #266, .T.);
#266 = EDGE_LOOP('', (#267, #275, #276, #277));
#267 = ORIENTED_EDGE('', *, *, #268, .F.);
#268 = EDGE_CURVE('', #249, #269, #271, .T.);
#269 = VERTEX_POINT('', #270);
#270 = CARTESIAN_POINT('', (-9.5, 8.15920929931924E-15, -123.75));
#271 = LINE('', #272, #273);
#272 = CARTESIAN_POINT('', (-9.5, 5.17413272639757E-15, -75.));
#273 = VECTOR('', #274, 48.75);
#274 = DIRECTION('', (0., 2.98507657292167E-15, -48.75));
#275 = ORIENTED_EDGE('', *, *, #248, .T.);
#276 = ORIENTED_EDGE('', *, *, #268, .T.);
#277 = ORIENTED_EDGE('', *, *, #278, .F.);
#278 = EDGE_CURVE('', #269, #269, #279, .T.);
#279 = CIRCLE('', #280, 9.5);
#280 = AXIS2_PLACEMENT_3D('', #281, #282, #283);
#281 = CARTESIAN_POINT('', (-1.36002320516582E-15, 6.43929354282591E-15, -123.75));
#282 = DIRECTION('', (9.21744864591807E-31, 5.09128204713676E-15, -1.));
#283 = DIRECTION('', (-1., 1.81043763841404E-16, 0.));
#284 = (
   BOUNDED_SURFACE ()
   B_SPLINE_SURFACE (2, 1, ((#285, #286), (#287, #288), (#289, #290), (#291, #292), (#293, #294), (#295, #296), (#297, #298), (#299, #300), (#301, #302)), .UNSPECIFIED., .T., .F., .U.)
   B_SPLINE_SURFACE_WITH_KNOTS ((3, 2, 2, 2, 3), (2, 2), (0., 14.9225651045515, 29.8451302091031, 44.7676953136546, 59.6902604182061), (0., 1.), .UNSPECIFIED.)
   GEOMETRIC_REPRESENTATION_ITEM ()
   RATIONAL_B_SPLINE_SURFACE (((1., 1.), (0.707106781186548, 0.707106781186548), (1., 1.), (0.707106781186548, 0.707106781186548), (1., 1.), (0.707106781186548, 0.707106781186548), (1., 1.), (0.707106781186548, 0.707106781186548), (1., 1.)))
   REPRESENTATION_ITEM ('')
   SURFACE ()
);
#285 = CARTESIAN_POINT('', (-9.5, 5.17413272639757E-15, -75.));
#286 = CARTESIAN_POINT('', (-9.5, 8.06071259042298E-15, -123.75));
#287 = CARTESIAN_POINT('', (-9.5, 9.5, -75.));
#288 = CARTESIAN_POINT('', (-9.5, 9.50000000000001, -123.75));
#289 = CARTESIAN_POINT('', (3.64873592587119E-15, 9.5, -75.));
#290 = CARTESIAN_POINT('', (3.64873592587119E-15, 9.50000000000001, -123.75));
#291 = CARTESIAN_POINT('', (9.5, 9.5, -75.));
#292 = CARTESIAN_POINT('', (9.5, 9.50000000000001, -123.75));
#293 = CARTESIAN_POINT('', (9.5, 4.42697671994361E-15, -75.));
#294 = CARTESIAN_POINT('', (9.5, 7.31355658396901E-15, -123.75));
#295 = CARTESIAN_POINT('', (9.5, -9.5, -75.));
#296 = CARTESIAN_POINT('', (9.5, -9.49999999999999, -123.75));
#297 = CARTESIAN_POINT('', (4.06499437860722E-15, -9.5, -75.));
#298 = CARTESIAN_POINT('', (4.06499437860722E-15, -9.49999999999999, -123.75));
#299 = CARTESIAN_POINT('', (-9.5, -9.5, -75.));
#300 = CARTESIAN_POINT('', (-9.5, -9.49999999999999, -123.75));
#301 = CARTESIAN_POINT('', (-9.5, 5.17413272639757E-15, -75.));
#302 = CARTESIAN_POINT('', (-9.5, 8.06071259042298E-15, -123.75));
#303 = ADVANCED_FACE('', (#304), #315, .T.);
#304 = FACE_OUTER_BOUND('', #305, .T.);
#305 = EDGE_LOOP('', (#306, #312, #313, #314));
#306 = ORIENTED_EDGE('', *, *, #307, .F.);
#307 = EDGE_CURVE('', #269, #182, #308, .T.);
#308 = LINE('', #309, #310);
#309 = CARTESIAN_POINT('', (-9.5, 8.15920929931924E-15, -123.75));
#310 = VECTOR('', #311, 1.76776695296637);
#311 = DIRECTION('', (1.25, 0., -1.25));
#312 = ORIENTED_EDGE('', *, *, #278, .T.);
#313 = ORIENTED_EDGE('', *, *, #307, .T.);
#314 = ORIENTED_EDGE('', *, *, #181, .F.);
#315 = (
   BOUNDED_SURFACE ()
   B_SPLINE_SURFACE (2, 1, ((#316, #317), (#318, #319), (#320, #321), (#322, #323), (#324, #325), (#326, #327), (#328, #329), (#330, #331), (#332, #333)), .UNSPECIFIED., .T., .F., .U.)
   B_SPLINE_SURFACE_WITH_KNOTS ((3, 2, 2, 2, 3), (2, 2), (0., 0.25, 0.5, 0.75, 1.), (0., 1.), .UNSPECIFIED.)
   GEOMETRIC_REPRESENTATION_ITEM ()
   RATIONAL_B_SPLINE_SURFACE (((1., 1.), (0.707106781186548, 0.707106781186548), (1., 1.), (0.707106781186548, 0.707106781186548), (1., 1.), (0.707106781186548, 0.707106781186548), (1., 1.), (0.707106781186548, 0.707106781186548), (1., 1.)))
   REPRESENTATION_ITEM ('')
   SURFACE ()
);
#316 = CARTESIAN_POINT('', (-9.5, 8.15920929931924E-15, -123.75));
#317 = CARTESIAN_POINT('', (-8.25, 1.27360799957905E-14, -125.));
#318 = CARTESIAN_POINT('', (-9.5, 9.50000000000001, -123.75));
#319 = CARTESIAN_POINT('', (-8.25, 8.25000000000001, -125.));
#320 = CARTESIAN_POINT('', (2.80354306383608E-15, 9.5, -123.75));
#321 = CARTESIAN_POINT('', (2.12788366705333E-15, 8.25000000000001, -125.));
#322 = CARTESIAN_POINT('', (9.5, 9.5, -123.75));
#323 = CARTESIAN_POINT('', (8.25, 8.25, -125.));
#324 = CARTESIAN_POINT('', (9.5, -2.11081353177857E-15, -123.75));
#325 = CARTESIAN_POINT('', (8.25, 3.81737595825822E-15, -125.));
#326 = CARTESIAN_POINT('', (9.49999999999999, -9.5, -123.75));
#327 = CARTESIAN_POINT('', (8.24999999999999, -8.25, -125.));
#328 = CARTESIAN_POINT('', (-6.30306530807175E-15, -9.5, -123.75));
#329 = CARTESIAN_POINT('', (-5.78048676118241E-15, -8.24999999999999, -125.));
#330 = CARTESIAN_POINT('', (-9.50000000000001, -9.49999999999999, -123.75));
#331 = CARTESIAN_POINT('', (-8.25000000000001, -8.24999999999999, -125.));
#332 = CARTESIAN_POINT('', (-9.5, 8.15920929931924E-15, -123.75));
#333 = CARTESIAN_POINT('', (-8.25, 1.27360799957905E-14, -125.));
#334 = PRESENTATION_STYLE_ASSIGNMENT((#335));
#335 = SURFACE_STYLE_USAGE(.POSITIVE., #336);
#336 = SURFACE_SIDE_STYLE('', (#337));
#337 = SURFACE_STYLE_FILL_AREA(#338);
#338 = FILL_AREA_STYLE('', (#339));
#339 = FILL_AREA_STYLE_COLOUR('', #340);
#340 = COLOUR_RGB('', 0.8, 0.8, 0.8);
#341 = STYLED_ITEM('', (#334), #175);
#342 = TRIMMED_CURVE('cutting part line', #343, (#347), (#348), .T., .CARTESIAN.);
#343 = LINE('', #344, #345);
#344 = CARTESIAN_POINT('', (6.901925, -5.86028855068334E-15, -75.));
#345 = VECTOR('', #346, 2.598075);
#346 = DIRECTION('', (2.598075, -4.77258634904216E-16, 0.));
#347 = CARTESIAN_POINT('', (6.901925, -5.86028855068334E-15, -75.));
#348 = CARTESIAN_POINT('', (9.5, -6.33754718558756E-15, -75.));
#349 = TRIMMED_CURVE('cutting part line', #350, (#354), (#355), .T., .CARTESIAN.);
#350 = LINE('', #351, #352);
#351 = CARTESIAN_POINT('', (9.5, -6.33754718558756E-15, -75.));
#352 = VECTOR('', #353, 48.75);
#353 = DIRECTION('', (0., -2.98507657292167E-15, -48.75));
#354 = CARTESIAN_POINT('', (9.5, -6.33754718558756E-15, -75.));
#355 = CARTESIAN_POINT('', (9.5, -9.32262375850923E-15, -123.75));
#356 = TRIMMED_CURVE('cutting part line', #357, (#361), (#362), .T., .CARTESIAN.);
#357 = LINE('', #358, #359);
#358 = CARTESIAN_POINT('', (9.5, -9.32262375850923E-15, -123.75));
#359 = VECTOR('', #360, 1.76776695296637);
#360 = DIRECTION('', (-1.25, 1.53080849893419E-16, -1.25));
#361 = CARTESIAN_POINT('', (9.5, -9.32262375850923E-15, -123.75));
#362 = CARTESIAN_POINT('', (8.25, -9.16954290861581E-15, -125.));
#363 = TRIMMED_CURVE('cutting part line', #364, (#368), (#369), .T., .CARTESIAN.);
#364 = LINE('', #365, #366);
#365 = CARTESIAN_POINT('', (8.25, -9.16954290861581E-15, -125.));
#366 = VECTOR('', #367, 1.348075);
#367 = DIRECTION('', (-1.348075, 2.47637360064087E-16, 0.));
#368 = CARTESIAN_POINT('', (8.25, -9.16954290861581E-15, -125.));
#369 = CARTESIAN_POINT('', (6.901925, -8.92190554855172E-15, -125.));
#370 = TRIMMED_CURVE('cutting part line', #371, (#375), (#376), .T., .CARTESIAN.);
#371 = LINE('', #372, #373);
#372 = CARTESIAN_POINT('', (6.901925, -8.92190554855172E-15, -125.));
#373 = VECTOR('', #374, 50.);
#374 = DIRECTION('', (0., 3.06161699786838E-15, 50.));
#375 = CARTESIAN_POINT('', (6.901925, -8.92190554855172E-15, -125.));
#376 = CARTESIAN_POINT('', (6.901925, -5.86028855068334E-15, -75.));
#377 = COMPOSITE_CURVE('cutting part line', (#378, #379, #380, #381, #382), .U.);
#378 = COMPOSITE_CURVE_SEGMENT(.CONTINUOUS., .T., #342);
#379 = COMPOSITE_CURVE_SEGMENT(.CONTINUOUS., .T., #349);
#380 = COMPOSITE_CURVE_SEGMENT(.CONTINUOUS., .T., #356);
#381 = COMPOSITE_CURVE_SEGMENT(.CONTINUOUS., .T., #363);
#382 = COMPOSITE_CURVE_SEGMENT(.CONTINUOUS., .T., #370);
#383 = GEOMETRIC_SET('', (#377, #426));
#384 = PRESENTATION_STYLE_ASSIGNMENT((#385));
#385 = CURVE_STYLE('', #387, POSITIVE_LENGTH_MEASURE(1.E-6), #386);
#386 = COLOUR_RGB('', 0., 0., 1.);
#387 = DRAUGHTING_PRE_DEFINED_CURVE_FONT('continuous');
#388 = STYLED_ITEM('', (#384), #377);
#389 = PRESENTATION_STYLE_ASSIGNMENT((#390));
#390 = CURVE_STYLE('', #392, POSITIVE_LENGTH_MEASURE(1.E-6), #391);
#391 = COLOUR_RGB('', 0., 0., 1.);
#392 = DRAUGHTING_PRE_DEFINED_CURVE_FONT('continuous');
#393 = OVER_RIDING_STYLED_ITEM('', (#389), #342, #388);
#394 = PRESENTATION_STYLE_ASSIGNMENT((#395));
#395 = CURVE_STYLE('', #397, POSITIVE_LENGTH_MEASURE(1.E-6), #396);
#396 = COLOUR_RGB('', 0., 0., 1.);
#397 = DRAUGHTING_PRE_DEFINED_CURVE_FONT('continuous');
#398 = OVER_RIDING_STYLED_ITEM('', (#394), #349, #388);
#399 = PRESENTATION_STYLE_ASSIGNMENT((#400));
#400 = CURVE_STYLE('', #402, POSITIVE_LENGTH_MEASURE(1.E-6), #401);
#401 = COLOUR_RGB('', 0., 0., 1.);
#402 = DRAUGHTING_PRE_DEFINED_CURVE_FONT('continuous');
#403 = OVER_RIDING_STYLED_ITEM('', (#399), #356, #388);
#404 = PRESENTATION_STYLE_ASSIGNMENT((#405));
#405 = CURVE_STYLE('', #407, POSITIVE_LENGTH_MEASURE(1.E-6), #406);
#406 = COLOUR_RGB('', 0., 0., 1.);
#407 = DRAUGHTING_PRE_DEFINED_CURVE_FONT('continuous');
#408 = OVER_RIDING_STYLED_ITEM('', (#404), #363, #388);
#409 = PRESENTATION_STYLE_ASSIGNMENT((#410));
#410 = CURVE_STYLE('', #412, POSITIVE_LENGTH_MEASURE(1.E-6), #411);
#411 = COLOUR_RGB('', 0., 0., 1.);
#412 = DRAUGHTING_PRE_DEFINED_CURVE_FONT('continuous');
#413 = OVER_RIDING_STYLED_ITEM('', (#409), #370, #388);
#414 = AXIS2_PLACEMENT_3D('CIP', #415, #416, #417);
#415 = CARTESIAN_POINT('', (4.6867493208183E-31, 7.65404249467096E-15, -125.));
#416 = DIRECTION('', (-3.74939945665465E-33, -6.12323399573677E-17, 1.));
#417 = DIRECTION('', (1., -6.12323399573677E-17, 0.));
#418 = AXIS2_PLACEMENT_3D('MCS', #419, #420, #421);
#419 = CARTESIAN_POINT('', (1.87469972832732E-31, 3.06161699786838E-15, -50.));
#420 = DIRECTION('', (-3.74939945665465E-33, -6.12323399573677E-17, 1.));
#421 = DIRECTION('', (1., -6.12323399573677E-17, 0.));
#422 = AXIS2_PLACEMENT_3D('PCS', #423, #424, #425);
#423 = CARTESIAN_POINT('', (0., 0., 0.));
#424 = DIRECTION('', (0., 0., 1.));
#425 = DIRECTION('', (1., 0., 0.));
#426 = CARTESIAN_POINT('CRP', (9.5, 0., -125.));
#427 = (
   GEOMETRIC_REPRESENTATION_CONTEXT (3)
   GLOBAL_UNCERTAINTY_ASSIGNED_CONTEXT ((#429))
   GLOBAL_UNIT_ASSIGNED_CONTEXT ((#428, #430, #431))
   REPRESENTATION_CONTEXT ('', '3D')
);
#428 = (
   LENGTH_UNIT ()
   NAMED_UNIT (*)
   SI_UNIT (.MILLI., .METRE.)
);
#429 = UNCERTAINTY_MEASURE_WITH_UNIT(LENGTH_MEASURE(1.E-6), #428, 'DISTANCE_ACCURACY_VALUE', '');
#430 = (
   NAMED_UNIT (*)
   SI_UNIT ($, .STERADIAN.)
   SOLID_ANGLE_UNIT ()
);
#431 = (
   NAMED_UNIT (*)
   PLANE_ANGLE_UNIT ()
   SI_UNIT ($, .RADIAN.)
);
#432 = SHAPE_REPRESENTATION('', (), #427);
#433 = PRODUCT_DEFINITION_SHAPE('', '', #434);
#434 = PRODUCT_DEFINITION('', '', #437, #441);
#435 = APPLICATION_CONTEXT('configuration controlled 3D designs of mechanical parts and assemblies');
#436 = APPLICATION_PROTOCOL_DEFINITION('International Standard', 'automotive_design', 2002, #435);
#437 = PRODUCT_DEFINITION_FORMATION_WITH_SPECIFIED_SOURCE('', '', #438, .NOT_KNOWN.);
#438 = PRODUCT('NONE', 'R217.15C190300AK50N 1630', '', (#439));
#439 = PRODUCT_CONTEXT('', #435, 'mechanical');
#440 = PRODUCT_RELATED_PRODUCT_CATEGORY('detail', '', (#438));
#441 = PRODUCT_DEFINITION_CONTEXT('part definition', #435, 'design');
#442 = SHAPE_DEFINITION_REPRESENTATION(#433, #432);
#443 = CONSTRUCTIVE_GEOMETRY_REPRESENTATION('supplemental geometry', (#414, #418, #422), #427);
#444 = CONSTRUCTIVE_GEOMETRY_REPRESENTATION_RELATIONSHIP('', '', #432, #443);
#445 = SHAPE_REPRESENTATION_RELATIONSHIP('', '', #432, #446);
#446 = SHAPE_REPRESENTATION('', (#383), #427);
#447 = SHAPE_REPRESENTATION_RELATIONSHIP('', '', #432, #448);
#448 = ADVANCED_BREP_SHAPE_REPRESENTATION('', (#1, #175), #427);
ENDSEC;
END-ISO-10303-21;
