ISO-10303-21;
HEADER;
FILE_DESCRIPTION(('STEP'), '1');
FILE_NAME('C:\\Users\\ds2002\\OneDrive - Sandvik\\HomeShare\\Documents\\Batchrepair\\CorSRT2\\NEW_MILTH_SLD\\Output\\MOD000000000000000020084663600000.stp', '2019-01-04T08:50:52', (''), (''), 'Express v3.0.0.0', 'Express Tool', 'Unknown');
FILE_SCHEMA(('AUTOMOTIVE_DESIGN'));
ENDSEC;

DATA;
#1 = MANIFOLD_SOLID_BREP('NOCUT', #2);
#2 = CLOSED_SHELL('', (#3, #50, #59, #98, #115, #135));
#3 = ADVANCED_FACE('', (#4), #31, .T.);
#4 = FACE_OUTER_BOUND('', #5, .T.);
#5 = EDGE_LOOP('', (#6, #16, #23, #24));
#6 = ORIENTED_EDGE('', *, *, #7, .T.);
#7 = EDGE_CURVE('', #8, #10, #12, .T.);
#8 = VERTEX_POINT('', #9);
#9 = CARTESIAN_POINT('', (-8., 5.38844591624835E-16, -0.799999999999997));
#10 = VERTEX_POINT('', #11);
#11 = CARTESIAN_POINT('', (-7.2, 4.40872847693047E-16, 0.));
#12 = LINE('', #13, #14);
#13 = CARTESIAN_POINT('', (-8., 5.38844591624835E-16, -0.799999999999997));
#14 = VECTOR('', #15, 1.13137084989847);
#15 = DIRECTION('', (0.8, -9.7971743931788E-17, 0.799999999999997));
#16 = ORIENTED_EDGE('', *, *, #17, .T.);
#17 = EDGE_CURVE('', #10, #10, #18, .T.);
#18 = CIRCLE('', #19, 7.2);
#19 = AXIS2_PLACEMENT_3D('', #20, #21, #22);
#20 = CARTESIAN_POINT('', (-1.11022302462516E-15, -2.22044604925031E-16, -1.23259516440783E-32));
#21 = DIRECTION('', (3.9258382192089E-33, 6.12323399573677E-17, -1.));
#22 = DIRECTION('', (-1., 9.20718684191776E-17, 1.71193772834421E-33));
#23 = ORIENTED_EDGE('', *, *, #7, .F.);
#24 = ORIENTED_EDGE('', *, *, #25, .F.);
#25 = EDGE_CURVE('', #8, #8, #26, .T.);
#26 = CIRCLE('', #27, 8.);
#27 = AXIS2_PLACEMENT_3D('', #28, #29, #30);
#28 = CARTESIAN_POINT('', (1.11022302462516E-16, 2.22044604925031E-16, -0.799999999999997));
#29 = DIRECTION('', (1.38777878078145E-17, -4.51488370625117E-17, -1.));
#30 = DIRECTION('', (-1., 3.95999983374755E-17, -1.38777878078145E-17));
#31 = (
   BOUNDED_SURFACE ()
   B_SPLINE_SURFACE (1, 2, ((#32, #33, #34, #35, #36, #37, #38, #39, #40), (#41, #42, #43, #44, #45, #46, #47, #48, #49)), .UNSPECIFIED., .F., .T., .U.)
   B_SPLINE_SURFACE_WITH_KNOTS ((2, 2), (3, 2, 2, 2, 3), (0., 1.), (0., 0.25, 0.5, 0.75, 1.), .UNSPECIFIED.)
   GEOMETRIC_REPRESENTATION_ITEM ()
   RATIONAL_B_SPLINE_SURFACE (((1., 0.707106781186548, 1., 0.707106781186548, 1., 0.707106781186548, 1., 0.707106781186548, 1.), (1., 0.707106781186548, 1., 0.707106781186548, 1., 0.707106781186548, 1., 0.707106781186548, 1.)))
   REPRESENTATION_ITEM ('')
   SURFACE ()
);
#32 = CARTESIAN_POINT('', (-8., -4.09906311545837E-15, -0.799999999999997));
#33 = CARTESIAN_POINT('', (-8., 7.99999999999999, -0.800000000000044));
#34 = CARTESIAN_POINT('', (6.56881956236551E-16, 7.99999999999999, -0.800000000000044));
#35 = CARTESIAN_POINT('', (8., 7.99999999999999, -0.800000000000044));
#36 = CARTESIAN_POINT('', (8., -5.57936048162525E-15, -0.799999999999997));
#37 = CARTESIAN_POINT('', (8., -8.00000000000001, -0.799999999999951));
#38 = CARTESIAN_POINT('', (1.56302029387557E-16, -8.00000000000001, -0.799999999999951));
#39 = CARTESIAN_POINT('', (-8., -8.00000000000001, -0.799999999999951));
#40 = CARTESIAN_POINT('', (-8., -4.09906311545837E-15, -0.799999999999997));
#41 = CARTESIAN_POINT('', (-7.2, 4.40872847693047E-16, 0.));
#42 = CARTESIAN_POINT('', (-7.2, 7.2, -4.19664303308311E-14));
#43 = CARTESIAN_POINT('', (5.82867087928207E-16, 7.2, -4.19664303308311E-14));
#44 = CARTESIAN_POINT('', (7.2, 7.2, -4.19664303308311E-14));
#45 = CARTESIAN_POINT('', (7.2, -8.9139478185714E-16, -5.23801307078189E-30));
#46 = CARTESIAN_POINT('', (7.2, -7.2, 4.19664303308311E-14));
#47 = CARTESIAN_POINT('', (1.32345153764114E-16, -7.2, 4.19664303308311E-14));
#48 = CARTESIAN_POINT('', (-7.2, -7.2, 4.19664303308311E-14));
#49 = CARTESIAN_POINT('', (-7.2, 4.40872847693047E-16, 0.));
#50 = ADVANCED_FACE('', (#51), #54, .T.);
#51 = FACE_OUTER_BOUND('', #52, .T.);
#52 = EDGE_LOOP('', (#53));
#53 = ORIENTED_EDGE('', *, *, #17, .F.);
#54 = B_SPLINE_SURFACE_WITH_KNOTS('', 1, 1, ((#55, #56), (#57, #58)), .UNSPECIFIED., .F., .F., .U., (2, 2), (2, 2), (3.9995714139949, 18.4015714139949), (3.9995714139949, 18.4015714139949), .UNSPECIFIED.);
#55 = CARTESIAN_POINT('', (7.201, -7.201, 1.37718943649906E-14));
#56 = CARTESIAN_POINT('', (-7.201, -7.201, -1.46537625250565E-14));
#57 = CARTESIAN_POINT('', (7.201, 7.201, 1.46537625250566E-14));
#58 = CARTESIAN_POINT('', (-7.201, 7.201, -1.37718943649905E-14));
#59 = ADVANCED_FACE('', (#60), #79, .T.);
#60 = FACE_OUTER_BOUND('', #61, .T.);
#61 = EDGE_LOOP('', (#62, #70, #77, #78));
#62 = ORIENTED_EDGE('', *, *, #63, .F.);
#63 = EDGE_CURVE('', #64, #8, #66, .T.);
#64 = VERTEX_POINT('', #65);
#65 = CARTESIAN_POINT('', (-8., 4.31687996699442E-15, -62.5));
#66 = LINE('', #67, #68);
#67 = CARTESIAN_POINT('', (-8., 4.31687996699442E-15, -62.5));
#68 = VECTOR('', #69, 61.7);
#69 = DIRECTION('', (0., -3.77803537536959E-15, 61.7));
#70 = ORIENTED_EDGE('', *, *, #71, .F.);
#71 = EDGE_CURVE('', #64, #64, #72, .T.);
#72 = CIRCLE('', #73, 8.);
#73 = AXIS2_PLACEMENT_3D('', #74, #75, #76);
#74 = CARTESIAN_POINT('', (8.32667268468867E-17, 3.77475828372553E-15, -62.5));
#75 = DIRECTION('', (0., 0., -1.));
#76 = DIRECTION('', (-1., 6.77652104086111E-17, 0.));
#77 = ORIENTED_EDGE('', *, *, #63, .T.);
#78 = ORIENTED_EDGE('', *, *, #25, .T.);
#79 = (
   BOUNDED_SURFACE ()
   B_SPLINE_SURFACE (1, 2, ((#80, #81, #82, #83, #84, #85, #86, #87, #88), (#89, #90, #91, #92, #93, #94, #95, #96, #97)), .UNSPECIFIED., .F., .T., .U.)
   B_SPLINE_SURFACE_WITH_KNOTS ((2, 2), (3, 2, 2, 2, 3), (-0.307203389830508, 1.), (0., 0.25, 0.5, 0.75, 1.), .UNSPECIFIED.)
   GEOMETRIC_REPRESENTATION_ITEM ()
   RATIONAL_B_SPLINE_SURFACE (((1., 0.707106781186548, 1., 0.707106781186548, 1., 0.707106781186548, 1., 0.707106781186548, 1.), (1., 0.707106781186548, 1., 0.707106781186548, 1., 0.707106781186548, 1., 0.707106781186548, 1.)))
   REPRESENTATION_ITEM ('')
   SURFACE ()
);
#80 = CARTESIAN_POINT('', (-8., 6.53404892460068E-15, -62.5));
#81 = CARTESIAN_POINT('', (-7.99999999999999, 8.00000000000001, -62.5));
#82 = CARTESIAN_POINT('', (3.96668537011192E-15, 8., -62.5));
#83 = CARTESIAN_POINT('', (8., 8., -62.5));
#84 = CARTESIAN_POINT('', (8., -6.69350176932107E-16, -62.5));
#85 = CARTESIAN_POINT('', (8., -8., -62.5));
#86 = CARTESIAN_POINT('', (-2.25699629210299E-15, -8., -62.5));
#87 = CARTESIAN_POINT('', (-8., -7.99999999999999, -62.5));
#88 = CARTESIAN_POINT('', (-8., 6.53404892460068E-15, -62.5));
#89 = CARTESIAN_POINT('', (-8., 5.38844591624834E-16, -0.799999999999997));
#90 = CARTESIAN_POINT('', (-7.99999999999999, 8., -0.799999999999996));
#91 = CARTESIAN_POINT('', (4.82294487785407E-15, 8., -0.799999999999996));
#92 = CARTESIAN_POINT('', (8.00000000000001, 7.99999999999999, -0.799999999999996));
#93 = CARTESIAN_POINT('', (8., -6.66455450990795E-15, -0.799999999999997));
#94 = CARTESIAN_POINT('', (8., -8.00000000000001, -0.799999999999998));
#95 = CARTESIAN_POINT('', (-1.40073678436084E-15, -8., -0.799999999999998));
#96 = CARTESIAN_POINT('', (-8., -8., -0.799999999999998));
#97 = CARTESIAN_POINT('', (-8., 5.38844591624834E-16, -0.799999999999997));
#98 = ADVANCED_FACE('', (#99), #110, .T.);
#99 = FACE_OUTER_BOUND('', #100, .T.);
#100 = EDGE_LOOP('', (#101));
#101 = ORIENTED_EDGE('', *, *, #102, .T.);
#102 = EDGE_CURVE('', #103, #103, #105, .T.);
#103 = VERTEX_POINT('', #104);
#104 = CARTESIAN_POINT('', (-5.8349375, 6.7866825721536E-15, -105.));
#105 = CIRCLE('', #106, 5.83493749999999);
#106 = AXIS2_PLACEMENT_3D('', #107, #108, #109);
#107 = CARTESIAN_POINT('', (5.55111512312578E-16, 8.21565038222616E-15, -105.));
#108 = DIRECTION('', (2.43547676649528E-15, -7.923376925976E-15, -1.));
#109 = DIRECTION('', (-1., -2.44898563193275E-16, -2.43547676649528E-15));
#110 = B_SPLINE_SURFACE_WITH_KNOTS('', 1, 1, ((#111, #112), (#113, #114)), .UNSPECIFIED., .F., .F., .U., (2, 2), (2, 2), (4.97572518434231, 16.6476001843423), (4.97572518434232, 16.6476001843423), .UNSPECIFIED.);
#111 = CARTESIAN_POINT('', (5.83593749999999, -5.83593749999998, -105.));
#112 = CARTESIAN_POINT('', (5.83593749999999, 5.83593749999999, -105.));
#113 = CARTESIAN_POINT('', (-5.83593749999999, -5.83593749999998, -105.));
#114 = CARTESIAN_POINT('', (-5.83593749999999, 5.83593749999999, -105.));
#115 = ADVANCED_FACE('', (#116, #119), #130, .T.);
#116 = FACE_OUTER_BOUND('', #117, .T.);
#117 = EDGE_LOOP('', (#118));
#118 = ORIENTED_EDGE('', *, *, #71, .T.);
#119 = FACE_BOUND('', #120, .T.);
#120 = EDGE_LOOP('', (#121));
#121 = ORIENTED_EDGE('', *, *, #122, .F.);
#122 = EDGE_CURVE('', #123, #123, #125, .T.);
#123 = VERTEX_POINT('', #124);
#124 = CARTESIAN_POINT('', (-5.8349375, 4.18430812396547E-15, -62.5));
#125 = CIRCLE('', #126, 5.8349375);
#126 = AXIS2_PLACEMENT_3D('', #127, #128, #129);
#127 = CARTESIAN_POINT('', (-7.49400541621981E-16, 3.88578058618805E-15, -62.5));
#128 = DIRECTION('', (0., 0., -1.));
#129 = DIRECTION('', (-1., 5.11620797613385E-17, 0.));
#130 = B_SPLINE_SURFACE_WITH_KNOTS('', 1, 1, ((#131, #132), (#133, #134)), .UNSPECIFIED., .F., .F., .U., (2, 2), (2, 2), (4.4440793488832, 20.4460793488832), (4.4440793488832, 20.4460793488832), .UNSPECIFIED.);
#131 = CARTESIAN_POINT('', (8.001, -8.001, -62.5));
#132 = CARTESIAN_POINT('', (8.001, 8.001, -62.5));
#133 = CARTESIAN_POINT('', (-8.001, -8.00099999999999, -62.5));
#134 = CARTESIAN_POINT('', (-8.001, 8.001, -62.5));
#135 = ADVANCED_FACE('', (#136), #147, .T.);
#136 = FACE_OUTER_BOUND('', #137, .T.);
#137 = EDGE_LOOP('', (#138, #144, #145, #146));
#138 = ORIENTED_EDGE('', *, *, #139, .T.);
#139 = EDGE_CURVE('', #103, #123, #140, .T.);
#140 = LINE('', #141, #142);
#141 = CARTESIAN_POINT('', (-5.8349375, 6.7866825721536E-15, -105.));
#142 = VECTOR('', #143, 42.5);
#143 = DIRECTION('', (0., -2.60237444818813E-15, 42.5));
#144 = ORIENTED_EDGE('', *, *, #122, .T.);
#145 = ORIENTED_EDGE('', *, *, #139, .F.);
#146 = ORIENTED_EDGE('', *, *, #102, .F.);
#147 = (
   BOUNDED_SURFACE ()
   B_SPLINE_SURFACE (1, 2, ((#148, #149, #150, #151, #152, #153, #154, #155, #156), (#157, #158, #159, #160, #161, #162, #163, #164, #165)), .UNSPECIFIED., .F., .T., .U.)
   B_SPLINE_SURFACE_WITH_KNOTS ((2, 2), (3, 2, 2, 2, 3), (0., 1.), (0., 9.1654983920778, 18.3309967841556, 27.4964951762334, 36.6619935683112), .UNSPECIFIED.)
   GEOMETRIC_REPRESENTATION_ITEM ()
   RATIONAL_B_SPLINE_SURFACE (((1., 0.707106781186548, 1., 0.707106781186548, 1., 0.707106781186548, 1., 0.707106781186548, 1.), (1., 0.707106781186548, 1., 0.707106781186548, 1., 0.707106781186548, 1., 0.707106781186548, 1.)))
   REPRESENTATION_ITEM ('')
   SURFACE ()
);
#148 = CARTESIAN_POINT('', (-5.8349375, 6.40475417321578E-15, -105.));
#149 = CARTESIAN_POINT('', (-5.8349375, 5.83493750000001, -105.));
#150 = CARTESIAN_POINT('', (9.95952534541329E-16, 5.83493750000001, -105.));
#151 = CARTESIAN_POINT('', (5.8349375, 5.83493750000001, -105.));
#152 = CARTESIAN_POINT('', (5.8349375, 5.6340944312208E-15, -105.));
#153 = CARTESIAN_POINT('', (5.8349375, -5.8349375, -105.));
#154 = CARTESIAN_POINT('', (9.3986654580633E-16, -5.8349375, -105.));
#155 = CARTESIAN_POINT('', (-5.8349375, -5.8349375, -105.));
#156 = CARTESIAN_POINT('', (-5.8349375, 6.40475417321578E-15, -105.));
#157 = CARTESIAN_POINT('', (-5.8349375, 4.18430812396547E-15, -62.5));
#158 = CARTESIAN_POINT('', (-5.8349375, 5.8349375, -62.5));
#159 = CARTESIAN_POINT('', (9.95952534541328E-16, 5.8349375, -62.5));
#160 = CARTESIAN_POINT('', (5.8349375, 5.8349375, -62.5));
#161 = CARTESIAN_POINT('', (5.8349375, 3.41364838197049E-15, -62.5));
#162 = CARTESIAN_POINT('', (5.8349375, -5.8349375, -62.5));
#163 = CARTESIAN_POINT('', (9.3986654580633E-16, -5.8349375, -62.5));
#164 = CARTESIAN_POINT('', (-5.8349375, -5.8349375, -62.5));
#165 = CARTESIAN_POINT('', (-5.8349375, 4.18430812396547E-15, -62.5));
#166 = DRAUGHTING_MODEL('', (#174, #341, #388, #393, #398, #403, #408, #413), #427);
#167 = PRESENTATION_STYLE_ASSIGNMENT((#168));
#168 = SURFACE_STYLE_USAGE(.POSITIVE., #169);
#169 = SURFACE_SIDE_STYLE('', (#170));
#170 = SURFACE_STYLE_FILL_AREA(#171);
#171 = FILL_AREA_STYLE('', (#172));
#172 = FILL_AREA_STYLE_COLOUR('', #173);
#173 = COLOUR_RGB('', 0.50196078431373, 0.50196078431373, 0.50196078431373);
#174 = STYLED_ITEM('', (#167), #1);
#175 = MANIFOLD_SOLID_BREP('CUT', #176);
#176 = CLOSED_SHELL('', (#177, #205, #244, #264, #303));
#177 = ADVANCED_FACE('', (#178, #189), #200, .T.);
#178 = FACE_OUTER_BOUND('', #179, .T.);
#179 = EDGE_LOOP('', (#180));
#180 = ORIENTED_EDGE('', *, *, #181, .T.);
#181 = EDGE_CURVE('', #182, #182, #184, .T.);
#182 = VERTEX_POINT('', #183);
#183 = CARTESIAN_POINT('', (-6.95, 6.85496045822731E-15, -105.));
#184 = CIRCLE('', #185, 6.95);
#185 = AXIS2_PLACEMENT_3D('', #186, #187, #188);
#186 = CARTESIAN_POINT('', (9.99200722162641E-16, 6.21724893790088E-15, -105.));
#187 = DIRECTION('', (2.04472729715137E-15, -6.65214520172834E-15, -1.));
#188 = DIRECTION('', (-1., 9.17570532843789E-17, -2.04472729715137E-15));
#189 = FACE_BOUND('', #190, .T.);
#190 = EDGE_LOOP('', (#191));
#191 = ORIENTED_EDGE('', *, *, #192, .F.);
#192 = EDGE_CURVE('', #193, #193, #195, .T.);
#193 = VERTEX_POINT('', #194);
#194 = CARTESIAN_POINT('', (-5.8349375, 6.7866825721536E-15, -105.));
#195 = CIRCLE('', #196, 5.8349375);
#196 = AXIS2_PLACEMENT_3D('', #197, #198, #199);
#197 = CARTESIAN_POINT('', (-2.02615701994091E-15, 9.2148511043888E-15, -105.));
#198 = DIRECTION('', (-3.44950811996073E-30, 8.28923693660805E-15, -1.));
#199 = DIRECTION('', (-1., -4.16143023337474E-16, 0.));
#200 = B_SPLINE_SURFACE_WITH_KNOTS('', 1, 1, ((#201, #202), (#203, #204)), .UNSPECIFIED., .F., .F., .U., (2, 2), (2, 2), (3.8606626843423, 17.7626626843423), (3.86066268434231, 17.7626626843423), .UNSPECIFIED.);
#201 = CARTESIAN_POINT('', (6.951, -6.951, -105.));
#202 = CARTESIAN_POINT('', (6.951, 6.95100000000001, -105.));
#203 = CARTESIAN_POINT('', (-6.951, -6.951, -105.));
#204 = CARTESIAN_POINT('', (-6.951, 6.95100000000001, -105.));
#205 = ADVANCED_FACE('', (#206), #225, .T.);
#206 = FACE_OUTER_BOUND('', #207, .T.);
#207 = EDGE_LOOP('', (#208, #216, #217, #218));
#208 = ORIENTED_EDGE('', *, *, #209, .F.);
#209 = EDGE_CURVE('', #193, #210, #212, .T.);
#210 = VERTEX_POINT('', #211);
#211 = CARTESIAN_POINT('', (-5.8349375, 4.18430812396547E-15, -62.5));
#212 = LINE('', #213, #214);
#213 = CARTESIAN_POINT('', (-5.8349375, 6.7866825721536E-15, -105.));
#214 = VECTOR('', #215, 42.5);
#215 = DIRECTION('', (0., -2.60237444818813E-15, 42.5));
#216 = ORIENTED_EDGE('', *, *, #192, .T.);
#217 = ORIENTED_EDGE('', *, *, #209, .T.);
#218 = ORIENTED_EDGE('', *, *, #219, .F.);
#219 = EDGE_CURVE('', #210, #210, #220, .T.);
#220 = CIRCLE('', #221, 5.8349375);
#221 = AXIS2_PLACEMENT_3D('', #222, #223, #224);
#222 = CARTESIAN_POINT('', (-7.49400541621981E-16, 3.88578058618805E-15, -62.5));
#223 = DIRECTION('', (0., 0., -1.));
#224 = DIRECTION('', (-1., 5.11620797613385E-17, 0.));
#225 = (
   BOUNDED_SURFACE ()
   B_SPLINE_SURFACE (2, 1, ((#226, #227), (#228, #229), (#230, #231), (#232, #233), (#234, #235), (#236, #237), (#238, #239), (#240, #241), (#242, #243)), .UNSPECIFIED., .T., .F., .U.)
   B_SPLINE_SURFACE_WITH_KNOTS ((3, 2, 2, 2, 3), (2, 2), (0., 9.1654983920778, 18.3309967841556, 27.4964951762334, 36.6619935683112), (0., 1.), .UNSPECIFIED.)
   GEOMETRIC_REPRESENTATION_ITEM ()
   RATIONAL_B_SPLINE_SURFACE (((1., 1.), (0.707106781186548, 0.707106781186548), (1., 1.), (0.707106781186548, 0.707106781186548), (1., 1.), (0.707106781186548, 0.707106781186548), (1., 1.), (0.707106781186548, 0.707106781186548), (1., 1.)))
   REPRESENTATION_ITEM ('')
   SURFACE ()
);
#226 = CARTESIAN_POINT('', (-5.8349375, 6.40475417321578E-15, -105.));
#227 = CARTESIAN_POINT('', (-5.8349375, 4.18430812396547E-15, -62.5));
#228 = CARTESIAN_POINT('', (-5.8349375, 5.83493750000001, -105.));
#229 = CARTESIAN_POINT('', (-5.8349375, 5.8349375, -62.5));
#230 = CARTESIAN_POINT('', (9.95952534541329E-16, 5.83493750000001, -105.));
#231 = CARTESIAN_POINT('', (9.95952534541328E-16, 5.8349375, -62.5));
#232 = CARTESIAN_POINT('', (5.8349375, 5.83493750000001, -105.));
#233 = CARTESIAN_POINT('', (5.8349375, 5.8349375, -62.5));
#234 = CARTESIAN_POINT('', (5.8349375, 5.6340944312208E-15, -105.));
#235 = CARTESIAN_POINT('', (5.8349375, 3.41364838197049E-15, -62.5));
#236 = CARTESIAN_POINT('', (5.8349375, -5.8349375, -105.));
#237 = CARTESIAN_POINT('', (5.8349375, -5.8349375, -62.5));
#238 = CARTESIAN_POINT('', (9.3986654580633E-16, -5.8349375, -105.));
#239 = CARTESIAN_POINT('', (9.3986654580633E-16, -5.8349375, -62.5));
#240 = CARTESIAN_POINT('', (-5.8349375, -5.8349375, -105.));
#241 = CARTESIAN_POINT('', (-5.8349375, -5.8349375, -62.5));
#242 = CARTESIAN_POINT('', (-5.8349375, 6.40475417321578E-15, -105.));
#243 = CARTESIAN_POINT('', (-5.8349375, 4.18430812396547E-15, -62.5));
#244 = ADVANCED_FACE('', (#245, #256), #259, .T.);
#245 = FACE_OUTER_BOUND('', #246, .T.);
#246 = EDGE_LOOP('', (#247));
#247 = ORIENTED_EDGE('', *, *, #248, .F.);
#248 = EDGE_CURVE('', #249, #249, #251, .T.);
#249 = VERTEX_POINT('', #250);
#250 = CARTESIAN_POINT('', (-8., 4.31687996699442E-15, -62.5));
#251 = CIRCLE('', #252, 8.);
#252 = AXIS2_PLACEMENT_3D('', #253, #254, #255);
#253 = CARTESIAN_POINT('', (8.32667268468867E-17, 3.77475828372553E-15, -62.5));
#254 = DIRECTION('', (0., 0., -1.));
#255 = DIRECTION('', (-1., 6.77652104086111E-17, 0.));
#256 = FACE_BOUND('', #257, .T.);
#257 = EDGE_LOOP('', (#258));
#258 = ORIENTED_EDGE('', *, *, #219, .T.);
#259 = B_SPLINE_SURFACE_WITH_KNOTS('', 1, 1, ((#260, #261), (#262, #263)), .UNSPECIFIED., .F., .F., .U., (2, 2), (2, 2), (4.4440793488832, 20.4460793488832), (4.4440793488832, 20.4460793488832), .UNSPECIFIED.);
#260 = CARTESIAN_POINT('', (8.001, -8.001, -62.5));
#261 = CARTESIAN_POINT('', (-8.001, -8.001, -62.5));
#262 = CARTESIAN_POINT('', (8.001, 8.001, -62.5));
#263 = CARTESIAN_POINT('', (-8.001, 8.001, -62.5));
#264 = ADVANCED_FACE('', (#265), #284, .T.);
#265 = FACE_OUTER_BOUND('', #266, .T.);
#266 = EDGE_LOOP('', (#267, #275, #276, #277));
#267 = ORIENTED_EDGE('', *, *, #268, .F.);
#268 = EDGE_CURVE('', #249, #269, #271, .T.);
#269 = VERTEX_POINT('', #270);
#270 = CARTESIAN_POINT('', (-8., 6.85496045822731E-15, -103.95));
#271 = LINE('', #272, #273);
#272 = CARTESIAN_POINT('', (-8., 4.31687996699442E-15, -62.5));
#273 = VECTOR('', #274, 41.45);
#274 = DIRECTION('', (0., 2.53808049123289E-15, -41.45));
#275 = ORIENTED_EDGE('', *, *, #248, .T.);
#276 = ORIENTED_EDGE('', *, *, #268, .T.);
#277 = ORIENTED_EDGE('', *, *, #278, .F.);
#278 = EDGE_CURVE('', #269, #269, #279, .T.);
#279 = CIRCLE('', #280, 8.);
#280 = AXIS2_PLACEMENT_3D('', #281, #282, #283);
#281 = CARTESIAN_POINT('', (6.10622663543836E-16, 4.21884749357559E-15, -103.95));
#282 = DIRECTION('', (1.77635683940025E-15, -5.77905114400148E-15, -1.));
#283 = DIRECTION('', (-1., 3.29514120581465E-16, -1.77635683940025E-15));
#284 = (
   BOUNDED_SURFACE ()
   B_SPLINE_SURFACE (2, 1, ((#285, #286), (#287, #288), (#289, #290), (#291, #292), (#293, #294), (#295, #296), (#297, #298), (#299, #300), (#301, #302)), .UNSPECIFIED., .T., .F., .U.)
   B_SPLINE_SURFACE_WITH_KNOTS ((3, 2, 2, 2, 3), (2, 2), (0., 12.5663706143592, 25.1327412287184, 37.6991118430775, 50.2654824574367), (0., 1.), .UNSPECIFIED.)
   GEOMETRIC_REPRESENTATION_ITEM ()
   RATIONAL_B_SPLINE_SURFACE (((1., 1.), (0.707106781186548, 0.707106781186548), (1., 1.), (0.707106781186548, 0.707106781186548), (1., 1.), (0.707106781186548, 0.707106781186548), (1., 1.), (0.707106781186548, 0.707106781186548), (1., 1.)))
   REPRESENTATION_ITEM ('')
   SURFACE ()
);
#285 = CARTESIAN_POINT('', (-8., 4.31687996699442E-15, -62.5));
#286 = CARTESIAN_POINT('', (-8., 1.03120842999703E-14, -103.95));
#287 = CARTESIAN_POINT('', (-7.99999999999999, 8., -62.5));
#288 = CARTESIAN_POINT('', (-7.99999999999999, 8.00000000000001, -103.95));
#289 = CARTESIAN_POINT('', (4.16008815472303E-15, 8., -62.5));
#290 = CARTESIAN_POINT('', (4.16008815472303E-15, 8.00000000000001, -103.95));
#291 = CARTESIAN_POINT('', (8., 8., -62.5));
#292 = CARTESIAN_POINT('', (8., 8., -103.95));
#293 = CARTESIAN_POINT('', (8., -2.44898410797641E-15, -62.5));
#294 = CARTESIAN_POINT('', (8., 3.54622022499943E-15, -103.95));
#295 = CARTESIAN_POINT('', (8., -8., -62.5));
#296 = CARTESIAN_POINT('', (8., -8., -103.95));
#297 = CARTESIAN_POINT('', (-1.62605848092992E-15, -8., -62.5));
#298 = CARTESIAN_POINT('', (-1.62605848092992E-15, -7.99999999999999, -103.95));
#299 = CARTESIAN_POINT('', (-8., -8., -62.5));
#300 = CARTESIAN_POINT('', (-8., -7.99999999999999, -103.95));
#301 = CARTESIAN_POINT('', (-8., 4.31687996699442E-15, -62.5));
#302 = CARTESIAN_POINT('', (-8., 1.03120842999703E-14, -103.95));
#303 = ADVANCED_FACE('', (#304), #315, .T.);
#304 = FACE_OUTER_BOUND('', #305, .T.);
#305 = EDGE_LOOP('', (#306, #312, #313, #314));
#306 = ORIENTED_EDGE('', *, *, #307, .F.);
#307 = EDGE_CURVE('', #269, #182, #308, .T.);
#308 = LINE('', #309, #310);
#309 = CARTESIAN_POINT('', (-8., 6.85496045822731E-15, -103.95));
#310 = VECTOR('', #311, 1.48492424049175);
#311 = DIRECTION('', (1.05, 0., -1.05));
#312 = ORIENTED_EDGE('', *, *, #278, .T.);
#313 = ORIENTED_EDGE('', *, *, #307, .T.);
#314 = ORIENTED_EDGE('', *, *, #181, .F.);
#315 = (
   BOUNDED_SURFACE ()
   B_SPLINE_SURFACE (2, 1, ((#316, #317), (#318, #319), (#320, #321), (#322, #323), (#324, #325), (#326, #327), (#328, #329), (#330, #331), (#332, #333)), .UNSPECIFIED., .T., .F., .U.)
   B_SPLINE_SURFACE_WITH_KNOTS ((3, 2, 2, 2, 3), (2, 2), (0., 0.25, 0.5, 0.75, 1.), (0., 1.), .UNSPECIFIED.)
   GEOMETRIC_REPRESENTATION_ITEM ()
   RATIONAL_B_SPLINE_SURFACE (((1., 1.), (0.707106781186548, 0.707106781186548), (1., 1.), (0.707106781186548, 0.707106781186548), (1., 1.), (0.707106781186548, 0.707106781186548), (1., 1.), (0.707106781186548, 0.707106781186548), (1., 1.)))
   REPRESENTATION_ITEM ('')
   SURFACE ()
);
#316 = CARTESIAN_POINT('', (-8., 6.85496045822731E-15, -103.95));
#317 = CARTESIAN_POINT('', (-6.95, 6.1925570695986E-15, -105.));
#318 = CARTESIAN_POINT('', (-8., 8.00000000000001, -103.95));
#319 = CARTESIAN_POINT('', (-6.95, 6.95000000000001, -105.));
#320 = CARTESIAN_POINT('', (-1.57458531104426E-16, 8.00000000000001, -103.95));
#321 = CARTESIAN_POINT('', (-8.94341480028034E-17, 6.95000000000001, -105.));
#322 = CARTESIAN_POINT('', (8., 8.00000000000001, -103.95));
#323 = CARTESIAN_POINT('', (6.95, 6.95000000000001, -105.));
#324 = CARTESIAN_POINT('', (8., 7.89152248644251E-15, -103.95));
#325 = CARTESIAN_POINT('', (6.95, 7.09307033161056E-15, -105.));
#326 = CARTESIAN_POINT('', (8., -7.99999999999999, -103.95));
#327 = CARTESIAN_POINT('', (6.95, -6.94999999999999, -105.));
#328 = CARTESIAN_POINT('', (1.85882093642866E-15, -7.99999999999999, -103.95));
#329 = CARTESIAN_POINT('', (1.66220863941657E-15, -6.94999999999999, -105.));
#330 = CARTESIAN_POINT('', (-8., -7.99999999999999, -103.95));
#331 = CARTESIAN_POINT('', (-6.95, -6.95, -105.));
#332 = CARTESIAN_POINT('', (-8., 6.85496045822731E-15, -103.95));
#333 = CARTESIAN_POINT('', (-6.95, 6.1925570695986E-15, -105.));
#334 = PRESENTATION_STYLE_ASSIGNMENT((#335));
#335 = SURFACE_STYLE_USAGE(.POSITIVE., #336);
#336 = SURFACE_SIDE_STYLE('', (#337));
#337 = SURFACE_STYLE_FILL_AREA(#338);
#338 = FILL_AREA_STYLE('', (#339));
#339 = FILL_AREA_STYLE_COLOUR('', #340);
#340 = COLOUR_RGB('', 0.8, 0.8, 0.8);
#341 = STYLED_ITEM('', (#334), #175);
#342 = TRIMMED_CURVE('cutting part line', #343, (#347), (#348), .T., .CARTESIAN.);
#343 = LINE('', #344, #345);
#344 = CARTESIAN_POINT('', (5.8349375, -4.89888187722546E-15, -62.5));
#345 = VECTOR('', #346, 2.1650625);
#346 = DIRECTION('', (2.1650625, -3.97715529086847E-16, 0.));
#347 = CARTESIAN_POINT('', (5.8349375, -4.89888187722546E-15, -62.5));
#348 = CARTESIAN_POINT('', (8., -5.2965974063123E-15, -62.5));
#349 = TRIMMED_CURVE('cutting part line', #350, (#354), (#355), .T., .CARTESIAN.);
#350 = LINE('', #351, #352);
#351 = CARTESIAN_POINT('', (8., -5.2965974063123E-15, -62.5));
#352 = VECTOR('', #353, 41.45);
#353 = DIRECTION('', (0., -2.53808049123289E-15, -41.45));
#354 = CARTESIAN_POINT('', (8., -5.2965974063123E-15, -62.5));
#355 = CARTESIAN_POINT('', (8., -7.83467789754519E-15, -103.95));
#356 = TRIMMED_CURVE('cutting part line', #357, (#361), (#362), .T., .CARTESIAN.);
#357 = LINE('', #358, #359);
#358 = CARTESIAN_POINT('', (8., -7.83467789754519E-15, -103.95));
#359 = VECTOR('', #360, 1.48492424049175);
#360 = DIRECTION('', (-1.05, 1.28587913910472E-16, -1.05));
#361 = CARTESIAN_POINT('', (8., -7.83467789754519E-15, -103.95));
#362 = CARTESIAN_POINT('', (6.95, -7.70608998363472E-15, -105.));
#363 = TRIMMED_CURVE('cutting part line', #364, (#368), (#369), .T., .CARTESIAN.);
#364 = LINE('', #365, #366);
#365 = CARTESIAN_POINT('', (6.95, -7.70608998363472E-15, -105.));
#366 = VECTOR('', #367, 1.1150625);
#367 = DIRECTION('', (-1.1150625, 2.04833658221135E-16, 0.));
#368 = CARTESIAN_POINT('', (6.95, -7.70608998363472E-15, -105.));
#369 = CARTESIAN_POINT('', (5.8349375, -7.50125632541359E-15, -105.));
#370 = TRIMMED_CURVE('cutting part line', #371, (#375), (#376), .T., .CARTESIAN.);
#371 = LINE('', #372, #373);
#372 = CARTESIAN_POINT('', (5.8349375, -7.50125632541359E-15, -105.));
#373 = VECTOR('', #374, 42.5);
#374 = DIRECTION('', (0., 2.60237444818813E-15, 42.5));
#375 = CARTESIAN_POINT('', (5.8349375, -7.50125632541359E-15, -105.));
#376 = CARTESIAN_POINT('', (5.8349375, -4.89888187722546E-15, -62.5));
#377 = COMPOSITE_CURVE('cutting part line', (#378, #379, #380, #381, #382), .U.);
#378 = COMPOSITE_CURVE_SEGMENT(.CONTINUOUS., .T., #342);
#379 = COMPOSITE_CURVE_SEGMENT(.CONTINUOUS., .T., #349);
#380 = COMPOSITE_CURVE_SEGMENT(.CONTINUOUS., .T., #356);
#381 = COMPOSITE_CURVE_SEGMENT(.CONTINUOUS., .T., #363);
#382 = COMPOSITE_CURVE_SEGMENT(.CONTINUOUS., .T., #370);
#383 = GEOMETRIC_SET('', (#377, #426));
#384 = PRESENTATION_STYLE_ASSIGNMENT((#385));
#385 = CURVE_STYLE('', #387, POSITIVE_LENGTH_MEASURE(1.E-6), #386);
#386 = COLOUR_RGB('', 0., 0., 1.);
#387 = DRAUGHTING_PRE_DEFINED_CURVE_FONT('continuous');
#388 = STYLED_ITEM('', (#384), #377);
#389 = PRESENTATION_STYLE_ASSIGNMENT((#390));
#390 = CURVE_STYLE('', #392, POSITIVE_LENGTH_MEASURE(1.E-6), #391);
#391 = COLOUR_RGB('', 0., 0., 1.);
#392 = DRAUGHTING_PRE_DEFINED_CURVE_FONT('continuous');
#393 = OVER_RIDING_STYLED_ITEM('', (#389), #342, #388);
#394 = PRESENTATION_STYLE_ASSIGNMENT((#395));
#395 = CURVE_STYLE('', #397, POSITIVE_LENGTH_MEASURE(1.E-6), #396);
#396 = COLOUR_RGB('', 0., 0., 1.);
#397 = DRAUGHTING_PRE_DEFINED_CURVE_FONT('continuous');
#398 = OVER_RIDING_STYLED_ITEM('', (#394), #349, #388);
#399 = PRESENTATION_STYLE_ASSIGNMENT((#400));
#400 = CURVE_STYLE('', #402, POSITIVE_LENGTH_MEASURE(1.E-6), #401);
#401 = COLOUR_RGB('', 0., 0., 1.);
#402 = DRAUGHTING_PRE_DEFINED_CURVE_FONT('continuous');
#403 = OVER_RIDING_STYLED_ITEM('', (#399), #356, #388);
#404 = PRESENTATION_STYLE_ASSIGNMENT((#405));
#405 = CURVE_STYLE('', #407, POSITIVE_LENGTH_MEASURE(1.E-6), #406);
#406 = COLOUR_RGB('', 0., 0., 1.);
#407 = DRAUGHTING_PRE_DEFINED_CURVE_FONT('continuous');
#408 = OVER_RIDING_STYLED_ITEM('', (#404), #363, #388);
#409 = PRESENTATION_STYLE_ASSIGNMENT((#410));
#410 = CURVE_STYLE('', #412, POSITIVE_LENGTH_MEASURE(1.E-6), #411);
#411 = COLOUR_RGB('', 0., 0., 1.);
#412 = DRAUGHTING_PRE_DEFINED_CURVE_FONT('continuous');
#413 = OVER_RIDING_STYLED_ITEM('', (#409), #370, #388);
#414 = AXIS2_PLACEMENT_3D('CIP', #415, #416, #417);
#415 = CARTESIAN_POINT('', (3.93686942948738E-31, 6.4293956955236E-15, -105.));
#416 = DIRECTION('', (-3.74939945665465E-33, -6.12323399573677E-17, 1.));
#417 = DIRECTION('', (1., -6.12323399573677E-17, 0.));
#418 = AXIS2_PLACEMENT_3D('MCS', #419, #420, #421);
#419 = CARTESIAN_POINT('', (1.79971173919423E-31, 2.93915231795365E-15, -48.));
#420 = DIRECTION('', (-3.74939945665465E-33, -6.12323399573677E-17, 1.));
#421 = DIRECTION('', (1., -6.12323399573677E-17, 0.));
#422 = AXIS2_PLACEMENT_3D('PCS', #423, #424, #425);
#423 = CARTESIAN_POINT('', (0., 0., 0.));
#424 = DIRECTION('', (0., 0., 1.));
#425 = DIRECTION('', (1., 0., 0.));
#426 = CARTESIAN_POINT('CRP', (8., 0., -105.));
#427 = (
   GEOMETRIC_REPRESENTATION_CONTEXT (3)
   GLOBAL_UNCERTAINTY_ASSIGNED_CONTEXT ((#429))
   GLOBAL_UNIT_ASSIGNED_CONTEXT ((#428, #430, #431))
   REPRESENTATION_CONTEXT ('', '3D')
);
#428 = (
   LENGTH_UNIT ()
   NAMED_UNIT (*)
   SI_UNIT (.MILLI., .METRE.)
);
#429 = UNCERTAINTY_MEASURE_WITH_UNIT(LENGTH_MEASURE(1.E-6), #428, 'DISTANCE_ACCURACY_VALUE', '');
#430 = (
   NAMED_UNIT (*)
   SI_UNIT ($, .STERADIAN.)
   SOLID_ANGLE_UNIT ()
);
#431 = (
   NAMED_UNIT (*)
   PLANE_ANGLE_UNIT ()
   SI_UNIT ($, .RADIAN.)
);
#432 = SHAPE_REPRESENTATION('', (), #427);
#433 = PRODUCT_DEFINITION_SHAPE('', '', #434);
#434 = PRODUCT_DEFINITION('', '', #437, #441);
#435 = APPLICATION_CONTEXT('configuration controlled 3D designs of mechanical parts and assemblies');
#436 = APPLICATION_PROTOCOL_DEFINITION('International Standard', 'automotive_design', 2002, #435);
#437 = PRODUCT_DEFINITION_FORMATION_WITH_SPECIFIED_SOURCE('', '', #438, .NOT_KNOWN.);
#438 = PRODUCT('NONE', 'R217.15C160250AK42N 1630', '', (#439));
#439 = PRODUCT_CONTEXT('', #435, 'mechanical');
#440 = PRODUCT_RELATED_PRODUCT_CATEGORY('detail', '', (#438));
#441 = PRODUCT_DEFINITION_CONTEXT('part definition', #435, 'design');
#442 = SHAPE_DEFINITION_REPRESENTATION(#433, #432);
#443 = CONSTRUCTIVE_GEOMETRY_REPRESENTATION('supplemental geometry', (#414, #418, #422), #427);
#444 = CONSTRUCTIVE_GEOMETRY_REPRESENTATION_RELATIONSHIP('', '', #432, #443);
#445 = SHAPE_REPRESENTATION_RELATIONSHIP('', '', #432, #446);
#446 = SHAPE_REPRESENTATION('', (#383), #427);
#447 = SHAPE_REPRESENTATION_RELATIONSHIP('', '', #432, #448);
#448 = ADVANCED_BREP_SHAPE_REPRESENTATION('', (#1, #175), #427);
ENDSEC;
END-ISO-10303-21;
