ISO-10303-21;
HEADER;
FILE_DESCRIPTION(('STEP'), '1');
FILE_NAME('C:\\Users\\ds2002\\OneDrive - Sandvik\\HomeShare\\Documents\\Batchrepair\\CorSRT2\\NEW_MILTH_SLD\\Output\\MOD000000000000000020084663300000.stp', '2019-01-04T08:50:30', (''), (''), 'Express v3.0.0.0', 'Express Tool', 'Unknown');
FILE_SCHEMA(('AUTOMOTIVE_DESIGN'));
ENDSEC;

DATA;
#1 = MANIFOLD_SOLID_BREP('NOCUT', #2);
#2 = CLOSED_SHELL('', (#3, #50, #59, #98, #115, #135));
#3 = ADVANCED_FACE('', (#4), #31, .T.);
#4 = FACE_OUTER_BOUND('', #5, .T.);
#5 = EDGE_LOOP('', (#6, #16, #23, #24));
#6 = ORIENTED_EDGE('', *, *, #7, .T.);
#7 = EDGE_CURVE('', #8, #10, #12, .T.);
#8 = VERTEX_POINT('', #9);
#9 = CARTESIAN_POINT('', (-5., 3.36777869765522E-16, -0.5));
#10 = VERTEX_POINT('', #11);
#11 = CARTESIAN_POINT('', (-4.5, 2.75545529808154E-16, 0.));
#12 = LINE('', #13, #14);
#13 = CARTESIAN_POINT('', (-5., 3.36777869765522E-16, -0.5));
#14 = VECTOR('', #15, 0.707106781186548);
#15 = DIRECTION('', (0.5, -6.1232339957368E-17, 0.5));
#16 = ORIENTED_EDGE('', *, *, #17, .T.);
#17 = EDGE_CURVE('', #10, #10, #18, .T.);
#18 = CIRCLE('', #19, 4.5);
#19 = AXIS2_PLACEMENT_3D('', #20, #21, #22);
#20 = CARTESIAN_POINT('', (1.36002320516582E-15, 1.11022302462516E-16, 6.16297582203915E-33));
#21 = DIRECTION('', (3.60824844661125E-33, 6.12323399573677E-17, -1.));
#22 = DIRECTION('', (-1., 3.65607171879198E-17, -1.36955018267537E-33));
#23 = ORIENTED_EDGE('', *, *, #7, .F.);
#24 = ORIENTED_EDGE('', *, *, #25, .F.);
#25 = EDGE_CURVE('', #8, #8, #26, .T.);
#26 = CIRCLE('', #27, 5.);
#27 = AXIS2_PLACEMENT_3D('', #28, #29, #30);
#28 = CARTESIAN_POINT('', (-6.24500451351651E-16, -3.10862446895044E-15, -0.5));
#29 = DIRECTION('', (5.20763728707942E-32, 7.55737178871861E-17, -1.));
#30 = DIRECTION('', (-1., 6.89080467743192E-16, 0.));
#31 = (
   BOUNDED_SURFACE ()
   B_SPLINE_SURFACE (1, 2, ((#32, #33, #34, #35, #36, #37, #38, #39, #40), (#41, #42, #43, #44, #45, #46, #47, #48, #49)), .UNSPECIFIED., .F., .T., .U.)
   B_SPLINE_SURFACE_WITH_KNOTS ((2, 2), (3, 2, 2, 2, 3), (0., 1.), (0., 0.25, 0.5, 0.75, 1.), .UNSPECIFIED.)
   GEOMETRIC_REPRESENTATION_ITEM ()
   RATIONAL_B_SPLINE_SURFACE (((1., 0.707106781186548, 1., 0.707106781186548, 1., 0.707106781186548, 1., 0.707106781186548, 1.), (1., 0.707106781186548, 1., 0.707106781186548, 1., 0.707106781186548, 1., 0.707106781186548, 1.)))
   REPRESENTATION_ITEM ('')
   SURFACE ()
);
#32 = CARTESIAN_POINT('', (-5., -2.69144046670109E-15, -0.5));
#33 = CARTESIAN_POINT('', (-5., 5., -0.50000000000003));
#34 = CARTESIAN_POINT('', (2.28983498828938E-15, 5., -0.50000000000003));
#35 = CARTESIAN_POINT('', (5., 5., -0.50000000000003));
#36 = CARTESIAN_POINT('', (5., -2.69144046670108E-15, -0.5));
#37 = CARTESIAN_POINT('', (5., -5., -0.49999999999997));
#38 = CARTESIAN_POINT('', (2.90215838786306E-15, -5., -0.49999999999997));
#39 = CARTESIAN_POINT('', (-5., -5., -0.49999999999997));
#40 = CARTESIAN_POINT('', (-5., -2.69144046670109E-15, -0.5));
#41 = CARTESIAN_POINT('', (-4.5, 2.75545529808154E-16, -5.47382212626882E-48));
#42 = CARTESIAN_POINT('', (-4.5, 4.5, -2.69784194983913E-14));
#43 = CARTESIAN_POINT('', (2.28983498828938E-15, 4.5, -2.69784194983913E-14));
#44 = CARTESIAN_POINT('', (4.5, 4.5, -2.69784194983913E-14));
#45 = CARTESIAN_POINT('', (4.5, 2.75545529808155E-16, -3.34088136340818E-30));
#46 = CARTESIAN_POINT('', (4.5, -4.5, 2.69784194983913E-14));
#47 = CARTESIAN_POINT('', (2.8409260479057E-15, -4.5, 2.69784194983913E-14));
#48 = CARTESIAN_POINT('', (-4.5, -4.5, 2.69784194983913E-14));
#49 = CARTESIAN_POINT('', (-4.5, 2.75545529808154E-16, -5.47382212626882E-48));
#50 = ADVANCED_FACE('', (#51), #54, .T.);
#51 = FACE_OUTER_BOUND('', #52, .T.);
#52 = EDGE_LOOP('', (#53));
#53 = ORIENTED_EDGE('', *, *, #17, .F.);
#54 = B_SPLINE_SURFACE_WITH_KNOTS('', 1, 1, ((#55, #56), (#57, #58)), .UNSPECIFIED., .F., .F., .U., (2, 2), (2, 2), (2.49935713374682, 11.5013571337468), (2.49935713374682, 11.5013571337468), .UNSPECIFIED.);
#55 = CARTESIAN_POINT('', (4.501, -4.501, -2.75606762148106E-16));
#56 = CARTESIAN_POINT('', (-4.501, -4.501, -1.44896194450646E-14));
#57 = CARTESIAN_POINT('', (4.501, 4.501, 1.44896194450647E-14));
#58 = CARTESIAN_POINT('', (-4.501, 4.501, 2.75606762148136E-16));
#59 = ADVANCED_FACE('', (#60), #79, .T.);
#60 = FACE_OUTER_BOUND('', #61, .T.);
#61 = EDGE_LOOP('', (#62, #70, #77, #78));
#62 = ORIENTED_EDGE('', *, *, #63, .F.);
#63 = EDGE_CURVE('', #64, #8, #66, .T.);
#64 = VERTEX_POINT('', #65);
#65 = CARTESIAN_POINT('', (-5., 3.55147571752732E-15, -53.));
#66 = LINE('', #67, #68);
#67 = CARTESIAN_POINT('', (-5., 3.55147571752732E-15, -53.));
#68 = VECTOR('', #69, 52.5);
#69 = DIRECTION('', (0., -3.2146978477618E-15, 52.5));
#70 = ORIENTED_EDGE('', *, *, #71, .F.);
#71 = EDGE_CURVE('', #64, #64, #72, .T.);
#72 = CIRCLE('', #73, 5.);
#73 = AXIS2_PLACEMENT_3D('', #74, #75, #76);
#74 = CARTESIAN_POINT('', (-5.82867087928207E-16, 2.22044604925031E-16, -53.));
#75 = DIRECTION('', (0., 0., -1.));
#76 = DIRECTION('', (-1., 6.6588622252046E-16, 0.));
#77 = ORIENTED_EDGE('', *, *, #63, .T.);
#78 = ORIENTED_EDGE('', *, *, #25, .T.);
#79 = (
   BOUNDED_SURFACE ()
   B_SPLINE_SURFACE (1, 2, ((#80, #81, #82, #83, #84, #85, #86, #87, #88), (#89, #90, #91, #92, #93, #94, #95, #96, #97)), .UNSPECIFIED., .F., .T., .U.)
   B_SPLINE_SURFACE_WITH_KNOTS ((2, 2), (3, 2, 2, 2, 3), (-0.329113924050633, 1.), (0., 0.25, 0.5, 0.75, 1.), .UNSPECIFIED.)
   GEOMETRIC_REPRESENTATION_ITEM ()
   RATIONAL_B_SPLINE_SURFACE (((1., 0.707106781186548, 1., 0.707106781186548, 1., 0.707106781186548, 1., 0.707106781186548, 1.), (1., 0.707106781186548, 1., 0.707106781186548, 1., 0.707106781186548, 1., 0.707106781186548, 1.)))
   REPRESENTATION_ITEM ('')
   SURFACE ()
);
#80 = CARTESIAN_POINT('', (-5., 5.66584838796627E-15, -53.));
#81 = CARTESIAN_POINT('', (-5., 5., -53.));
#82 = CARTESIAN_POINT('', (1.55516260249014E-16, 5., -53.));
#83 = CARTESIAN_POINT('', (5., 5., -53.));
#84 = CARTESIAN_POINT('', (5., 4.49439302338375E-15, -53.));
#85 = CARTESIAN_POINT('', (5., -4.99999999999999, -53.));
#86 = CARTESIAN_POINT('', (-4.03615704759833E-16, -4.99999999999999, -53.));
#87 = CARTESIAN_POINT('', (-5., -4.99999999999999, -53.));
#88 = CARTESIAN_POINT('', (-5., 5.66584838796627E-15, -53.));
#89 = CARTESIAN_POINT('', (-5., 3.36777869765522E-16, -0.5));
#90 = CARTESIAN_POINT('', (-5., 5., -0.5));
#91 = CARTESIAN_POINT('', (1.55516260249014E-16, 5., -0.5));
#92 = CARTESIAN_POINT('', (5., 5., -0.5));
#93 = CARTESIAN_POINT('', (5., -8.34677494817002E-16, -0.5));
#94 = CARTESIAN_POINT('', (5., -5., -0.500000000000001));
#95 = CARTESIAN_POINT('', (-4.03615704759834E-16, -5., -0.500000000000001));
#96 = CARTESIAN_POINT('', (-5., -5., -0.500000000000001));
#97 = CARTESIAN_POINT('', (-5., 3.36777869765522E-16, -0.5));
#98 = ADVANCED_FACE('', (#99), #110, .T.);
#99 = FACE_OUTER_BOUND('', #100, .T.);
#100 = EDGE_LOOP('', (#101));
#101 = ORIENTED_EDGE('', *, *, #102, .T.);
#102 = EDGE_CURVE('', #103, #103, #105, .T.);
#103 = VERTEX_POINT('', #104);
#104 = CARTESIAN_POINT('', (-3.26795, 5.2823884418252E-15, -83.));
#105 = CIRCLE('', #106, 3.26795);
#106 = AXIS2_PLACEMENT_3D('', #107, #108, #109);
#107 = CARTESIAN_POINT('', (7.07767178198537E-16, 3.38618022510673E-15, -83.));
#108 = DIRECTION('', (0., 0., -1.));
#109 = DIRECTION('', (-1., 5.80243950096688E-16, 0.));
#110 = B_SPLINE_SURFACE_WITH_KNOTS('', 1, 1, ((#111, #112), (#113, #114)), .UNSPECIFIED., .F., .F., .U., (2, 2), (2, 2), (3.49806189595526, 10.0359618959553), (3.49806189595526, 10.0359618959553), .UNSPECIFIED.);
#111 = CARTESIAN_POINT('', (3.26895, -3.26894999999999, -83.));
#112 = CARTESIAN_POINT('', (3.26895, 3.26895000000001, -83.));
#113 = CARTESIAN_POINT('', (-3.26895, -3.26894999999999, -83.));
#114 = CARTESIAN_POINT('', (-3.26895, 3.26895000000001, -83.));
#115 = ADVANCED_FACE('', (#116, #119), #130, .T.);
#116 = FACE_OUTER_BOUND('', #117, .T.);
#117 = EDGE_LOOP('', (#118));
#118 = ORIENTED_EDGE('', *, *, #71, .T.);
#119 = FACE_BOUND('', #120, .T.);
#120 = EDGE_LOOP('', (#121));
#121 = ORIENTED_EDGE('', *, *, #122, .F.);
#122 = EDGE_CURVE('', #123, #123, #125, .T.);
#123 = VERTEX_POINT('', #124);
#124 = CARTESIAN_POINT('', (-3.26795, 3.44541824310417E-15, -53.));
#125 = CIRCLE('', #126, 3.26795);
#126 = AXIS2_PLACEMENT_3D('', #127, #128, #129);
#127 = CARTESIAN_POINT('', (7.21644966006352E-16, 1.60982338570648E-15, -53.));
#128 = DIRECTION('', (0., 0., -1.));
#129 = DIRECTION('', (-1., 5.61696126745419E-16, 0.));
#130 = B_SPLINE_SURFACE_WITH_KNOTS('', 1, 1, ((#131, #132), (#133, #134)), .UNSPECIFIED., .F., .F., .U., (2, 2), (2, 2), (2.77717459305203, 12.779174593052), (2.77717459305202, 12.779174593052), .UNSPECIFIED.);
#131 = CARTESIAN_POINT('', (5.001, -5.001, -53.));
#132 = CARTESIAN_POINT('', (5.001, 5.001, -53.));
#133 = CARTESIAN_POINT('', (-5.001, -5.001, -53.));
#134 = CARTESIAN_POINT('', (-5.001, 5.001, -53.));
#135 = ADVANCED_FACE('', (#136), #147, .T.);
#136 = FACE_OUTER_BOUND('', #137, .T.);
#137 = EDGE_LOOP('', (#138, #144, #145, #146));
#138 = ORIENTED_EDGE('', *, *, #139, .T.);
#139 = EDGE_CURVE('', #103, #123, #140, .T.);
#140 = LINE('', #141, #142);
#141 = CARTESIAN_POINT('', (-3.26795, 5.2823884418252E-15, -83.));
#142 = VECTOR('', #143, 30.);
#143 = DIRECTION('', (0., -1.83697019872103E-15, 30.));
#144 = ORIENTED_EDGE('', *, *, #122, .T.);
#145 = ORIENTED_EDGE('', *, *, #139, .F.);
#146 = ORIENTED_EDGE('', *, *, #102, .F.);
#147 = (
   BOUNDED_SURFACE ()
   B_SPLINE_SURFACE (1, 2, ((#148, #149, #150, #151, #152, #153, #154, #155, #156), (#157, #158, #159, #160, #161, #162, #163, #164, #165)), .UNSPECIFIED., .F., .T., .U.)
   B_SPLINE_SURFACE_WITH_KNOTS ((2, 2), (3, 2, 2, 2, 3), (0., 1.), (0., 5.13328385614938, 10.2665677122988, 15.3998515684481, 20.5331354245975), .UNSPECIFIED.)
   GEOMETRIC_REPRESENTATION_ITEM ()
   RATIONAL_B_SPLINE_SURFACE (((1., 0.707106781186548, 1., 0.707106781186548, 1., 0.707106781186548, 1., 0.707106781186548, 1.), (1., 0.707106781186548, 1., 0.707106781186548, 1., 0.707106781186548, 1., 0.707106781186548, 1.)))
   REPRESENTATION_ITEM ('')
   SURFACE ()
);
#148 = CARTESIAN_POINT('', (-3.26795, 4.11155205787926E-15, -83.));
#149 = CARTESIAN_POINT('', (-3.26795, 3.26795, -83.));
#150 = CARTESIAN_POINT('', (7.61190000141703E-16, 3.26795, -83.));
#151 = CARTESIAN_POINT('', (3.26795, 3.26795, -83.));
#152 = CARTESIAN_POINT('', (3.26795, 1.61772691104885E-15, -83.));
#153 = CARTESIAN_POINT('', (3.26795, -3.26795, -83.));
#154 = CARTESIAN_POINT('', (-1.33242669596136E-15, -3.26795, -83.));
#155 = CARTESIAN_POINT('', (-3.26795, -3.26795, -83.));
#156 = CARTESIAN_POINT('', (-3.26795, 4.11155205787926E-15, -83.));
#157 = CARTESIAN_POINT('', (-3.26795, 3.44541824310417E-15, -53.));
#158 = CARTESIAN_POINT('', (-3.26795, 3.26795, -53.));
#159 = CARTESIAN_POINT('', (7.61190000141703E-16, 3.26795, -53.));
#160 = CARTESIAN_POINT('', (3.26795, 3.26795, -53.));
#161 = CARTESIAN_POINT('', (3.26795, 9.51593096273753E-16, -53.));
#162 = CARTESIAN_POINT('', (3.26795, -3.26795, -53.));
#163 = CARTESIAN_POINT('', (-1.33242669596136E-15, -3.26795, -53.));
#164 = CARTESIAN_POINT('', (-3.26795, -3.26795, -53.));
#165 = CARTESIAN_POINT('', (-3.26795, 3.44541824310417E-15, -53.));
#166 = DRAUGHTING_MODEL('', (#174, #341, #388, #393, #398, #403, #408, #413), #427);
#167 = PRESENTATION_STYLE_ASSIGNMENT((#168));
#168 = SURFACE_STYLE_USAGE(.POSITIVE., #169);
#169 = SURFACE_SIDE_STYLE('', (#170));
#170 = SURFACE_STYLE_FILL_AREA(#171);
#171 = FILL_AREA_STYLE('', (#172));
#172 = FILL_AREA_STYLE_COLOUR('', #173);
#173 = COLOUR_RGB('', 0.50196078431373, 0.50196078431373, 0.50196078431373);
#174 = STYLED_ITEM('', (#167), #1);
#175 = MANIFOLD_SOLID_BREP('CUT', #176);
#176 = CLOSED_SHELL('', (#177, #205, #244, #264, #303));
#177 = ADVANCED_FACE('', (#178, #189), #200, .T.);
#178 = FACE_OUTER_BOUND('', #179, .T.);
#179 = EDGE_LOOP('', (#180));
#180 = ORIENTED_EDGE('', *, *, #181, .T.);
#181 = EDGE_CURVE('', #182, #182, #184, .T.);
#182 = VERTEX_POINT('', #183);
#183 = CARTESIAN_POINT('', (-4.35, 5.34864489527607E-15, -83.));
#184 = CIRCLE('', #185, 4.35);
#185 = AXIS2_PLACEMENT_3D('', #186, #187, #188);
#186 = CARTESIAN_POINT('', (-5.96744875736022E-16, 5.55111512312578E-15, -83.));
#187 = DIRECTION('', (0., 0., -1.));
#188 = DIRECTION('', (-1., -4.65448799654513E-17, 0.));
#189 = FACE_BOUND('', #190, .T.);
#190 = EDGE_LOOP('', (#191));
#191 = ORIENTED_EDGE('', *, *, #192, .F.);
#192 = EDGE_CURVE('', #193, #193, #195, .T.);
#193 = VERTEX_POINT('', #194);
#194 = CARTESIAN_POINT('', (-3.26795, 5.2823884418252E-15, -83.));
#195 = CIRCLE('', #196, 3.26795);
#196 = AXIS2_PLACEMENT_3D('', #197, #198, #199);
#197 = CARTESIAN_POINT('', (7.07767178198537E-16, 3.38618022510673E-15, -83.));
#198 = DIRECTION('', (0., 0., -1.));
#199 = DIRECTION('', (-1., 5.80243950096688E-16, 0.));
#200 = B_SPLINE_SURFACE_WITH_KNOTS('', 1, 1, ((#201, #202), (#203, #204)), .UNSPECIFIED., .F., .F., .U., (2, 2), (2, 2), (2.41601189595526, 11.1180118959553), (2.41601189595526, 11.1180118959553), .UNSPECIFIED.);
#201 = CARTESIAN_POINT('', (4.351, -4.351, -83.));
#202 = CARTESIAN_POINT('', (4.351, 4.35100000000001, -83.));
#203 = CARTESIAN_POINT('', (-4.351, -4.351, -83.));
#204 = CARTESIAN_POINT('', (-4.351, 4.35100000000001, -83.));
#205 = ADVANCED_FACE('', (#206), #225, .T.);
#206 = FACE_OUTER_BOUND('', #207, .T.);
#207 = EDGE_LOOP('', (#208, #216, #217, #218));
#208 = ORIENTED_EDGE('', *, *, #209, .F.);
#209 = EDGE_CURVE('', #193, #210, #212, .T.);
#210 = VERTEX_POINT('', #211);
#211 = CARTESIAN_POINT('', (-3.26795, 3.44541824310417E-15, -53.));
#212 = LINE('', #213, #214);
#213 = CARTESIAN_POINT('', (-3.26795, 5.2823884418252E-15, -83.));
#214 = VECTOR('', #215, 30.);
#215 = DIRECTION('', (0., -1.83697019872103E-15, 30.));
#216 = ORIENTED_EDGE('', *, *, #192, .T.);
#217 = ORIENTED_EDGE('', *, *, #209, .T.);
#218 = ORIENTED_EDGE('', *, *, #219, .F.);
#219 = EDGE_CURVE('', #210, #210, #220, .T.);
#220 = CIRCLE('', #221, 3.26795);
#221 = AXIS2_PLACEMENT_3D('', #222, #223, #224);
#222 = CARTESIAN_POINT('', (7.21644966006352E-16, 1.60982338570648E-15, -53.));
#223 = DIRECTION('', (0., 0., -1.));
#224 = DIRECTION('', (-1., 5.61696126745419E-16, 0.));
#225 = (
   BOUNDED_SURFACE ()
   B_SPLINE_SURFACE (2, 1, ((#226, #227), (#228, #229), (#230, #231), (#232, #233), (#234, #235), (#236, #237), (#238, #239), (#240, #241), (#242, #243)), .UNSPECIFIED., .T., .F., .U.)
   B_SPLINE_SURFACE_WITH_KNOTS ((3, 2, 2, 2, 3), (2, 2), (0., 5.13328385614938, 10.2665677122988, 15.3998515684481, 20.5331354245975), (0., 1.), .UNSPECIFIED.)
   GEOMETRIC_REPRESENTATION_ITEM ()
   RATIONAL_B_SPLINE_SURFACE (((1., 1.), (0.707106781186548, 0.707106781186548), (1., 1.), (0.707106781186548, 0.707106781186548), (1., 1.), (0.707106781186548, 0.707106781186548), (1., 1.), (0.707106781186548, 0.707106781186548), (1., 1.)))
   REPRESENTATION_ITEM ('')
   SURFACE ()
);
#226 = CARTESIAN_POINT('', (-3.26795, 3.16786248694788E-15, -83.));
#227 = CARTESIAN_POINT('', (-3.26795, 3.44541824310417E-15, -53.));
#228 = CARTESIAN_POINT('', (-3.26795, 3.26795, -83.));
#229 = CARTESIAN_POINT('', (-3.26795, 3.26795, -53.));
#230 = CARTESIAN_POINT('', (7.61190000141703E-16, 3.26795, -83.));
#231 = CARTESIAN_POINT('', (7.61190000141703E-16, 3.26795, -53.));
#232 = CARTESIAN_POINT('', (3.26795, 3.26795, -83.));
#233 = CARTESIAN_POINT('', (3.26795, 3.26795, -53.));
#234 = CARTESIAN_POINT('', (3.26795, 6.74037340117464E-16, -83.));
#235 = CARTESIAN_POINT('', (3.26795, 9.51593096273753E-16, -53.));
#236 = CARTESIAN_POINT('', (3.26795, -3.26795, -83.));
#237 = CARTESIAN_POINT('', (3.26795, -3.26795, -53.));
#238 = CARTESIAN_POINT('', (-1.33242669596136E-15, -3.26795, -83.));
#239 = CARTESIAN_POINT('', (-1.33242669596136E-15, -3.26795, -53.));
#240 = CARTESIAN_POINT('', (-3.26795, -3.26795, -83.));
#241 = CARTESIAN_POINT('', (-3.26795, -3.26795, -53.));
#242 = CARTESIAN_POINT('', (-3.26795, 3.16786248694788E-15, -83.));
#243 = CARTESIAN_POINT('', (-3.26795, 3.44541824310417E-15, -53.));
#244 = ADVANCED_FACE('', (#245, #256), #259, .T.);
#245 = FACE_OUTER_BOUND('', #246, .T.);
#246 = EDGE_LOOP('', (#247));
#247 = ORIENTED_EDGE('', *, *, #248, .F.);
#248 = EDGE_CURVE('', #249, #249, #251, .T.);
#249 = VERTEX_POINT('', #250);
#250 = CARTESIAN_POINT('', (-5., 3.55147571752732E-15, -53.));
#251 = CIRCLE('', #252, 5.);
#252 = AXIS2_PLACEMENT_3D('', #253, #254, #255);
#253 = CARTESIAN_POINT('', (-5.82867087928207E-16, 2.22044604925031E-16, -53.));
#254 = DIRECTION('', (0., 0., -1.));
#255 = DIRECTION('', (-1., 6.6588622252046E-16, 0.));
#256 = FACE_BOUND('', #257, .T.);
#257 = EDGE_LOOP('', (#258));
#258 = ORIENTED_EDGE('', *, *, #219, .T.);
#259 = B_SPLINE_SURFACE_WITH_KNOTS('', 1, 1, ((#260, #261), (#262, #263)), .UNSPECIFIED., .F., .F., .U., (2, 2), (2, 2), (2.77717459305202, 12.779174593052), (2.77717459305202, 12.779174593052), .UNSPECIFIED.);
#260 = CARTESIAN_POINT('', (5.001, -5.001, -53.));
#261 = CARTESIAN_POINT('', (-5.00100000000001, -5.001, -53.));
#262 = CARTESIAN_POINT('', (5.001, 5.001, -53.));
#263 = CARTESIAN_POINT('', (-5.001, 5.001, -53.));
#264 = ADVANCED_FACE('', (#265), #284, .T.);
#265 = FACE_OUTER_BOUND('', #266, .T.);
#266 = EDGE_LOOP('', (#267, #275, #276, #277));
#267 = ORIENTED_EDGE('', *, *, #268, .F.);
#268 = EDGE_CURVE('', #249, #269, #271, .T.);
#269 = VERTEX_POINT('', #270);
#270 = CARTESIAN_POINT('', (-5., 5.34864489527607E-15, -82.35));
#271 = LINE('', #272, #273);
#272 = CARTESIAN_POINT('', (-5., 3.55147571752732E-15, -53.));
#273 = VECTOR('', #274, 29.35);
#274 = DIRECTION('', (0., 1.79716917774875E-15, -29.35));
#275 = ORIENTED_EDGE('', *, *, #248, .T.);
#276 = ORIENTED_EDGE('', *, *, #268, .T.);
#277 = ORIENTED_EDGE('', *, *, #278, .F.);
#278 = EDGE_CURVE('', #269, #269, #279, .T.);
#279 = CIRCLE('', #280, 5.);
#280 = AXIS2_PLACEMENT_3D('', #281, #282, #283);
#281 = CARTESIAN_POINT('', (-5.82867087928207E-16, 1.99840144432528E-15, -82.35));
#282 = DIRECTION('', (0., 0., -1.));
#283 = DIRECTION('', (-1., 6.70048690190158E-16, 0.));
#284 = (
   BOUNDED_SURFACE ()
   B_SPLINE_SURFACE (2, 1, ((#285, #286), (#287, #288), (#289, #290), (#291, #292), (#293, #294), (#295, #296), (#297, #298), (#299, #300), (#301, #302)), .UNSPECIFIED., .T., .F., .U.)
   B_SPLINE_SURFACE_WITH_KNOTS ((3, 2, 2, 2, 3), (2, 2), (0., 7.85398163397448, 15.707963267949, 23.5619449019234, 31.4159265358979), (0., 1.), .UNSPECIFIED.)
   GEOMETRIC_REPRESENTATION_ITEM ()
   RATIONAL_B_SPLINE_SURFACE (((1., 1.), (0.707106781186548, 0.707106781186548), (1., 1.), (0.707106781186548, 0.707106781186548), (1., 1.), (0.707106781186548, 0.707106781186548), (1., 1.), (0.707106781186548, 0.707106781186548), (1., 1.)))
   REPRESENTATION_ITEM ('')
   SURFACE ()
);
#285 = CARTESIAN_POINT('', (-5., 3.55147571752732E-15, -53.));
#286 = CARTESIAN_POINT('', (-5., 6.32703327909021E-15, -82.35));
#287 = CARTESIAN_POINT('', (-4.99999999999999, 5., -53.));
#288 = CARTESIAN_POINT('', (-4.99999999999999, 5.00000000000001, -82.35));
#289 = CARTESIAN_POINT('', (7.26987248200667E-15, 5., -53.));
#290 = CARTESIAN_POINT('', (7.26987248200668E-15, 5., -82.35));
#291 = CARTESIAN_POINT('', (5.00000000000001, 4.99999999999999, -53.));
#292 = CARTESIAN_POINT('', (5.00000000000001, 4.99999999999999, -82.35));
#293 = CARTESIAN_POINT('', (5., -8.26822283615439E-15, -53.));
#294 = CARTESIAN_POINT('', (5., -5.4926652745915E-15, -82.35));
#295 = CARTESIAN_POINT('', (5., -5.00000000000001, -53.));
#296 = CARTESIAN_POINT('', (5., -5.00000000000001, -82.35));
#297 = CARTESIAN_POINT('', (-3.93750267210136E-15, -5., -53.));
#298 = CARTESIAN_POINT('', (-3.93750267210136E-15, -5., -82.35));
#299 = CARTESIAN_POINT('', (-5., -5., -53.));
#300 = CARTESIAN_POINT('', (-5., -4.99999999999999, -82.35));
#301 = CARTESIAN_POINT('', (-5., 3.55147571752732E-15, -53.));
#302 = CARTESIAN_POINT('', (-5., 6.32703327909021E-15, -82.35));
#303 = ADVANCED_FACE('', (#304), #315, .T.);
#304 = FACE_OUTER_BOUND('', #305, .T.);
#305 = EDGE_LOOP('', (#306, #312, #313, #314));
#306 = ORIENTED_EDGE('', *, *, #307, .F.);
#307 = EDGE_CURVE('', #269, #182, #308, .T.);
#308 = LINE('', #309, #310);
#309 = CARTESIAN_POINT('', (-5., 5.34864489527607E-15, -82.35));
#310 = VECTOR('', #311, 0.919238815542516);
#311 = DIRECTION('', (0.65, 0., -0.650000000000006));
#312 = ORIENTED_EDGE('', *, *, #278, .T.);
#313 = ORIENTED_EDGE('', *, *, #307, .T.);
#314 = ORIENTED_EDGE('', *, *, #181, .F.);
#315 = (
   BOUNDED_SURFACE ()
   B_SPLINE_SURFACE (2, 1, ((#316, #317), (#318, #319), (#320, #321), (#322, #323), (#324, #325), (#326, #327), (#328, #329), (#330, #331), (#332, #333)), .UNSPECIFIED., .T., .F., .U.)
   B_SPLINE_SURFACE_WITH_KNOTS ((3, 2, 2, 2, 3), (2, 2), (0., 0.25, 0.5, 0.75, 1.), (0., 1.), .UNSPECIFIED.)
   GEOMETRIC_REPRESENTATION_ITEM ()
   RATIONAL_B_SPLINE_SURFACE (((1., 1.), (0.707106781186548, 0.707106781186548), (1., 1.), (0.707106781186548, 0.707106781186548), (1., 1.), (0.707106781186548, 0.707106781186548), (1., 1.), (0.707106781186548, 0.707106781186548), (1., 1.)))
   REPRESENTATION_ITEM ('')
   SURFACE ()
);
#316 = CARTESIAN_POINT('', (-5., 5.34864489527607E-15, -82.35));
#317 = CARTESIAN_POINT('', (-4.35, 3.71074171098342E-15, -83.));
#318 = CARTESIAN_POINT('', (-5., 5.00000000000001, -82.35));
#319 = CARTESIAN_POINT('', (-4.35, 4.35, -83.));
#320 = CARTESIAN_POINT('', (1.58691403134343E-15, 5., -82.35));
#321 = CARTESIAN_POINT('', (1.32107949757326E-15, 4.35, -83.));
#322 = CARTESIAN_POINT('', (5., 5., -82.35));
#323 = CARTESIAN_POINT('', (4.35, 4.35, -83.));
#324 = CARTESIAN_POINT('', (5., 1.25888283727345E-15, -82.35));
#325 = CARTESIAN_POINT('', (4.35, 1.52648720521145E-16, -83.));
#326 = CARTESIAN_POINT('', (5., -5., -82.35));
#327 = CARTESIAN_POINT('', (4.35, -4.35, -83.));
#328 = CARTESIAN_POINT('', (-1.89052462708551E-15, -5., -82.35));
#329 = CARTESIAN_POINT('', (-1.70429213525992E-15, -4.35, -83.));
#330 = CARTESIAN_POINT('', (-5., -5., -82.35));
#331 = CARTESIAN_POINT('', (-4.35, -4.35, -83.));
#332 = CARTESIAN_POINT('', (-5., 5.34864489527607E-15, -82.35));
#333 = CARTESIAN_POINT('', (-4.35, 3.71074171098342E-15, -83.));
#334 = PRESENTATION_STYLE_ASSIGNMENT((#335));
#335 = SURFACE_STYLE_USAGE(.POSITIVE., #336);
#336 = SURFACE_SIDE_STYLE('', (#337));
#337 = SURFACE_STYLE_FILL_AREA(#338);
#338 = FILL_AREA_STYLE('', (#339));
#339 = FILL_AREA_STYLE_COLOUR('', #340);
#340 = COLOUR_RGB('', 0.8, 0.8, 0.8);
#341 = STYLED_ITEM('', (#334), #175);
#342 = TRIMMED_CURVE('cutting part line', #343, (#347), (#348), .T., .CARTESIAN.);
#343 = LINE('', #344, #345);
#344 = CARTESIAN_POINT('', (3.26795, -3.84562669383153E-15, -53.));
#345 = VECTOR('', #346, 1.73205);
#346 = DIRECTION('', (1.73205, -3.18172423269468E-16, 0.));
#347 = CARTESIAN_POINT('', (3.26795, -3.84562669383153E-15, -53.));
#348 = CARTESIAN_POINT('', (5., -4.163799117101E-15, -53.));
#349 = TRIMMED_CURVE('cutting part line', #350, (#354), (#355), .T., .CARTESIAN.);
#350 = LINE('', #351, #352);
#351 = CARTESIAN_POINT('', (5., -4.163799117101E-15, -53.));
#352 = VECTOR('', #353, 29.35);
#353 = DIRECTION('', (0., -1.79716917774875E-15, -29.35));
#354 = CARTESIAN_POINT('', (5., -4.163799117101E-15, -53.));
#355 = CARTESIAN_POINT('', (5., -5.96096829484975E-15, -82.35));
#356 = TRIMMED_CURVE('cutting part line', #357, (#361), (#362), .T., .CARTESIAN.);
#357 = LINE('', #358, #359);
#358 = CARTESIAN_POINT('', (5., -5.96096829484975E-15, -82.35));
#359 = VECTOR('', #360, 0.919238815542516);
#360 = DIRECTION('', (-0.65, 7.9602041944578E-17, -0.650000000000006));
#361 = CARTESIAN_POINT('', (5., -5.96096829484975E-15, -82.35));
#362 = CARTESIAN_POINT('', (4.35, -5.88136625290517E-15, -83.));
#363 = TRIMMED_CURVE('cutting part line', #364, (#368), (#369), .T., .CARTESIAN.);
#364 = LINE('', #365, #366);
#365 = CARTESIAN_POINT('', (4.35, -5.88136625290517E-15, -83.));
#366 = VECTOR('', #367, 1.08205);
#367 = DIRECTION('', (-1.08205, 1.98769360352609E-16, 0.));
#368 = CARTESIAN_POINT('', (4.35, -5.88136625290517E-15, -83.));
#369 = CARTESIAN_POINT('', (3.26795, -5.68259689255256E-15, -83.));
#370 = TRIMMED_CURVE('cutting part line', #371, (#375), (#376), .T., .CARTESIAN.);
#371 = LINE('', #372, #373);
#372 = CARTESIAN_POINT('', (3.26795, -5.68259689255256E-15, -83.));
#373 = VECTOR('', #374, 30.);
#374 = DIRECTION('', (0., 1.83697019872103E-15, 30.));
#375 = CARTESIAN_POINT('', (3.26795, -5.68259689255256E-15, -83.));
#376 = CARTESIAN_POINT('', (3.26795, -3.84562669383153E-15, -53.));
#377 = COMPOSITE_CURVE('cutting part line', (#378, #379, #380, #381, #382), .U.);
#378 = COMPOSITE_CURVE_SEGMENT(.CONTINUOUS., .T., #342);
#379 = COMPOSITE_CURVE_SEGMENT(.CONTINUOUS., .T., #349);
#380 = COMPOSITE_CURVE_SEGMENT(.CONTINUOUS., .T., #356);
#381 = COMPOSITE_CURVE_SEGMENT(.CONTINUOUS., .T., #363);
#382 = COMPOSITE_CURVE_SEGMENT(.CONTINUOUS., .T., #370);
#383 = GEOMETRIC_SET('', (#377, #426));
#384 = PRESENTATION_STYLE_ASSIGNMENT((#385));
#385 = CURVE_STYLE('', #387, POSITIVE_LENGTH_MEASURE(1.E-6), #386);
#386 = COLOUR_RGB('', 0., 0., 1.);
#387 = DRAUGHTING_PRE_DEFINED_CURVE_FONT('continuous');
#388 = STYLED_ITEM('', (#384), #377);
#389 = PRESENTATION_STYLE_ASSIGNMENT((#390));
#390 = CURVE_STYLE('', #392, POSITIVE_LENGTH_MEASURE(1.E-6), #391);
#391 = COLOUR_RGB('', 0., 0., 1.);
#392 = DRAUGHTING_PRE_DEFINED_CURVE_FONT('continuous');
#393 = OVER_RIDING_STYLED_ITEM('', (#389), #342, #388);
#394 = PRESENTATION_STYLE_ASSIGNMENT((#395));
#395 = CURVE_STYLE('', #397, POSITIVE_LENGTH_MEASURE(1.E-6), #396);
#396 = COLOUR_RGB('', 0., 0., 1.);
#397 = DRAUGHTING_PRE_DEFINED_CURVE_FONT('continuous');
#398 = OVER_RIDING_STYLED_ITEM('', (#394), #349, #388);
#399 = PRESENTATION_STYLE_ASSIGNMENT((#400));
#400 = CURVE_STYLE('', #402, POSITIVE_LENGTH_MEASURE(1.E-6), #401);
#401 = COLOUR_RGB('', 0., 0., 1.);
#402 = DRAUGHTING_PRE_DEFINED_CURVE_FONT('continuous');
#403 = OVER_RIDING_STYLED_ITEM('', (#399), #356, #388);
#404 = PRESENTATION_STYLE_ASSIGNMENT((#405));
#405 = CURVE_STYLE('', #407, POSITIVE_LENGTH_MEASURE(1.E-6), #406);
#406 = COLOUR_RGB('', 0., 0., 1.);
#407 = DRAUGHTING_PRE_DEFINED_CURVE_FONT('continuous');
#408 = OVER_RIDING_STYLED_ITEM('', (#404), #363, #388);
#409 = PRESENTATION_STYLE_ASSIGNMENT((#410));
#410 = CURVE_STYLE('', #412, POSITIVE_LENGTH_MEASURE(1.E-6), #411);
#411 = COLOUR_RGB('', 0., 0., 1.);
#412 = DRAUGHTING_PRE_DEFINED_CURVE_FONT('continuous');
#413 = OVER_RIDING_STYLED_ITEM('', (#409), #370, #388);
#414 = AXIS2_PLACEMENT_3D('CIP', #415, #416, #417);
#415 = CARTESIAN_POINT('', (3.11200154902335E-31, 5.08228421646152E-15, -83.));
#416 = DIRECTION('', (-3.74939945665465E-33, -6.12323399573677E-17, 1.));
#417 = DIRECTION('', (1., -6.12323399573677E-17, 0.));
#418 = AXIS2_PLACEMENT_3D('MCS', #419, #420, #421);
#419 = CARTESIAN_POINT('', (1.49975978266186E-31, 2.44929359829471E-15, -40.));
#420 = DIRECTION('', (-3.74939945665465E-33, -6.12323399573677E-17, 1.));
#421 = DIRECTION('', (1., -6.12323399573677E-17, 0.));
#422 = AXIS2_PLACEMENT_3D('PCS', #423, #424, #425);
#423 = CARTESIAN_POINT('', (0., 0., 0.));
#424 = DIRECTION('', (0., 0., 1.));
#425 = DIRECTION('', (1., 0., 0.));
#426 = CARTESIAN_POINT('CRP', (5., 0., -83.));
#427 = (
   GEOMETRIC_REPRESENTATION_CONTEXT (3)
   GLOBAL_UNCERTAINTY_ASSIGNED_CONTEXT ((#429))
   GLOBAL_UNIT_ASSIGNED_CONTEXT ((#428, #430, #431))
   REPRESENTATION_CONTEXT ('', '3D')
);
#428 = (
   LENGTH_UNIT ()
   NAMED_UNIT (*)
   SI_UNIT (.MILLI., .METRE.)
);
#429 = UNCERTAINTY_MEASURE_WITH_UNIT(LENGTH_MEASURE(1.E-6), #428, 'DISTANCE_ACCURACY_VALUE', '');
#430 = (
   NAMED_UNIT (*)
   SI_UNIT ($, .STERADIAN.)
   SOLID_ANGLE_UNIT ()
);
#431 = (
   NAMED_UNIT (*)
   PLANE_ANGLE_UNIT ()
   SI_UNIT ($, .RADIAN.)
);
#432 = SHAPE_REPRESENTATION('', (), #427);
#433 = PRODUCT_DEFINITION_SHAPE('', '', #434);
#434 = PRODUCT_DEFINITION('', '', #437, #441);
#435 = APPLICATION_CONTEXT('configuration controlled 3D designs of mechanical parts and assemblies');
#436 = APPLICATION_PROTOCOL_DEFINITION('International Standard', 'automotive_design', 2002, #435);
#437 = PRODUCT_DEFINITION_FORMATION_WITH_SPECIFIED_SOURCE('', '', #438, .NOT_KNOWN.);
#438 = PRODUCT('NONE', 'R217.15C100200AK30N 1630', '', (#439));
#439 = PRODUCT_CONTEXT('', #435, 'mechanical');
#440 = PRODUCT_RELATED_PRODUCT_CATEGORY('detail', '', (#438));
#441 = PRODUCT_DEFINITION_CONTEXT('part definition', #435, 'design');
#442 = SHAPE_DEFINITION_REPRESENTATION(#433, #432);
#443 = CONSTRUCTIVE_GEOMETRY_REPRESENTATION('supplemental geometry', (#414, #418, #422), #427);
#444 = CONSTRUCTIVE_GEOMETRY_REPRESENTATION_RELATIONSHIP('', '', #432, #443);
#445 = SHAPE_REPRESENTATION_RELATIONSHIP('', '', #432, #446);
#446 = SHAPE_REPRESENTATION('', (#383), #427);
#447 = SHAPE_REPRESENTATION_RELATIONSHIP('', '', #432, #448);
#448 = ADVANCED_BREP_SHAPE_REPRESENTATION('', (#1, #175), #427);
ENDSEC;
END-ISO-10303-21;
