ISO-10303-21;
HEADER;
FILE_DESCRIPTION(('STEP'), '1');
FILE_NAME('C:\\Users\\ds2002\\OneDrive - Sandvik\\HomeShare\\Documents\\Batchrepair\\CorSRT2\\NEW_MILTH_SLD\\Output\\RepairError\\MOD000000000000000020084663200000.stp', '2019-01-04T08:50:51', (''), (''), 'Express v3.0.0.0', 'Express Tool', 'Unknown');
FILE_SCHEMA(('AUTOMOTIVE_DESIGN'));
ENDSEC;

DATA;
#1 = MANIFOLD_SOLID_BREP('NOCUT', #2);
#2 = CLOSED_SHELL('', (#3, #20, #67, #106, #145, #154, #174));
#3 = ADVANCED_FACE('', (#4), #15, .T.);
#4 = FACE_OUTER_BOUND('', #5, .T.);
#5 = EDGE_LOOP('', (#6));
#6 = ORIENTED_EDGE('', *, *, #7, .T.);
#7 = EDGE_CURVE('', #8, #8, #10, .T.);
#8 = VERTEX_POINT('', #9);
#9 = CARTESIAN_POINT('', (-8.26795, 6.75196460080202E-15, -102.));
#10 = CIRCLE('', #11, 8.26795);
#11 = AXIS2_PLACEMENT_3D('', #12, #13, #14);
#12 = CARTESIAN_POINT('', (-1.02695629777827E-15, 1.08801856413265E-14, -102.));
#13 = DIRECTION('', (2.92090896646346E-30, -5.84996032242576E-15, -1.));
#14 = DIRECTION('', (-1., -4.99304064553428E-16, 0.));
#15 = B_SPLINE_SURFACE_WITH_KNOTS('', 1, 1, ((#16, #17), (#18, #19)), .UNSPECIFIED., .F., .F., .U., (2, 2), (2, 2), (0.124184090909091, 0.875815909090909), (0.124184090909091, 0.875815909090909), .UNSPECIFIED.);
#16 = CARTESIAN_POINT('', (8.26795, -8.26794999999999, -102.));
#17 = CARTESIAN_POINT('', (8.26795, 8.26795000000001, -102.));
#18 = CARTESIAN_POINT('', (-8.26795, -8.26794999999999, -102.));
#19 = CARTESIAN_POINT('', (-8.26795, 8.26795000000001, -102.));
#20 = ADVANCED_FACE('', (#21), #48, .T.);
#21 = FACE_OUTER_BOUND('', #22, .T.);
#22 = EDGE_LOOP('', (#23, #33, #40, #41));
#23 = ORIENTED_EDGE('', *, *, #24, .F.);
#24 = EDGE_CURVE('', #25, #27, #29, .T.);
#25 = VERTEX_POINT('', #26);
#26 = CARTESIAN_POINT('', (-10., 3.91274652327579E-15, -53.9));
#27 = VERTEX_POINT('', #28);
#28 = CARTESIAN_POINT('', (-10., 4.71489017671731E-15, -67.));
#29 = LINE('', #30, #31);
#30 = CARTESIAN_POINT('', (-10., 3.91274652327579E-15, -53.9));
#31 = VECTOR('', #32, 13.1);
#32 = DIRECTION('', (0., 8.0214365344152E-16, -13.1));
#33 = ORIENTED_EDGE('', *, *, #34, .T.);
#34 = EDGE_CURVE('', #25, #25, #35, .T.);
#35 = CIRCLE('', #36, 10.);
#36 = AXIS2_PLACEMENT_3D('', #37, #38, #39);
#37 = CARTESIAN_POINT('', (-1.22124532708767E-15, -3.10862446895044E-15, -53.9));
#38 = DIRECTION('', (-1.69801955375289E-30, -2.41835897238995E-15, -1.));
#39 = DIRECTION('', (-1., 7.02137099222623E-16, 0.));
#40 = ORIENTED_EDGE('', *, *, #24, .T.);
#41 = ORIENTED_EDGE('', *, *, #42, .F.);
#42 = EDGE_CURVE('', #27, #27, #43, .T.);
#43 = CIRCLE('', #44, 10.);
#44 = AXIS2_PLACEMENT_3D('', #45, #46, #47);
#45 = CARTESIAN_POINT('', (-3.77475828372553E-15, 3.10862446895044E-15, -67.));
#46 = DIRECTION('', (7.76905417284076E-31, 4.83671794477998E-15, -1.));
#47 = DIRECTION('', (-1., 1.60626570776687E-16, 0.));
#48 = (
   BOUNDED_SURFACE ()
   B_SPLINE_SURFACE (2, 1, ((#49, #50), (#51, #52), (#53, #54), (#55, #56), (#57, #58), (#59, #60), (#61, #62), (#63, #64), (#65, #66)), .UNSPECIFIED., .T., .F., .U.)
   B_SPLINE_SURFACE_WITH_KNOTS ((3, 2, 2, 2, 3), (2, 2), (0., 15.707963267949, 31.415926535898, 47.1238898038469, 62.8318530717959), (0., 1.), .UNSPECIFIED.)
   GEOMETRIC_REPRESENTATION_ITEM ()
   RATIONAL_B_SPLINE_SURFACE (((1., 1.), (0.707106781186548, 0.707106781186548), (1., 1.), (0.707106781186548, 0.707106781186548), (1., 1.), (0.707106781186548, 0.707106781186548), (1., 1.), (0.707106781186548, 0.707106781186548), (1., 1.)))
   REPRESENTATION_ITEM ('')
   SURFACE ()
);
#49 = CARTESIAN_POINT('', (-10., 3.91274652327579E-15, -53.9));
#50 = CARTESIAN_POINT('', (-9.99999999999999, 7.46546020207629E-15, -67.));
#51 = CARTESIAN_POINT('', (-10., 10., -53.9));
#52 = CARTESIAN_POINT('', (-9.99999999999999, 10., -67.));
#53 = CARTESIAN_POINT('', (2.27346682592384E-15, 10., -53.9));
#54 = CARTESIAN_POINT('', (1.15815766643812E-14, 10., -67.));
#55 = CARTESIAN_POINT('', (10., 10., -53.9));
#56 = CARTESIAN_POINT('', (10., 10., -67.));
#57 = CARTESIAN_POINT('', (10., -3.57627814382856E-15, -53.9));
#58 = CARTESIAN_POINT('', (10., -2.35644650280713E-17, -67.));
#59 = CARTESIAN_POINT('', (10., -10., -53.9));
#60 = CARTESIAN_POINT('', (10., -10., -67.));
#61 = CARTESIAN_POINT('', (-3.99091104203315E-15, -10., -53.9));
#62 = CARTESIAN_POINT('', (5.31719879642416E-15, -10., -67.));
#63 = CARTESIAN_POINT('', (-10., -10., -53.9));
#64 = CARTESIAN_POINT('', (-9.99999999999999, -9.99999999999999, -67.));
#65 = CARTESIAN_POINT('', (-10., 3.91274652327579E-15, -53.9));
#66 = CARTESIAN_POINT('', (-9.99999999999999, 7.46546020207629E-15, -67.));
#67 = ADVANCED_FACE('', (#68), #87, .T.);
#68 = FACE_OUTER_BOUND('', #69, .T.);
#69 = EDGE_LOOP('', (#70, #78, #85, #86));
#70 = ORIENTED_EDGE('', *, *, #71, .T.);
#71 = EDGE_CURVE('', #25, #72, #74, .T.);
#72 = VERTEX_POINT('', #73);
#73 = CARTESIAN_POINT('', (-10., 6.73555739531044E-16, -1.));
#74 = LINE('', #75, #76);
#75 = CARTESIAN_POINT('', (-10., 3.91274652327579E-15, -53.9));
#76 = VECTOR('', #77, 52.9);
#77 = DIRECTION('', (0., -3.23919078374475E-15, 52.9));
#78 = ORIENTED_EDGE('', *, *, #79, .T.);
#79 = EDGE_CURVE('', #72, #72, #80, .T.);
#80 = CIRCLE('', #81, 10.);
#81 = AXIS2_PLACEMENT_3D('', #82, #83, #84);
#82 = CARTESIAN_POINT('', (-3.10862446895044E-15, -3.99680288865056E-15, -1.));
#83 = DIRECTION('', (1.11022302462516E-17, 3.94546482371774E-17, -1.));
#84 = DIRECTION('', (-1., 4.67035862818161E-16, -1.11022302462516E-17));
#85 = ORIENTED_EDGE('', *, *, #71, .F.);
#86 = ORIENTED_EDGE('', *, *, #34, .F.);
#87 = (
   BOUNDED_SURFACE ()
   B_SPLINE_SURFACE (1, 2, ((#88, #89, #90, #91, #92, #93, #94, #95, #96), (#97, #98, #99, #100, #101, #102, #103, #104, #105)), .UNSPECIFIED., .F., .T., .U.)
   B_SPLINE_SURFACE_WITH_KNOTS ((2, 2), (3, 2, 2, 2, 3), (0., 1.), (0., 15.707963267949, 31.415926535898, 47.1238898038469, 62.8318530717959), .UNSPECIFIED.)
   GEOMETRIC_REPRESENTATION_ITEM ()
   RATIONAL_B_SPLINE_SURFACE (((1., 0.707106781186548, 1., 0.707106781186548, 1., 0.707106781186548, 1., 0.707106781186548, 1.), (1., 0.707106781186548, 1., 0.707106781186548, 1., 0.707106781186548, 1., 0.707106781186548, 1.)))
   REPRESENTATION_ITEM ('')
   SURFACE ()
);
#88 = CARTESIAN_POINT('', (-10., 4.22626941833155E-15, -53.9));
#89 = CARTESIAN_POINT('', (-10., 10., -53.9));
#90 = CARTESIAN_POINT('', (1.53671873968421E-15, 10., -53.9));
#91 = CARTESIAN_POINT('', (10., 10., -53.9));
#92 = CARTESIAN_POINT('', (10., -3.88980103888432E-15, -53.9));
#93 = CARTESIAN_POINT('', (10., -10., -53.9));
#94 = CARTESIAN_POINT('', (-5.35470491838431E-15, -10., -53.9));
#95 = CARTESIAN_POINT('', (-10., -10., -53.9));
#96 = CARTESIAN_POINT('', (-10., 4.22626941833155E-15, -53.9));
#97 = CARTESIAN_POINT('', (-10., 6.73555739531046E-16, -1.));
#98 = CARTESIAN_POINT('', (-10., 10., -0.999999999999999));
#99 = CARTESIAN_POINT('', (9.49410759657495E-16, 10., -0.999999999999999));
#100 = CARTESIAN_POINT('', (10., 9.99999999999999, -0.999999999999999));
#101 = CARTESIAN_POINT('', (10., -7.44251471768482E-15, -1.));
#102 = CARTESIAN_POINT('', (9.99999999999999, -10., -1.));
#103 = CARTESIAN_POINT('', (-5.94201289841102E-15, -10., -1.));
#104 = CARTESIAN_POINT('', (-10., -10., -1.));
#105 = CARTESIAN_POINT('', (-10., 6.73555739531046E-16, -1.));
#106 = ADVANCED_FACE('', (#107), #126, .T.);
#107 = FACE_OUTER_BOUND('', #108, .T.);
#108 = EDGE_LOOP('', (#109, #117, #124, #125));
#109 = ORIENTED_EDGE('', *, *, #110, .T.);
#110 = EDGE_CURVE('', #72, #111, #113, .T.);
#111 = VERTEX_POINT('', #112);
#112 = CARTESIAN_POINT('', (-9., 5.51091059616309E-16, 0.));
#113 = LINE('', #114, #115);
#114 = CARTESIAN_POINT('', (-10., 6.73555739531044E-16, -1.));
#115 = VECTOR('', #116, 1.4142135623731);
#116 = DIRECTION('', (1., -1.22464679914735E-16, 1.));
#117 = ORIENTED_EDGE('', *, *, #118, .T.);
#118 = EDGE_CURVE('', #111, #111, #119, .T.);
#119 = CIRCLE('', #120, 9.);
#120 = AXIS2_PLACEMENT_3D('', #121, #122, #123);
#121 = CARTESIAN_POINT('', (4.57966997657877E-15, 0., 0.));
#122 = DIRECTION('', (3.74939945665464E-33, 6.12323399573677E-17, -1.));
#123 = DIRECTION('', (-1., 6.12323399573676E-17, 0.));
#124 = ORIENTED_EDGE('', *, *, #110, .F.);
#125 = ORIENTED_EDGE('', *, *, #79, .F.);
#126 = (
   BOUNDED_SURFACE ()
   B_SPLINE_SURFACE (1, 2, ((#127, #128, #129, #130, #131, #132, #133, #134, #135), (#136, #137, #138, #139, #140, #141, #142, #143, #144)), .UNSPECIFIED., .F., .T., .U.)
   B_SPLINE_SURFACE_WITH_KNOTS ((2, 2), (3, 2, 2, 2, 3), (0., 1.), (0., 0.25, 0.5, 0.75, 1.), .UNSPECIFIED.)
   GEOMETRIC_REPRESENTATION_ITEM ()
   RATIONAL_B_SPLINE_SURFACE (((1., 0.707106781186548, 1., 0.707106781186548, 1., 0.707106781186548, 1., 0.707106781186548, 1.), (1., 0.707106781186548, 1., 0.707106781186548, 1., 0.707106781186548, 1., 0.707106781186548, 1.)))
   REPRESENTATION_ITEM ('')
   SURFACE ()
);
#127 = CARTESIAN_POINT('', (-9.99999999999999, -5.38288093340217E-15, -1.));
#128 = CARTESIAN_POINT('', (-9.99999999999999, 9.99999999999999, -1.00000000000006));
#129 = CARTESIAN_POINT('', (4.57966997657877E-15, 9.99999999999999, -1.00000000000006));
#130 = CARTESIAN_POINT('', (10., 9.99999999999999, -1.00000000000006));
#131 = CARTESIAN_POINT('', (10., -5.38288093340217E-15, -1.));
#132 = CARTESIAN_POINT('', (10., -10., -0.99999999999994));
#133 = CARTESIAN_POINT('', (5.80431677572612E-15, -10., -0.99999999999994));
#134 = CARTESIAN_POINT('', (-9.99999999999999, -10., -0.99999999999994));
#135 = CARTESIAN_POINT('', (-9.99999999999999, -5.38288093340217E-15, -1.));
#136 = CARTESIAN_POINT('', (-9., 5.51091059616309E-16, 0.));
#137 = CARTESIAN_POINT('', (-9., 9., -5.39568389967826E-14));
#138 = CARTESIAN_POINT('', (4.57966997657877E-15, 9., -5.39568389967826E-14));
#139 = CARTESIAN_POINT('', (9.00000000000001, 9., -5.39568389967826E-14));
#140 = CARTESIAN_POINT('', (9.00000000000001, 5.51091059616309E-16, -6.60780701695189E-30));
#141 = CARTESIAN_POINT('', (9.00000000000001, -9., 5.39568389967826E-14));
#142 = CARTESIAN_POINT('', (5.68185209581139E-15, -9., 5.39568389967826E-14));
#143 = CARTESIAN_POINT('', (-8.99999999999999, -9., 5.39568389967826E-14));
#144 = CARTESIAN_POINT('', (-9., 5.51091059616309E-16, 0.));
#145 = ADVANCED_FACE('', (#146), #149, .T.);
#146 = FACE_OUTER_BOUND('', #147, .T.);
#147 = EDGE_LOOP('', (#148));
#148 = ORIENTED_EDGE('', *, *, #118, .F.);
#149 = B_SPLINE_SURFACE_WITH_KNOTS('', 1, 1, ((#150, #151), (#152, #153)), .UNSPECIFIED., .F., .F., .U., (2, 2), (2, 2), (0.0454545454545454, 0.954545454545454), (0.0454545454545454, 0.954545454545454), .UNSPECIFIED.);
#150 = CARTESIAN_POINT('', (9., -9., -5.51091059616309E-16));
#151 = CARTESIAN_POINT('', (-9., -9., -5.51091059616309E-16));
#152 = CARTESIAN_POINT('', (9., 9., 5.51091059616309E-16));
#153 = CARTESIAN_POINT('', (-9., 9., 5.51091059616309E-16));
#154 = ADVANCED_FACE('', (#155, #158), #169, .T.);
#155 = FACE_OUTER_BOUND('', #156, .T.);
#156 = EDGE_LOOP('', (#157));
#157 = ORIENTED_EDGE('', *, *, #42, .T.);
#158 = FACE_BOUND('', #159, .T.);
#159 = EDGE_LOOP('', (#160));
#160 = ORIENTED_EDGE('', *, *, #161, .F.);
#161 = EDGE_CURVE('', #162, #162, #164, .T.);
#162 = VERTEX_POINT('', #163);
#163 = CARTESIAN_POINT('', (-8.26795, 4.60883270229415E-15, -67.));
#164 = CIRCLE('', #165, 8.26795);
#165 = AXIS2_PLACEMENT_3D('', #166, #167, #168);
#166 = CARTESIAN_POINT('', (-8.32667268468867E-16, 6.21724893790088E-15, -67.));
#167 = DIRECTION('', (0., 0., -1.));
#168 = DIRECTION('', (-1., -1.94536279925099E-16, 0.));
#169 = B_SPLINE_SURFACE_WITH_KNOTS('', 1, 1, ((#170, #171), (#172, #173)), .UNSPECIFIED., .F., .F., .U., (2, 2), (2, 2), (0.0454545454545452, 0.954545454545455), (0.0454545454545452, 0.954545454545455), .UNSPECIFIED.);
#170 = CARTESIAN_POINT('', (10., -10., -67.));
#171 = CARTESIAN_POINT('', (10., 10., -67.));
#172 = CARTESIAN_POINT('', (-10., -10., -67.));
#173 = CARTESIAN_POINT('', (-10., 10., -67.));
#174 = ADVANCED_FACE('', (#175), #186, .T.);
#175 = FACE_OUTER_BOUND('', #176, .T.);
#176 = EDGE_LOOP('', (#177, #183, #184, #185));
#177 = ORIENTED_EDGE('', *, *, #178, .T.);
#178 = EDGE_CURVE('', #8, #162, #179, .T.);
#179 = LINE('', #180, #181);
#180 = CARTESIAN_POINT('', (-8.26795, 6.75196460080202E-15, -102.));
#181 = VECTOR('', #182, 35.);
#182 = DIRECTION('', (0., -2.14313189850787E-15, 35.));
#183 = ORIENTED_EDGE('', *, *, #161, .T.);
#184 = ORIENTED_EDGE('', *, *, #178, .F.);
#185 = ORIENTED_EDGE('', *, *, #7, .F.);
#186 = (
   BOUNDED_SURFACE ()
   B_SPLINE_SURFACE (1, 2, ((#187, #188, #189, #190, #191, #192, #193, #194, #195), (#196, #197, #198, #199, #200, #201, #202, #203, #204)), .UNSPECIFIED., .F., .T., .U.)
   B_SPLINE_SURFACE_WITH_KNOTS ((2, 2), (3, 2, 2, 2, 3), (0., 1.), (0., 12.9872654901239, 25.9745309802478, 38.9617964703716, 51.9490619604955), .UNSPECIFIED.)
   GEOMETRIC_REPRESENTATION_ITEM ()
   RATIONAL_B_SPLINE_SURFACE (((1., 0.707106781186548, 1., 0.707106781186548, 1., 0.707106781186548, 1., 0.707106781186548, 1.), (1., 0.707106781186548, 1., 0.707106781186548, 1., 0.707106781186548, 1., 0.707106781186548, 1.)))
   REPRESENTATION_ITEM ('')
   SURFACE ()
);
#187 = CARTESIAN_POINT('', (-8.26795, 9.27176940571981E-15, -102.));
#188 = CARTESIAN_POINT('', (-8.26795, 8.26795000000001, -102.));
#189 = CARTESIAN_POINT('', (-2.94734942922611E-15, 8.26795000000001, -102.));
#190 = CARTESIAN_POINT('', (8.26795, 8.26795000000001, -102.));
#191 = CARTESIAN_POINT('', (8.26795, 1.35011337272343E-14, -102.));
#192 = CARTESIAN_POINT('', (8.26795, -8.26794999999999, -102.));
#193 = CARTESIAN_POINT('', (2.29454674258941E-15, -8.26794999999999, -102.));
#194 = CARTESIAN_POINT('', (-8.26795, -8.26794999999999, -102.));
#195 = CARTESIAN_POINT('', (-8.26795, 9.27176940571981E-15, -102.));
#196 = CARTESIAN_POINT('', (-8.26795, 4.60883270229415E-15, -67.));
#197 = CARTESIAN_POINT('', (-8.26795, 8.26795, -67.));
#198 = CARTESIAN_POINT('', (-2.94734942922611E-15, 8.26795000000001, -67.));
#199 = CARTESIAN_POINT('', (8.26795, 8.26795000000001, -67.));
#200 = CARTESIAN_POINT('', (8.26795, 8.83819702380864E-15, -67.));
#201 = CARTESIAN_POINT('', (8.26795, -8.26794999999999, -67.));
#202 = CARTESIAN_POINT('', (2.29454674258941E-15, -8.26795, -67.));
#203 = CARTESIAN_POINT('', (-8.26795, -8.26795, -67.));
#204 = CARTESIAN_POINT('', (-8.26795, 4.60883270229415E-15, -67.));
#205 = DRAUGHTING_MODEL('', (#213, #351, #390, #395, #400, #405, #410), #424);
#206 = PRESENTATION_STYLE_ASSIGNMENT((#207));
#207 = SURFACE_STYLE_USAGE(.POSITIVE., #208);
#208 = SURFACE_SIDE_STYLE('', (#209));
#209 = SURFACE_STYLE_FILL_AREA(#210);
#210 = FILL_AREA_STYLE('', (#211));
#211 = FILL_AREA_STYLE_COLOUR('', #212);
#212 = COLOUR_RGB('', 0.50196078431373, 0.50196078431373, 0.50196078431373);
#213 = STYLED_ITEM('', (#206), #1);
#214 = MANIFOLD_SOLID_BREP('CUT', #215);
#215 = CLOSED_SHELL('', (#216, #263, #288, #327));
#216 = ADVANCED_FACE('', (#217), #244, .T.);
#217 = FACE_OUTER_BOUND('', #218, .T.);
#218 = EDGE_LOOP('', (#219, #229, #236, #237));
#219 = ORIENTED_EDGE('', *, *, #220, .F.);
#220 = EDGE_CURVE('', #221, #223, #225, .T.);
#221 = VERTEX_POINT('', #222);
#222 = CARTESIAN_POINT('', (-10., 4.71489017671731E-15, -67.));
#223 = VERTEX_POINT('', #224);
#224 = CARTESIAN_POINT('', (-10., 6.85802207522518E-15, -102.));
#225 = LINE('', #226, #227);
#226 = CARTESIAN_POINT('', (-10., 4.71489017671731E-15, -67.));
#227 = VECTOR('', #228, 35.);
#228 = DIRECTION('', (0., 2.14313189850787E-15, -35.));
#229 = ORIENTED_EDGE('', *, *, #230, .T.);
#230 = EDGE_CURVE('', #221, #221, #231, .T.);
#231 = CIRCLE('', #232, 10.);
#232 = AXIS2_PLACEMENT_3D('', #233, #234, #235);
#233 = CARTESIAN_POINT('', (-1.11022302462516E-16, -9.76996261670138E-15, -67.));
#234 = DIRECTION('', (0., 0., -1.));
#235 = DIRECTION('', (-1., 1.44848527934187E-15, 0.));
#236 = ORIENTED_EDGE('', *, *, #220, .T.);
#237 = ORIENTED_EDGE('', *, *, #238, .F.);
#238 = EDGE_CURVE('', #223, #223, #239, .T.);
#239 = CIRCLE('', #240, 10.);
#240 = AXIS2_PLACEMENT_3D('', #241, #242, #243);
#241 = CARTESIAN_POINT('', (-3.71924713249427E-15, 4.88498130835069E-15, -102.));
#242 = DIRECTION('', (0., 0., -1.));
#243 = DIRECTION('', (-1., 1.97304076687449E-16, 0.));
#244 = (
   BOUNDED_SURFACE ()
   B_SPLINE_SURFACE (2, 1, ((#245, #246), (#247, #248), (#249, #250), (#251, #252), (#253, #254), (#255, #256), (#257, #258), (#259, #260), (#261, #262)), .UNSPECIFIED., .T., .F., .U.)
   B_SPLINE_SURFACE_WITH_KNOTS ((3, 2, 2, 2, 3), (2, 2), (0., 15.707963267949, 31.415926535898, 47.1238898038469, 62.8318530717959), (0., 1.), .UNSPECIFIED.)
   GEOMETRIC_REPRESENTATION_ITEM ()
   RATIONAL_B_SPLINE_SURFACE (((1., 1.), (0.707106781186548, 0.707106781186548), (1., 1.), (0.707106781186548, 0.707106781186548), (1., 1.), (0.707106781186548, 0.707106781186548), (1., 1.), (0.707106781186548, 0.707106781186548), (1., 1.)))
   REPRESENTATION_ITEM ('')
   SURFACE ()
);
#245 = CARTESIAN_POINT('', (-10., 4.71489017671731E-15, -67.));
#246 = CARTESIAN_POINT('', (-10., 8.9337376702929E-15, -102.));
#247 = CARTESIAN_POINT('', (-10., 10., -67.));
#248 = CARTESIAN_POINT('', (-10., 10., -102.));
#249 = CARTESIAN_POINT('', (1.88212072789332E-15, 10., -67.));
#250 = CARTESIAN_POINT('', (1.88212072789332E-15, 10., -102.));
#251 = CARTESIAN_POINT('', (10., 10., -67.));
#252 = CARTESIAN_POINT('', (10., 10., -102.));
#253 = CARTESIAN_POINT('', (10., -2.15797574801977E-15, -67.));
#254 = CARTESIAN_POINT('', (10., 2.06087174555582E-15, -102.));
#255 = CARTESIAN_POINT('', (10., -10., -67.));
#256 = CARTESIAN_POINT('', (10., -10., -102.));
#257 = CARTESIAN_POINT('', (-3.76609839769641E-15, -10., -67.));
#258 = CARTESIAN_POINT('', (-3.76609839769641E-15, -9.99999999999999, -102.));
#259 = CARTESIAN_POINT('', (-10., -10., -67.));
#260 = CARTESIAN_POINT('', (-10., -9.99999999999999, -102.));
#261 = CARTESIAN_POINT('', (-10., 4.71489017671731E-15, -67.));
#262 = CARTESIAN_POINT('', (-10., 8.9337376702929E-15, -102.));
#263 = ADVANCED_FACE('', (#264), #283, .T.);
#264 = FACE_OUTER_BOUND('', #265, .T.);
#265 = EDGE_LOOP('', (#266, #274, #281, #282));
#266 = ORIENTED_EDGE('', *, *, #267, .F.);
#267 = EDGE_CURVE('', #268, #221, #270, .T.);
#268 = VERTEX_POINT('', #269);
#269 = CARTESIAN_POINT('', (-8.26795, 4.60883270229415E-15, -67.));
#270 = LINE('', #271, #272);
#271 = CARTESIAN_POINT('', (-8.26795, 4.60883270229415E-15, -67.));
#272 = VECTOR('', #273, 1.73205);
#273 = DIRECTION('', (-1.73205, 1.0605747442316E-16, 0.));
#274 = ORIENTED_EDGE('', *, *, #275, .T.);
#275 = EDGE_CURVE('', #268, #268, #276, .T.);
#276 = CIRCLE('', #277, 8.26795);
#277 = AXIS2_PLACEMENT_3D('', #278, #279, #280);
#278 = CARTESIAN_POINT('', (-4.71844785465692E-16, 3.99680288865056E-15, -67.));
#279 = DIRECTION('', (0., 0., -1.));
#280 = DIRECTION('', (-1., 7.40243728667429E-17, 0.));
#281 = ORIENTED_EDGE('', *, *, #267, .T.);
#282 = ORIENTED_EDGE('', *, *, #230, .F.);
#283 = B_SPLINE_SURFACE_WITH_KNOTS('', 1, 1, ((#284, #285), (#286, #287)), .UNSPECIFIED., .F., .F., .U., (2, 2), (2, 2), (0., 1.), (0., 1.), .UNSPECIFIED.);
#284 = CARTESIAN_POINT('', (11., -11., -67.));
#285 = CARTESIAN_POINT('', (-11., -11., -67.));
#286 = CARTESIAN_POINT('', (11., 11., -67.));
#287 = CARTESIAN_POINT('', (-11., 11., -67.));
#288 = ADVANCED_FACE('', (#289), #308, .T.);
#289 = FACE_OUTER_BOUND('', #290, .T.);
#290 = EDGE_LOOP('', (#291, #299, #306, #307));
#291 = ORIENTED_EDGE('', *, *, #292, .F.);
#292 = EDGE_CURVE('', #293, #268, #295, .T.);
#293 = VERTEX_POINT('', #294);
#294 = CARTESIAN_POINT('', (-8.26795, 6.75196460080202E-15, -102.));
#295 = LINE('', #296, #297);
#296 = CARTESIAN_POINT('', (-8.26795, 6.75196460080202E-15, -102.));
#297 = VECTOR('', #298, 35.);
#298 = DIRECTION('', (0., -2.14313189850787E-15, 35.));
#299 = ORIENTED_EDGE('', *, *, #300, .T.);
#300 = EDGE_CURVE('', #293, #293, #301, .T.);
#301 = CIRCLE('', #302, 8.26795);
#302 = AXIS2_PLACEMENT_3D('', #303, #304, #305);
#303 = CARTESIAN_POINT('', (-1.02695629777827E-15, 1.08801856413265E-14, -102.));
#304 = DIRECTION('', (2.92090896646346E-30, -5.84996032242576E-15, -1.));
#305 = DIRECTION('', (-1., -4.99304064553428E-16, 0.));
#306 = ORIENTED_EDGE('', *, *, #292, .T.);
#307 = ORIENTED_EDGE('', *, *, #275, .F.);
#308 = (
   BOUNDED_SURFACE ()
   B_SPLINE_SURFACE (2, 1, ((#309, #310), (#311, #312), (#313, #314), (#315, #316), (#317, #318), (#319, #320), (#321, #322), (#323, #324), (#325, #326)), .UNSPECIFIED., .T., .F., .U.)
   B_SPLINE_SURFACE_WITH_KNOTS ((3, 2, 2, 2, 3), (2, 2), (0., 12.9872654901239, 25.9745309802478, 38.9617964703716, 51.9490619604955), (0., 1.), .UNSPECIFIED.)
   GEOMETRIC_REPRESENTATION_ITEM ()
   RATIONAL_B_SPLINE_SURFACE (((1., 1.), (0.707106781186548, 0.707106781186548), (1., 1.), (0.707106781186548, 0.707106781186548), (1., 1.), (0.707106781186548, 0.707106781186548), (1., 1.), (0.707106781186548, 0.707106781186548), (1., 1.)))
   REPRESENTATION_ITEM ('')
   SURFACE ()
);
#309 = CARTESIAN_POINT('', (-8.26795, 1.14922154549701E-14, -102.));
#310 = CARTESIAN_POINT('', (-8.26795, 4.60883270229415E-15, -67.));
#311 = CARTESIAN_POINT('', (-8.26795, 8.26795000000001, -102.));
#312 = CARTESIAN_POINT('', (-8.26795, 8.26795, -67.));
#313 = CARTESIAN_POINT('', (-3.66080896972622E-16, 8.26795000000001, -102.));
#314 = CARTESIAN_POINT('', (-3.66080896972623E-16, 8.26795, -67.));
#315 = CARTESIAN_POINT('', (8.26795, 8.26795000000001, -102.));
#316 = CARTESIAN_POINT('', (8.26795, 8.26795, -67.));
#317 = CARTESIAN_POINT('', (8.26795, 1.1280687677984E-14, -102.));
#318 = CARTESIAN_POINT('', (8.26795, 4.39730492530801E-15, -67.));
#319 = CARTESIAN_POINT('', (8.26795, -8.26794999999999, -102.));
#320 = CARTESIAN_POINT('', (8.26795, -8.26795, -67.));
#321 = CARTESIAN_POINT('', (4.34923176342276E-16, -8.26794999999999, -102.));
#322 = CARTESIAN_POINT('', (4.34923176342276E-16, -8.26795, -67.));
#323 = CARTESIAN_POINT('', (-8.26795, -8.26794999999999, -102.));
#324 = CARTESIAN_POINT('', (-8.26795, -8.26795, -67.));
#325 = CARTESIAN_POINT('', (-8.26795, 1.14922154549701E-14, -102.));
#326 = CARTESIAN_POINT('', (-8.26795, 4.60883270229415E-15, -67.));
#327 = ADVANCED_FACE('', (#328), #339, .T.);
#328 = FACE_OUTER_BOUND('', #329, .T.);
#329 = EDGE_LOOP('', (#330, #336, #337, #338));
#330 = ORIENTED_EDGE('', *, *, #331, .F.);
#331 = EDGE_CURVE('', #223, #293, #332, .T.);
#332 = LINE('', #333, #334);
#333 = CARTESIAN_POINT('', (-10., 6.85802207522518E-15, -102.));
#334 = VECTOR('', #335, 1.73205);
#335 = DIRECTION('', (1.73205, -1.0605747442316E-16, 0.));
#336 = ORIENTED_EDGE('', *, *, #238, .T.);
#337 = ORIENTED_EDGE('', *, *, #331, .T.);
#338 = ORIENTED_EDGE('', *, *, #300, .F.);
#339 = B_SPLINE_SURFACE_WITH_KNOTS('', 1, 1, ((#340, #341), (#342, #343)), .UNSPECIFIED., .F., .F., .U., (2, 2), (2, 2), (0., 1.), (0., 1.), .UNSPECIFIED.);
#340 = CARTESIAN_POINT('', (11., -11., -102.));
#341 = CARTESIAN_POINT('', (11., 11., -102.));
#342 = CARTESIAN_POINT('', (-11., -11., -102.));
#343 = CARTESIAN_POINT('', (-11., 11., -102.));
#344 = PRESENTATION_STYLE_ASSIGNMENT((#345));
#345 = SURFACE_STYLE_USAGE(.POSITIVE., #346);
#346 = SURFACE_SIDE_STYLE('', (#347));
#347 = SURFACE_STYLE_FILL_AREA(#348);
#348 = FILL_AREA_STYLE('', (#349));
#349 = FILL_AREA_STYLE_COLOUR('', #350);
#350 = COLOUR_RGB('', 0.8, 0.8, 0.8);
#351 = STYLED_ITEM('', (#344), #214);
#352 = TRIMMED_CURVE('cutting part line', #353, (#357), (#358), .T., .CARTESIAN.);
#353 = LINE('', #354, #355);
#354 = CARTESIAN_POINT('', (10., 0., -67.));
#355 = VECTOR('', #356, 1.73205);
#356 = DIRECTION('', (-1.73205, 0., 0.));
#357 = CARTESIAN_POINT('', (10., 0., -67.));
#358 = CARTESIAN_POINT('', (8.26795, 0., -67.));
#359 = TRIMMED_CURVE('cutting part line', #360, (#364), (#365), .T., .CARTESIAN.);
#360 = LINE('', #361, #362);
#361 = CARTESIAN_POINT('', (8.26795, 0., -67.));
#362 = VECTOR('', #363, 35.);
#363 = DIRECTION('', (0., 6.88233438014232E-15, -35.));
#364 = CARTESIAN_POINT('', (8.26795, 0., -67.));
#365 = CARTESIAN_POINT('', (8.26795, 6.88233438014232E-15, -102.));
#366 = TRIMMED_CURVE('cutting part line', #367, (#371), (#372), .T., .CARTESIAN.);
#367 = LINE('', #368, #369);
#368 = CARTESIAN_POINT('', (8.26795, 0., -102.));
#369 = VECTOR('', #370, 1.73205000000001);
#370 = DIRECTION('', (1.73205000000001, 0., 0.));
#371 = CARTESIAN_POINT('', (8.26795, 0., -102.));
#372 = CARTESIAN_POINT('', (10., 0., -102.));
#373 = TRIMMED_CURVE('cutting part line', #374, (#378), (#379), .T., .CARTESIAN.);
#374 = LINE('', #375, #376);
#375 = CARTESIAN_POINT('', (10., 4.21820494266788E-15, -102.));
#376 = VECTOR('', #377, 35.);
#377 = DIRECTION('', (0., -4.21820494266788E-15, 35.));
#378 = CARTESIAN_POINT('', (10., 4.21820494266788E-15, -102.));
#379 = CARTESIAN_POINT('', (10., 0., -67.));
#380 = COMPOSITE_CURVE('cutting part line', (#381, #382, #383, #384), .U.);
#381 = COMPOSITE_CURVE_SEGMENT(.CONTINUOUS., .T., #352);
#382 = COMPOSITE_CURVE_SEGMENT(.CONTINUOUS., .T., #359);
#383 = COMPOSITE_CURVE_SEGMENT(.CONTINUOUS., .T., #366);
#384 = COMPOSITE_CURVE_SEGMENT(.CONTINUOUS., .T., #373);
#385 = GEOMETRIC_SET('', (#380, #423));
#386 = PRESENTATION_STYLE_ASSIGNMENT((#387));
#387 = CURVE_STYLE('', #389, POSITIVE_LENGTH_MEASURE(1.E-6), #388);
#388 = COLOUR_RGB('', 0., 0., 1.);
#389 = DRAUGHTING_PRE_DEFINED_CURVE_FONT('continuous');
#390 = STYLED_ITEM('', (#386), #380);
#391 = PRESENTATION_STYLE_ASSIGNMENT((#392));
#392 = CURVE_STYLE('', #394, POSITIVE_LENGTH_MEASURE(1.E-6), #393);
#393 = COLOUR_RGB('', 0., 0., 1.);
#394 = DRAUGHTING_PRE_DEFINED_CURVE_FONT('continuous');
#395 = OVER_RIDING_STYLED_ITEM('', (#391), #352, #390);
#396 = PRESENTATION_STYLE_ASSIGNMENT((#397));
#397 = CURVE_STYLE('', #399, POSITIVE_LENGTH_MEASURE(1.E-6), #398);
#398 = COLOUR_RGB('', 0., 0., 1.);
#399 = DRAUGHTING_PRE_DEFINED_CURVE_FONT('continuous');
#400 = OVER_RIDING_STYLED_ITEM('', (#396), #359, #390);
#401 = PRESENTATION_STYLE_ASSIGNMENT((#402));
#402 = CURVE_STYLE('', #404, POSITIVE_LENGTH_MEASURE(1.E-6), #403);
#403 = COLOUR_RGB('', 0., 0., 1.);
#404 = DRAUGHTING_PRE_DEFINED_CURVE_FONT('continuous');
#405 = OVER_RIDING_STYLED_ITEM('', (#401), #366, #390);
#406 = PRESENTATION_STYLE_ASSIGNMENT((#407));
#407 = CURVE_STYLE('', #409, POSITIVE_LENGTH_MEASURE(1.E-6), #408);
#408 = COLOUR_RGB('', 0., 0., 1.);
#409 = DRAUGHTING_PRE_DEFINED_CURVE_FONT('continuous');
#410 = OVER_RIDING_STYLED_ITEM('', (#406), #373, #390);
#411 = AXIS2_PLACEMENT_3D('MCS', #412, #413, #414);
#412 = CARTESIAN_POINT('', (0., 0., -47.));
#413 = DIRECTION('', (0., 0., 1.));
#414 = DIRECTION('', (1., 0., 0.));
#415 = AXIS2_PLACEMENT_3D('PCS', #416, #417, #418);
#416 = CARTESIAN_POINT('', (0., 0., 0.));
#417 = DIRECTION('', (0., 0., 1.));
#418 = DIRECTION('', (1., 0., 0.));
#419 = AXIS2_PLACEMENT_3D('CIP', #420, #421, #422);
#420 = CARTESIAN_POINT('', (0., 0., -102.));
#421 = DIRECTION('', (0., 0., 1.));
#422 = DIRECTION('', (1., 0., 0.));
#423 = CARTESIAN_POINT('CRP', (10., 0., -102.));
#424 = (
   GEOMETRIC_REPRESENTATION_CONTEXT (3)
   GLOBAL_UNCERTAINTY_ASSIGNED_CONTEXT ((#426))
   GLOBAL_UNIT_ASSIGNED_CONTEXT ((#425, #427, #428))
   REPRESENTATION_CONTEXT ('', '3D')
);
#425 = (
   LENGTH_UNIT ()
   NAMED_UNIT (*)
   SI_UNIT (.MILLI., .METRE.)
);
#426 = UNCERTAINTY_MEASURE_WITH_UNIT(LENGTH_MEASURE(1.E-6), #425, 'DISTANCE_ACCURACY_VALUE', '');
#427 = (
   NAMED_UNIT (*)
   SI_UNIT ($, .STERADIAN.)
   SOLID_ANGLE_UNIT ()
);
#428 = (
   NAMED_UNIT (*)
   PLANE_ANGLE_UNIT ()
   SI_UNIT ($, .RADIAN.)
);
#429 = SHAPE_REPRESENTATION('', (), #424);
#430 = PRODUCT_DEFINITION_SHAPE('', '', #431);
#431 = PRODUCT_DEFINITION('', '', #434, #438);
#432 = APPLICATION_CONTEXT('configuration controlled 3D designs of mechanical parts and assemblies');
#433 = APPLICATION_PROTOCOL_DEFINITION('International Standard', 'automotive_design', 2002, #432);
#434 = PRODUCT_DEFINITION_FORMATION_WITH_SPECIFIED_SOURCE('', '', #435, .NOT_KNOWN.);
#435 = PRODUCT('product-name', 'R217.15-200200AC35N 1630', '', (#436));
#436 = PRODUCT_CONTEXT('', #432, 'mechanical');
#437 = PRODUCT_RELATED_PRODUCT_CATEGORY('detail', '', (#435));
#438 = PRODUCT_DEFINITION_CONTEXT('part definition', #432, 'design');
#439 = SHAPE_DEFINITION_REPRESENTATION(#430, #429);
#440 = CONSTRUCTIVE_GEOMETRY_REPRESENTATION('supplemental geometry', (#411, #415, #419), #424);
#441 = CONSTRUCTIVE_GEOMETRY_REPRESENTATION_RELATIONSHIP('', '', #429, #440);
#442 = SHAPE_REPRESENTATION_RELATIONSHIP('', '', #429, #443);
#443 = SHAPE_REPRESENTATION('', (#385), #424);
#444 = SHAPE_REPRESENTATION_RELATIONSHIP('', '', #429, #445);
#445 = ADVANCED_BREP_SHAPE_REPRESENTATION('', (#1, #214), #424);
ENDSEC;
END-ISO-10303-21;
