ISO-10303-21;
HEADER;
FILE_DESCRIPTION(('STEP'), '1');
FILE_NAME('C:\\Users\\ds2002\\OneDrive - Sandvik\\HomeShare\\Documents\\Batchrepair\\CorSRT2\\NEW_MILTH_SLD\\Output\\MOD000000000000000020084662900000.stp', '2019-01-04T08:50:47', (''), (''), 'Express v3.0.0.0', 'Express Tool', 'Unknown');
FILE_SCHEMA(('AUTOMOTIVE_DESIGN'));
ENDSEC;

DATA;
#1 = MANIFOLD_SOLID_BREP('NOCUT', #2);
#2 = CLOSED_SHELL('', (#3, #20, #67, #106, #145, #154, #174));
#3 = ADVANCED_FACE('', (#4), #15, .T.);
#4 = FACE_OUTER_BOUND('', #5, .T.);
#5 = EDGE_LOOP('', (#6));
#6 = ORIENTED_EDGE('', *, *, #7, .T.);
#7 = EDGE_CURVE('', #8, #8, #10, .T.);
#8 = VERTEX_POINT('', #9);
#9 = CARTESIAN_POINT('', (-6.26795, 6.01717652131361E-15, -92.));
#10 = CIRCLE('', #11, 6.26795);
#11 = AXIS2_PLACEMENT_3D('', #12, #13, #14);
#12 = CARTESIAN_POINT('', (1.16573417585641E-15, -1.4432899320127E-15, -92.));
#13 = DIRECTION('', (9.18471526111725E-30, 7.71658667471819E-15, -1.));
#14 = DIRECTION('', (-1., 1.19025621667791E-15, 0.));
#15 = B_SPLINE_SURFACE_WITH_KNOTS('', 1, 1, ((#16, #17), (#18, #19)), .UNSPECIFIED., .F., .F., .U., (2, 2), (2, 2), (0.143866477272727, 0.856133522727273), (0.143866477272727, 0.856133522727273), .UNSPECIFIED.);
#16 = CARTESIAN_POINT('', (6.26795, -6.26794999999999, -92.));
#17 = CARTESIAN_POINT('', (6.26795, 6.26795000000001, -92.));
#18 = CARTESIAN_POINT('', (-6.26795, -6.26794999999999, -92.));
#19 = CARTESIAN_POINT('', (-6.26795, 6.26795000000001, -92.));
#20 = ADVANCED_FACE('', (#21), #48, .T.);
#21 = FACE_OUTER_BOUND('', #22, .T.);
#22 = EDGE_LOOP('', (#23, #33, #40, #41));
#23 = ORIENTED_EDGE('', *, *, #24, .F.);
#24 = EDGE_CURVE('', #25, #27, #29, .T.);
#25 = VERTEX_POINT('', #26);
#26 = CARTESIAN_POINT('', (-8., 3.6310777594719E-15, -51.3));
#27 = VERTEX_POINT('', #28);
#28 = CARTESIAN_POINT('', (-8., 4.28626379701574E-15, -62.));
#29 = LINE('', #30, #31);
#30 = CARTESIAN_POINT('', (-8., 3.6310777594719E-15, -51.3));
#31 = VECTOR('', #32, 10.7);
#32 = DIRECTION('', (0., 6.5518603754384E-16, -10.7));
#33 = ORIENTED_EDGE('', *, *, #34, .T.);
#34 = EDGE_CURVE('', #25, #25, #35, .T.);
#35 = CIRCLE('', #36, 8.);
#36 = AXIS2_PLACEMENT_3D('', #37, #38, #39);
#37 = CARTESIAN_POINT('', (5.55111512312578E-17, 3.33066907387547E-15, -51.3));
#38 = DIRECTION('', (0., 0., -1.));
#39 = DIRECTION('', (-1., 3.75510856995538E-17, 0.));
#40 = ORIENTED_EDGE('', *, *, #24, .T.);
#41 = ORIENTED_EDGE('', *, *, #42, .F.);
#42 = EDGE_CURVE('', #27, #27, #43, .T.);
#43 = CIRCLE('', #44, 8.);
#44 = AXIS2_PLACEMENT_3D('', #45, #46, #47);
#45 = CARTESIAN_POINT('', (7.7715611723761E-16, 4.44089209850063E-16, -62.));
#46 = DIRECTION('', (0., 0., -1.));
#47 = DIRECTION('', (-1., 4.8027182339571E-16, 0.));
#48 = (
   BOUNDED_SURFACE ()
   B_SPLINE_SURFACE (2, 1, ((#49, #50), (#51, #52), (#53, #54), (#55, #56), (#57, #58), (#59, #60), (#61, #62), (#63, #64), (#65, #66)), .UNSPECIFIED., .T., .F., .U.)
   B_SPLINE_SURFACE_WITH_KNOTS ((3, 2, 2, 2, 3), (2, 2), (0., 12.5663706143592, 25.1327412287184, 37.6991118430775, 50.2654824574367), (0., 1.), .UNSPECIFIED.)
   GEOMETRIC_REPRESENTATION_ITEM ()
   RATIONAL_B_SPLINE_SURFACE (((1., 1.), (0.707106781186548, 0.707106781186548), (1., 1.), (0.707106781186548, 0.707106781186548), (1., 1.), (0.707106781186548, 0.707106781186548), (1., 1.), (0.707106781186548, 0.707106781186548), (1., 1.)))
   REPRESENTATION_ITEM ('')
   SURFACE ()
);
#49 = CARTESIAN_POINT('', (-8., 3.6310777594719E-15, -51.3));
#50 = CARTESIAN_POINT('', (-8., 4.29721157424699E-15, -62.));
#51 = CARTESIAN_POINT('', (-7.99999999999999, 8., -51.3));
#52 = CARTESIAN_POINT('', (-7.99999999999999, 8., -62.));
#53 = CARTESIAN_POINT('', (4.19593091320686E-15, 8., -51.3));
#54 = CARTESIAN_POINT('', (4.19593091320686E-15, 8., -62.));
#55 = CARTESIAN_POINT('', (8., 8., -51.3));
#56 = CARTESIAN_POINT('', (8., 8., -62.));
#57 = CARTESIAN_POINT('', (8., -3.09544953000408E-15, -51.3));
#58 = CARTESIAN_POINT('', (8., -2.42931571522899E-15, -62.));
#59 = CARTESIAN_POINT('', (8., -8., -51.3));
#60 = CARTESIAN_POINT('', (8., -8., -62.));
#61 = CARTESIAN_POINT('', (-1.55087893695124E-15, -8., -51.3));
#62 = CARTESIAN_POINT('', (-1.55087893695124E-15, -8., -62.));
#63 = CARTESIAN_POINT('', (-8., -8., -51.3));
#64 = CARTESIAN_POINT('', (-8., -8., -62.));
#65 = CARTESIAN_POINT('', (-8., 3.6310777594719E-15, -51.3));
#66 = CARTESIAN_POINT('', (-8., 4.29721157424699E-15, -62.));
#67 = ADVANCED_FACE('', (#68), #87, .T.);
#68 = FACE_OUTER_BOUND('', #69, .T.);
#69 = EDGE_LOOP('', (#70, #78, #85, #86));
#70 = ORIENTED_EDGE('', *, *, #71, .T.);
#71 = EDGE_CURVE('', #25, #72, #74, .T.);
#72 = VERTEX_POINT('', #73);
#73 = CARTESIAN_POINT('', (-8., 5.38844591624835E-16, -0.799999999999997));
#74 = LINE('', #75, #76);
#75 = CARTESIAN_POINT('', (-8., 3.6310777594719E-15, -51.3));
#76 = VECTOR('', #77, 50.5);
#77 = DIRECTION('', (0., -3.09223316784706E-15, 50.5));
#78 = ORIENTED_EDGE('', *, *, #79, .T.);
#79 = EDGE_CURVE('', #72, #72, #80, .T.);
#80 = CIRCLE('', #81, 8.);
#81 = AXIS2_PLACEMENT_3D('', #82, #83, #84);
#82 = CARTESIAN_POINT('', (5.27355936696949E-16, -4.44089209850063E-16, -0.799999999999997));
#83 = DIRECTION('', (-1.38777878078144E-17, 9.23824107420045E-17, -1.));
#84 = DIRECTION('', (-1., 1.22866725184362E-16, 1.38777878078145E-17));
#85 = ORIENTED_EDGE('', *, *, #71, .F.);
#86 = ORIENTED_EDGE('', *, *, #34, .F.);
#87 = (
   BOUNDED_SURFACE ()
   B_SPLINE_SURFACE (1, 2, ((#88, #89, #90, #91, #92, #93, #94, #95, #96), (#97, #98, #99, #100, #101, #102, #103, #104, #105)), .UNSPECIFIED., .F., .T., .U.)
   B_SPLINE_SURFACE_WITH_KNOTS ((2, 2), (3, 2, 2, 2, 3), (0., 1.), (0., 12.5663706143592, 25.1327412287184, 37.6991118430775, 50.2654824574367), .UNSPECIFIED.)
   GEOMETRIC_REPRESENTATION_ITEM ()
   RATIONAL_B_SPLINE_SURFACE (((1., 0.707106781186548, 1., 0.707106781186548, 1., 0.707106781186548, 1., 0.707106781186548, 1.), (1., 0.707106781186548, 1., 0.707106781186548, 1., 0.707106781186548, 1., 0.707106781186548, 1.)))
   REPRESENTATION_ITEM ('')
   SURFACE ()
);
#88 = CARTESIAN_POINT('', (-8., 7.60889196549866E-16, -51.3));
#89 = CARTESIAN_POINT('', (-8., 8., -51.3));
#90 = CARTESIAN_POINT('', (3.19602734218276E-16, 8., -51.3));
#91 = CARTESIAN_POINT('', (8., 8., -51.3));
#92 = CARTESIAN_POINT('', (8., -2.25260967082046E-16, -51.3));
#93 = CARTESIAN_POINT('', (8., -8., -51.3));
#94 = CARTESIAN_POINT('', (3.13170009904245E-16, -8., -51.3));
#95 = CARTESIAN_POINT('', (-8., -8., -51.3));
#96 = CARTESIAN_POINT('', (-8., 7.60889196549866E-16, -51.3));
#97 = CARTESIAN_POINT('', (-8., 5.38844591624835E-16, -0.799999999999997));
#98 = CARTESIAN_POINT('', (-8., 8., -0.799999999999997));
#99 = CARTESIAN_POINT('', (1.02043101851291E-15, 8., -0.799999999999997));
#100 = CARTESIAN_POINT('', (8., 8., -0.799999999999997));
#101 = CARTESIAN_POINT('', (8., -4.47305572007078E-16, -0.799999999999997));
#102 = CARTESIAN_POINT('', (8., -8., -0.799999999999997));
#103 = CARTESIAN_POINT('', (1.01399829419888E-15, -8., -0.799999999999997));
#104 = CARTESIAN_POINT('', (-8., -8., -0.799999999999997));
#105 = CARTESIAN_POINT('', (-8., 5.38844591624835E-16, -0.799999999999997));
#106 = ADVANCED_FACE('', (#107), #126, .T.);
#107 = FACE_OUTER_BOUND('', #108, .T.);
#108 = EDGE_LOOP('', (#109, #117, #124, #125));
#109 = ORIENTED_EDGE('', *, *, #110, .T.);
#110 = EDGE_CURVE('', #72, #111, #113, .T.);
#111 = VERTEX_POINT('', #112);
#112 = CARTESIAN_POINT('', (-7.2, 4.40872847693047E-16, 0.));
#113 = LINE('', #114, #115);
#114 = CARTESIAN_POINT('', (-8., 5.38844591624835E-16, -0.799999999999997));
#115 = VECTOR('', #116, 1.13137084989847);
#116 = DIRECTION('', (0.8, -9.7971743931788E-17, 0.799999999999997));
#117 = ORIENTED_EDGE('', *, *, #118, .T.);
#118 = EDGE_CURVE('', #111, #111, #119, .T.);
#119 = CIRCLE('', #120, 7.2);
#120 = AXIS2_PLACEMENT_3D('', #121, #122, #123);
#121 = CARTESIAN_POINT('', (-8.32667268468867E-17, -6.66133814775094E-16, -4.93038065763132E-32));
#122 = DIRECTION('', (2.56677801597318E-33, 6.12323399573677E-17, -1.));
#123 = DIRECTION('', (-1., 1.53750925342797E-16, 6.84775091337684E-33));
#124 = ORIENTED_EDGE('', *, *, #110, .F.);
#125 = ORIENTED_EDGE('', *, *, #79, .F.);
#126 = (
   BOUNDED_SURFACE ()
   B_SPLINE_SURFACE (1, 2, ((#127, #128, #129, #130, #131, #132, #133, #134, #135), (#136, #137, #138, #139, #140, #141, #142, #143, #144)), .UNSPECIFIED., .F., .T., .U.)
   B_SPLINE_SURFACE_WITH_KNOTS ((2, 2), (3, 2, 2, 2, 3), (0., 1.), (0., 0.25, 0.5, 0.75, 1.), .UNSPECIFIED.)
   GEOMETRIC_REPRESENTATION_ITEM ()
   RATIONAL_B_SPLINE_SURFACE (((1., 0.707106781186548, 1., 0.707106781186548, 1., 0.707106781186548, 1., 0.707106781186548, 1.), (1., 0.707106781186548, 1., 0.707106781186548, 1., 0.707106781186548, 1., 0.707106781186548, 1.)))
   REPRESENTATION_ITEM ('')
   SURFACE ()
);
#127 = CARTESIAN_POINT('', (-8., -4.09906311545837E-15, -0.799999999999997));
#128 = CARTESIAN_POINT('', (-8., 7.99999999999999, -0.800000000000044));
#129 = CARTESIAN_POINT('', (6.56881956236551E-16, 7.99999999999999, -0.800000000000044));
#130 = CARTESIAN_POINT('', (8., 7.99999999999999, -0.800000000000044));
#131 = CARTESIAN_POINT('', (8., -5.57936048162525E-15, -0.799999999999997));
#132 = CARTESIAN_POINT('', (8., -8.00000000000001, -0.799999999999951));
#133 = CARTESIAN_POINT('', (1.56302029387557E-16, -8.00000000000001, -0.799999999999951));
#134 = CARTESIAN_POINT('', (-8., -8.00000000000001, -0.799999999999951));
#135 = CARTESIAN_POINT('', (-8., -4.09906311545837E-15, -0.799999999999997));
#136 = CARTESIAN_POINT('', (-7.2, 4.40872847693047E-16, 0.));
#137 = CARTESIAN_POINT('', (-7.2, 7.2, -4.19664303308311E-14));
#138 = CARTESIAN_POINT('', (5.82867087928207E-16, 7.2, -4.19664303308311E-14));
#139 = CARTESIAN_POINT('', (7.2, 7.2, -4.19664303308311E-14));
#140 = CARTESIAN_POINT('', (7.2, -8.9139478185714E-16, -5.23801307078189E-30));
#141 = CARTESIAN_POINT('', (7.2, -7.2, 4.19664303308311E-14));
#142 = CARTESIAN_POINT('', (1.32345153764114E-16, -7.2, 4.19664303308311E-14));
#143 = CARTESIAN_POINT('', (-7.2, -7.2, 4.19664303308311E-14));
#144 = CARTESIAN_POINT('', (-7.2, 4.40872847693047E-16, 0.));
#145 = ADVANCED_FACE('', (#146), #149, .T.);
#146 = FACE_OUTER_BOUND('', #147, .T.);
#147 = EDGE_LOOP('', (#148));
#148 = ORIENTED_EDGE('', *, *, #118, .F.);
#149 = B_SPLINE_SURFACE_WITH_KNOTS('', 1, 1, ((#150, #151), (#152, #153)), .UNSPECIFIED., .F., .F., .U., (2, 2), (2, 2), (0.0454545454545454, 0.954545454545455), (0.0454545454545454, 0.954545454545454), .UNSPECIFIED.);
#150 = CARTESIAN_POINT('', (7.2, -7.2, -4.40872847693047E-16));
#151 = CARTESIAN_POINT('', (-7.2, -7.2, -4.40872847693047E-16));
#152 = CARTESIAN_POINT('', (7.2, 7.2, 4.40872847693047E-16));
#153 = CARTESIAN_POINT('', (-7.2, 7.2, 4.40872847693047E-16));
#154 = ADVANCED_FACE('', (#155, #158), #169, .T.);
#155 = FACE_OUTER_BOUND('', #156, .T.);
#156 = EDGE_LOOP('', (#157));
#157 = ORIENTED_EDGE('', *, *, #42, .T.);
#158 = FACE_BOUND('', #159, .T.);
#159 = EDGE_LOOP('', (#160));
#160 = ORIENTED_EDGE('', *, *, #161, .F.);
#161 = EDGE_CURVE('', #162, #162, #164, .T.);
#162 = VERTEX_POINT('', #163);
#163 = CARTESIAN_POINT('', (-6.26795, 4.18020632259258E-15, -62.));
#164 = CIRCLE('', #165, 6.26795);
#165 = AXIS2_PLACEMENT_3D('', #166, #167, #168);
#166 = CARTESIAN_POINT('', (6.38378239159465E-16, -2.1094237467878E-15, -62.));
#167 = DIRECTION('', (3.87163870023593E-30, 3.8582933373591E-15, -1.));
#168 = DIRECTION('', (-1., 1.00345887720553E-15, 0.));
#169 = B_SPLINE_SURFACE_WITH_KNOTS('', 1, 1, ((#170, #171), (#172, #173)), .UNSPECIFIED., .F., .F., .U., (2, 2), (2, 2), (0.0454545454545453, 0.954545454545454), (0.0454545454545452, 0.954545454545454), .UNSPECIFIED.);
#170 = CARTESIAN_POINT('', (8., -8., -62.));
#171 = CARTESIAN_POINT('', (8., 8., -62.));
#172 = CARTESIAN_POINT('', (-8., -8., -62.));
#173 = CARTESIAN_POINT('', (-8., 8., -62.));
#174 = ADVANCED_FACE('', (#175), #186, .T.);
#175 = FACE_OUTER_BOUND('', #176, .T.);
#176 = EDGE_LOOP('', (#177, #183, #184, #185));
#177 = ORIENTED_EDGE('', *, *, #178, .T.);
#178 = EDGE_CURVE('', #8, #162, #179, .T.);
#179 = LINE('', #180, #181);
#180 = CARTESIAN_POINT('', (-6.26795, 6.01717652131361E-15, -92.));
#181 = VECTOR('', #182, 30.);
#182 = DIRECTION('', (0., -1.83697019872103E-15, 30.));
#183 = ORIENTED_EDGE('', *, *, #161, .T.);
#184 = ORIENTED_EDGE('', *, *, #178, .F.);
#185 = ORIENTED_EDGE('', *, *, #7, .F.);
#186 = (
   BOUNDED_SURFACE ()
   B_SPLINE_SURFACE (1, 2, ((#187, #188, #189, #190, #191, #192, #193, #194, #195), (#196, #197, #198, #199, #200, #201, #202, #203, #204)), .UNSPECIFIED., .F., .T., .U.)
   B_SPLINE_SURFACE_WITH_KNOTS ((2, 2), (3, 2, 2, 2, 3), (0., 1.), (0., 9.84567283653408, 19.6913456730682, 29.5370185096022, 39.3826913461363), .UNSPECIFIED.)
   GEOMETRIC_REPRESENTATION_ITEM ()
   RATIONAL_B_SPLINE_SURFACE (((1., 0.707106781186548, 1., 0.707106781186548, 1., 0.707106781186548, 1., 0.707106781186548, 1.), (1., 0.707106781186548, 1., 0.707106781186548, 1., 0.707106781186548, 1., 0.707106781186548, 1.)))
   REPRESENTATION_ITEM ('')
   SURFACE ()
);
#187 = CARTESIAN_POINT('', (-6.26795, 4.84634013736768E-15, -92.));
#188 = CARTESIAN_POINT('', (-6.26794999999999, 6.26795000000001, -92.));
#189 = CARTESIAN_POINT('', (6.54420706330406E-15, 6.26795, -92.));
#190 = CARTESIAN_POINT('', (6.26795000000001, 6.26794999999999, -92.));
#191 = CARTESIAN_POINT('', (6.26795, -6.96531751092152E-15, -92.));
#192 = CARTESIAN_POINT('', (6.26795, -6.26795000000001, -92.));
#193 = CARTESIAN_POINT('', (-4.49984809451356E-15, -6.26795, -92.));
#194 = CARTESIAN_POINT('', (-6.26795, -6.26795, -92.));
#195 = CARTESIAN_POINT('', (-6.26795, 4.84634013736768E-15, -92.));
#196 = CARTESIAN_POINT('', (-6.26795, 4.18020632259258E-15, -62.));
#197 = CARTESIAN_POINT('', (-6.26794999999999, 6.26795000000001, -62.));
#198 = CARTESIAN_POINT('', (6.54420706330406E-15, 6.26795, -62.));
#199 = CARTESIAN_POINT('', (6.26795000000001, 6.26794999999999, -62.));
#200 = CARTESIAN_POINT('', (6.26795, -7.63145132569661E-15, -62.));
#201 = CARTESIAN_POINT('', (6.26795, -6.26795000000001, -62.));
#202 = CARTESIAN_POINT('', (-4.49984809451356E-15, -6.26795, -62.));
#203 = CARTESIAN_POINT('', (-6.26795, -6.26795, -62.));
#204 = CARTESIAN_POINT('', (-6.26795, 4.18020632259258E-15, -62.));
#205 = DRAUGHTING_MODEL('', (#213, #351, #390, #395, #400, #405, #410), #424);
#206 = PRESENTATION_STYLE_ASSIGNMENT((#207));
#207 = SURFACE_STYLE_USAGE(.POSITIVE., #208);
#208 = SURFACE_SIDE_STYLE('', (#209));
#209 = SURFACE_STYLE_FILL_AREA(#210);
#210 = FILL_AREA_STYLE('', (#211));
#211 = FILL_AREA_STYLE_COLOUR('', #212);
#212 = COLOUR_RGB('', 0.50196078431373, 0.50196078431373, 0.50196078431373);
#213 = STYLED_ITEM('', (#206), #1);
#214 = MANIFOLD_SOLID_BREP('CUT', #215);
#215 = CLOSED_SHELL('', (#216, #263, #288, #327));
#216 = ADVANCED_FACE('', (#217), #244, .T.);
#217 = FACE_OUTER_BOUND('', #218, .T.);
#218 = EDGE_LOOP('', (#219, #229, #236, #237));
#219 = ORIENTED_EDGE('', *, *, #220, .F.);
#220 = EDGE_CURVE('', #221, #223, #225, .T.);
#221 = VERTEX_POINT('', #222);
#222 = CARTESIAN_POINT('', (-8., 4.28626379701574E-15, -62.));
#223 = VERTEX_POINT('', #224);
#224 = CARTESIAN_POINT('', (-8., 6.12323399573677E-15, -92.));
#225 = LINE('', #226, #227);
#226 = CARTESIAN_POINT('', (-8., 4.28626379701574E-15, -62.));
#227 = VECTOR('', #228, 30.);
#228 = DIRECTION('', (0., 1.83697019872103E-15, -30.));
#229 = ORIENTED_EDGE('', *, *, #230, .T.);
#230 = EDGE_CURVE('', #221, #221, #231, .T.);
#231 = CIRCLE('', #232, 8.);
#232 = AXIS2_PLACEMENT_3D('', #233, #234, #235);
#233 = CARTESIAN_POINT('', (0., 3.99680288865056E-15, -62.));
#234 = DIRECTION('', (0., 0., -1.));
#235 = DIRECTION('', (-1., 3.6182613545647E-17, 0.));
#236 = ORIENTED_EDGE('', *, *, #220, .T.);
#237 = ORIENTED_EDGE('', *, *, #238, .F.);
#238 = EDGE_CURVE('', #223, #223, #239, .T.);
#239 = CIRCLE('', #240, 8.);
#240 = AXIS2_PLACEMENT_3D('', #241, #242, #243);
#241 = CARTESIAN_POINT('', (7.21644966006352E-16, 5.77315972805081E-15, -92.));
#242 = DIRECTION('', (0., 0., -1.));
#243 = DIRECTION('', (-1., 4.37592834607445E-17, 0.));
#244 = (
   BOUNDED_SURFACE ()
   B_SPLINE_SURFACE (2, 1, ((#245, #246), (#247, #248), (#249, #250), (#251, #252), (#253, #254), (#255, #256), (#257, #258), (#259, #260), (#261, #262)), .UNSPECIFIED., .T., .F., .U.)
   B_SPLINE_SURFACE_WITH_KNOTS ((3, 2, 2, 2, 3), (2, 2), (0., 12.5663706143592, 25.1327412287184, 37.6991118430775, 50.2654824574367), (0., 1.), .UNSPECIFIED.)
   GEOMETRIC_REPRESENTATION_ITEM ()
   RATIONAL_B_SPLINE_SURFACE (((1., 1.), (0.707106781186548, 0.707106781186548), (1., 1.), (0.707106781186548, 0.707106781186548), (1., 1.), (0.707106781186548, 0.707106781186548), (1., 1.), (0.707106781186548, 0.707106781186548), (1., 1.)))
   REPRESENTATION_ITEM ('')
   SURFACE ()
);
#245 = CARTESIAN_POINT('', (-8., 4.28626379701574E-15, -62.));
#246 = CARTESIAN_POINT('', (-8., 9.61533431521649E-15, -92.));
#247 = CARTESIAN_POINT('', (-7.99999999999999, 8., -62.));
#248 = CARTESIAN_POINT('', (-7.99999999999999, 8.00000000000001, -92.));
#249 = CARTESIAN_POINT('', (4.12947198474435E-15, 8., -62.));
#250 = CARTESIAN_POINT('', (4.12947198474435E-15, 8.00000000000001, -92.));
#251 = CARTESIAN_POINT('', (8., 8., -62.));
#252 = CARTESIAN_POINT('', (8., 8., -92.));
#253 = CARTESIAN_POINT('', (8., -2.41836793799773E-15, -62.));
#254 = CARTESIAN_POINT('', (8., 2.91070258020302E-15, -92.));
#255 = CARTESIAN_POINT('', (8., -8., -62.));
#256 = CARTESIAN_POINT('', (8., -8., -92.));
#257 = CARTESIAN_POINT('', (-1.59544231095124E-15, -8., -62.));
#258 = CARTESIAN_POINT('', (-1.59544231095124E-15, -7.99999999999999, -92.));
#259 = CARTESIAN_POINT('', (-8., -8., -62.));
#260 = CARTESIAN_POINT('', (-8., -7.99999999999999, -92.));
#261 = CARTESIAN_POINT('', (-8., 4.28626379701574E-15, -62.));
#262 = CARTESIAN_POINT('', (-8., 9.61533431521649E-15, -92.));
#263 = ADVANCED_FACE('', (#264), #283, .T.);
#264 = FACE_OUTER_BOUND('', #265, .T.);
#265 = EDGE_LOOP('', (#266, #274, #281, #282));
#266 = ORIENTED_EDGE('', *, *, #267, .F.);
#267 = EDGE_CURVE('', #268, #221, #270, .T.);
#268 = VERTEX_POINT('', #269);
#269 = CARTESIAN_POINT('', (-6.26795, 4.18020632259258E-15, -62.));
#270 = LINE('', #271, #272);
#271 = CARTESIAN_POINT('', (-6.26795, 4.18020632259258E-15, -62.));
#272 = VECTOR('', #273, 1.73205);
#273 = DIRECTION('', (-1.73205, 1.06057474423159E-16, 0.));
#274 = ORIENTED_EDGE('', *, *, #275, .T.);
#275 = EDGE_CURVE('', #268, #268, #276, .T.);
#276 = CIRCLE('', #277, 6.26795);
#277 = AXIS2_PLACEMENT_3D('', #278, #279, #280);
#278 = CARTESIAN_POINT('', (6.38378239159465E-16, -2.1094237467878E-15, -62.));
#279 = DIRECTION('', (3.87163870023593E-30, 3.8582933373591E-15, -1.));
#280 = DIRECTION('', (-1., 1.00345887720553E-15, 0.));
#281 = ORIENTED_EDGE('', *, *, #267, .T.);
#282 = ORIENTED_EDGE('', *, *, #230, .F.);
#283 = B_SPLINE_SURFACE_WITH_KNOTS('', 1, 1, ((#284, #285), (#286, #287)), .UNSPECIFIED., .F., .F., .U., (2, 2), (2, 2), (0., 1.), (0., 1.), .UNSPECIFIED.);
#284 = CARTESIAN_POINT('', (8.8, -8.8, -62.));
#285 = CARTESIAN_POINT('', (-8.8, -8.8, -62.));
#286 = CARTESIAN_POINT('', (8.8, 8.8, -62.));
#287 = CARTESIAN_POINT('', (-8.8, 8.8, -62.));
#288 = ADVANCED_FACE('', (#289), #308, .T.);
#289 = FACE_OUTER_BOUND('', #290, .T.);
#290 = EDGE_LOOP('', (#291, #299, #306, #307));
#291 = ORIENTED_EDGE('', *, *, #292, .F.);
#292 = EDGE_CURVE('', #293, #268, #295, .T.);
#293 = VERTEX_POINT('', #294);
#294 = CARTESIAN_POINT('', (-6.26795, 6.01717652131361E-15, -92.));
#295 = LINE('', #296, #297);
#296 = CARTESIAN_POINT('', (-6.26795, 6.01717652131361E-15, -92.));
#297 = VECTOR('', #298, 30.);
#298 = DIRECTION('', (0., -1.83697019872103E-15, 30.));
#299 = ORIENTED_EDGE('', *, *, #300, .T.);
#300 = EDGE_CURVE('', #293, #293, #301, .T.);
#301 = CIRCLE('', #302, 6.26795);
#302 = AXIS2_PLACEMENT_3D('', #303, #304, #305);
#303 = CARTESIAN_POINT('', (1.16573417585641E-15, -1.4432899320127E-15, -92.));
#304 = DIRECTION('', (9.18471526111725E-30, 7.71658667471819E-15, -1.));
#305 = DIRECTION('', (-1., 1.19025621667791E-15, 0.));
#306 = ORIENTED_EDGE('', *, *, #292, .T.);
#307 = ORIENTED_EDGE('', *, *, #275, .F.);
#308 = (
   BOUNDED_SURFACE ()
   B_SPLINE_SURFACE (2, 1, ((#309, #310), (#311, #312), (#313, #314), (#315, #316), (#317, #318), (#319, #320), (#321, #322), (#323, #324), (#325, #326)), .UNSPECIFIED., .T., .F., .U.)
   B_SPLINE_SURFACE_WITH_KNOTS ((3, 2, 2, 2, 3), (2, 2), (0., 9.84567283653408, 19.6913456730682, 29.5370185096022, 39.3826913461363), (0., 1.), .UNSPECIFIED.)
   GEOMETRIC_REPRESENTATION_ITEM ()
   RATIONAL_B_SPLINE_SURFACE (((1., 1.), (0.707106781186548, 0.707106781186548), (1., 1.), (0.707106781186548, 0.707106781186548), (1., 1.), (0.707106781186548, 0.707106781186548), (1., 1.), (0.707106781186548, 0.707106781186548), (1., 1.)))
   REPRESENTATION_ITEM ('')
   SURFACE ()
);
#309 = CARTESIAN_POINT('', (-6.26795, 4.84634013736768E-15, -92.));
#310 = CARTESIAN_POINT('', (-6.26795, 4.18020632259258E-15, -62.));
#311 = CARTESIAN_POINT('', (-6.26794999999999, 6.26795000000001, -92.));
#312 = CARTESIAN_POINT('', (-6.26794999999999, 6.26795000000001, -62.));
#313 = CARTESIAN_POINT('', (6.54420706330406E-15, 6.26795, -92.));
#314 = CARTESIAN_POINT('', (6.54420706330406E-15, 6.26795, -62.));
#315 = CARTESIAN_POINT('', (6.26795000000001, 6.26794999999999, -92.));
#316 = CARTESIAN_POINT('', (6.26795000000001, 6.26794999999999, -62.));
#317 = CARTESIAN_POINT('', (6.26795, -6.96531751092152E-15, -92.));
#318 = CARTESIAN_POINT('', (6.26795, -7.63145132569661E-15, -62.));
#319 = CARTESIAN_POINT('', (6.26795, -6.26795000000001, -92.));
#320 = CARTESIAN_POINT('', (6.26795, -6.26795000000001, -62.));
#321 = CARTESIAN_POINT('', (-4.49984809451356E-15, -6.26795, -92.));
#322 = CARTESIAN_POINT('', (-4.49984809451356E-15, -6.26795, -62.));
#323 = CARTESIAN_POINT('', (-6.26795, -6.26795, -92.));
#324 = CARTESIAN_POINT('', (-6.26795, -6.26795, -62.));
#325 = CARTESIAN_POINT('', (-6.26795, 4.84634013736768E-15, -92.));
#326 = CARTESIAN_POINT('', (-6.26795, 4.18020632259258E-15, -62.));
#327 = ADVANCED_FACE('', (#328), #339, .T.);
#328 = FACE_OUTER_BOUND('', #329, .T.);
#329 = EDGE_LOOP('', (#330, #336, #337, #338));
#330 = ORIENTED_EDGE('', *, *, #331, .F.);
#331 = EDGE_CURVE('', #223, #293, #332, .T.);
#332 = LINE('', #333, #334);
#333 = CARTESIAN_POINT('', (-8., 6.12323399573677E-15, -92.));
#334 = VECTOR('', #335, 1.73205);
#335 = DIRECTION('', (1.73205, -1.0605747442316E-16, 0.));
#336 = ORIENTED_EDGE('', *, *, #238, .T.);
#337 = ORIENTED_EDGE('', *, *, #331, .T.);
#338 = ORIENTED_EDGE('', *, *, #300, .F.);
#339 = B_SPLINE_SURFACE_WITH_KNOTS('', 1, 1, ((#340, #341), (#342, #343)), .UNSPECIFIED., .F., .F., .U., (2, 2), (2, 2), (0., 1.), (0., 1.), .UNSPECIFIED.);
#340 = CARTESIAN_POINT('', (8.8, -8.8, -92.));
#341 = CARTESIAN_POINT('', (8.8, 8.80000000000001, -92.));
#342 = CARTESIAN_POINT('', (-8.8, -8.8, -92.));
#343 = CARTESIAN_POINT('', (-8.8, 8.80000000000001, -92.));
#344 = PRESENTATION_STYLE_ASSIGNMENT((#345));
#345 = SURFACE_STYLE_USAGE(.POSITIVE., #346);
#346 = SURFACE_SIDE_STYLE('', (#347));
#347 = SURFACE_STYLE_FILL_AREA(#348);
#348 = FILL_AREA_STYLE('', (#349));
#349 = FILL_AREA_STYLE_COLOUR('', #350);
#350 = COLOUR_RGB('', 0.8, 0.8, 0.8);
#351 = STYLED_ITEM('', (#344), #214);
#352 = TRIMMED_CURVE('cutting part line', #353, (#357), (#358), .T., .CARTESIAN.);
#353 = LINE('', #354, #355);
#354 = CARTESIAN_POINT('', (8., 0., -62.));
#355 = VECTOR('', #356, 1.73205);
#356 = DIRECTION('', (-1.73205, 0., 0.));
#357 = CARTESIAN_POINT('', (8., 0., -62.));
#358 = CARTESIAN_POINT('', (6.26795, 0., -62.));
#359 = TRIMMED_CURVE('cutting part line', #360, (#364), (#365), .T., .CARTESIAN.);
#360 = LINE('', #361, #362);
#361 = CARTESIAN_POINT('', (6.26795, 0., -62.));
#362 = VECTOR('', #363, 30.);
#363 = DIRECTION('', (0., 6.66032359368613E-16, -30.));
#364 = CARTESIAN_POINT('', (6.26795, 0., -62.));
#365 = CARTESIAN_POINT('', (6.26795, 6.66032359368613E-16, -92.));
#366 = TRIMMED_CURVE('cutting part line', #367, (#371), (#372), .T., .CARTESIAN.);
#367 = LINE('', #368, #369);
#368 = CARTESIAN_POINT('', (6.26795, 0., -92.));
#369 = VECTOR('', #370, 1.73205);
#370 = DIRECTION('', (1.73205, 0., 0.));
#371 = CARTESIAN_POINT('', (6.26795, 0., -92.));
#372 = CARTESIAN_POINT('', (8., 0., -92.));
#373 = TRIMMED_CURVE('cutting part line', #374, (#378), (#379), .T., .CARTESIAN.);
#374 = LINE('', #375, #376);
#375 = CARTESIAN_POINT('', (8., 5.3282588749489E-15, -92.));
#376 = VECTOR('', #377, 30.);
#377 = DIRECTION('', (0., -5.3282588749489E-15, 30.));
#378 = CARTESIAN_POINT('', (8., 5.3282588749489E-15, -92.));
#379 = CARTESIAN_POINT('', (8., 0., -62.));
#380 = COMPOSITE_CURVE('cutting part line', (#381, #382, #383, #384), .U.);
#381 = COMPOSITE_CURVE_SEGMENT(.CONTINUOUS., .T., #352);
#382 = COMPOSITE_CURVE_SEGMENT(.CONTINUOUS., .T., #359);
#383 = COMPOSITE_CURVE_SEGMENT(.CONTINUOUS., .T., #366);
#384 = COMPOSITE_CURVE_SEGMENT(.CONTINUOUS., .T., #373);
#385 = GEOMETRIC_SET('', (#380, #423));
#386 = PRESENTATION_STYLE_ASSIGNMENT((#387));
#387 = CURVE_STYLE('', #389, POSITIVE_LENGTH_MEASURE(1.E-6), #388);
#388 = COLOUR_RGB('', 0., 0., 1.);
#389 = DRAUGHTING_PRE_DEFINED_CURVE_FONT('continuous');
#390 = STYLED_ITEM('', (#386), #380);
#391 = PRESENTATION_STYLE_ASSIGNMENT((#392));
#392 = CURVE_STYLE('', #394, POSITIVE_LENGTH_MEASURE(1.E-6), #393);
#393 = COLOUR_RGB('', 0., 0., 1.);
#394 = DRAUGHTING_PRE_DEFINED_CURVE_FONT('continuous');
#395 = OVER_RIDING_STYLED_ITEM('', (#391), #352, #390);
#396 = PRESENTATION_STYLE_ASSIGNMENT((#397));
#397 = CURVE_STYLE('', #399, POSITIVE_LENGTH_MEASURE(1.E-6), #398);
#398 = COLOUR_RGB('', 0., 0., 1.);
#399 = DRAUGHTING_PRE_DEFINED_CURVE_FONT('continuous');
#400 = OVER_RIDING_STYLED_ITEM('', (#396), #359, #390);
#401 = PRESENTATION_STYLE_ASSIGNMENT((#402));
#402 = CURVE_STYLE('', #404, POSITIVE_LENGTH_MEASURE(1.E-6), #403);
#403 = COLOUR_RGB('', 0., 0., 1.);
#404 = DRAUGHTING_PRE_DEFINED_CURVE_FONT('continuous');
#405 = OVER_RIDING_STYLED_ITEM('', (#401), #366, #390);
#406 = PRESENTATION_STYLE_ASSIGNMENT((#407));
#407 = CURVE_STYLE('', #409, POSITIVE_LENGTH_MEASURE(1.E-6), #408);
#408 = COLOUR_RGB('', 0., 0., 1.);
#409 = DRAUGHTING_PRE_DEFINED_CURVE_FONT('continuous');
#410 = OVER_RIDING_STYLED_ITEM('', (#406), #373, #390);
#411 = AXIS2_PLACEMENT_3D('MCS', #412, #413, #414);
#412 = CARTESIAN_POINT('', (0., 0., -48.));
#413 = DIRECTION('', (0., 0., 1.));
#414 = DIRECTION('', (1., 0., 0.));
#415 = AXIS2_PLACEMENT_3D('PCS', #416, #417, #418);
#416 = CARTESIAN_POINT('', (0., 0., 0.));
#417 = DIRECTION('', (0., 0., 1.));
#418 = DIRECTION('', (1., 0., 0.));
#419 = AXIS2_PLACEMENT_3D('CIP', #420, #421, #422);
#420 = CARTESIAN_POINT('', (0., 0., -92.));
#421 = DIRECTION('', (0., 0., 1.));
#422 = DIRECTION('', (1., 0., 0.));
#423 = CARTESIAN_POINT('CRP', (8., 0., -92.));
#424 = (
   GEOMETRIC_REPRESENTATION_CONTEXT (3)
   GLOBAL_UNCERTAINTY_ASSIGNED_CONTEXT ((#426))
   GLOBAL_UNIT_ASSIGNED_CONTEXT ((#425, #427, #428))
   REPRESENTATION_CONTEXT ('', '3D')
);
#425 = (
   LENGTH_UNIT ()
   NAMED_UNIT (*)
   SI_UNIT (.MILLI., .METRE.)
);
#426 = UNCERTAINTY_MEASURE_WITH_UNIT(LENGTH_MEASURE(1.E-6), #425, 'DISTANCE_ACCURACY_VALUE', '');
#427 = (
   NAMED_UNIT (*)
   SI_UNIT ($, .STERADIAN.)
   SOLID_ANGLE_UNIT ()
);
#428 = (
   NAMED_UNIT (*)
   PLANE_ANGLE_UNIT ()
   SI_UNIT ($, .RADIAN.)
);
#429 = SHAPE_REPRESENTATION('', (), #424);
#430 = PRODUCT_DEFINITION_SHAPE('', '', #431);
#431 = PRODUCT_DEFINITION('', '', #434, #438);
#432 = APPLICATION_CONTEXT('configuration controlled 3D designs of mechanical parts and assemblies');
#433 = APPLICATION_PROTOCOL_DEFINITION('International Standard', 'automotive_design', 2002, #432);
#434 = PRODUCT_DEFINITION_FORMATION_WITH_SPECIFIED_SOURCE('', '', #435, .NOT_KNOWN.);
#435 = PRODUCT('product-name', 'R217.15-160200AC30N 1630', '', (#436));
#436 = PRODUCT_CONTEXT('', #432, 'mechanical');
#437 = PRODUCT_RELATED_PRODUCT_CATEGORY('detail', '', (#435));
#438 = PRODUCT_DEFINITION_CONTEXT('part definition', #432, 'design');
#439 = SHAPE_DEFINITION_REPRESENTATION(#430, #429);
#440 = CONSTRUCTIVE_GEOMETRY_REPRESENTATION('supplemental geometry', (#411, #415, #419), #424);
#441 = CONSTRUCTIVE_GEOMETRY_REPRESENTATION_RELATIONSHIP('', '', #429, #440);
#442 = SHAPE_REPRESENTATION_RELATIONSHIP('', '', #429, #443);
#443 = SHAPE_REPRESENTATION('', (#385), #424);
#444 = SHAPE_REPRESENTATION_RELATIONSHIP('', '', #429, #445);
#445 = ADVANCED_BREP_SHAPE_REPRESENTATION('', (#1, #214), #424);
ENDSEC;
END-ISO-10303-21;
