ISO-10303-21;
HEADER;
FILE_DESCRIPTION(('STEP'), '1');
FILE_NAME('C:\\Users\\ds2002\\OneDrive - Sandvik\\HomeShare\\Documents\\Batchrepair\\CorSRT2\\NEW_MILTH_SLDAC\\Output\\MOD000000000000000020084661600000.stp', '2019-01-04T10:05:20', (''), (''), 'Express v3.0.0.0', 'Express Tool', 'Unknown');
FILE_SCHEMA(('AUTOMOTIVE_DESIGN'));
ENDSEC;

DATA;
#1 = MANIFOLD_SOLID_BREP('NOCUT', #2);
#2 = CLOSED_SHELL('', (#3, #20, #67, #106, #145, #154, #174));
#3 = ADVANCED_FACE('', (#4), #15, .T.);
#4 = FACE_OUTER_BOUND('', #5, .T.);
#5 = EDGE_LOOP('', (#6));
#6 = ORIENTED_EDGE('', *, *, #7, .T.);
#7 = EDGE_CURVE('', #8, #8, #10, .T.);
#8 = VERTEX_POINT('', #9);
#9 = CARTESIAN_POINT('', (-5.06795, 5.94369771336477E-15, -92.));
#10 = CIRCLE('', #11, 5.06795);
#11 = AXIS2_PLACEMENT_3D('', #12, #13, #14);
#12 = CARTESIAN_POINT('', (-4.44089209850063E-16, 3.33066907387547E-16, -92.));
#13 = DIRECTION('', (0., 0., -1.));
#14 = DIRECTION('', (-1., 1.10708093133855E-15, 0.));
#15 = B_SPLINE_SURFACE_WITH_KNOTS('', 1, 1, ((#16, #17), (#18, #19)), .UNSPECIFIED., .F., .F., .U., (2, 2), (2, 2), (0.161233288770053, 0.838766711229947), (0.161233288770053, 0.838766711229947), .UNSPECIFIED.);
#16 = CARTESIAN_POINT('', (5.06795, -5.06795, -92.));
#17 = CARTESIAN_POINT('', (5.06795, 5.06795, -92.));
#18 = CARTESIAN_POINT('', (-5.06795, -5.06795, -92.));
#19 = CARTESIAN_POINT('', (-5.06795, 5.06795, -92.));
#20 = ADVANCED_FACE('', (#21), #48, .T.);
#21 = FACE_OUTER_BOUND('', #22, .T.);
#22 = EDGE_LOOP('', (#23, #33, #40, #41));
#23 = ORIENTED_EDGE('', *, *, #24, .F.);
#24 = EDGE_CURVE('', #25, #27, #29, .T.);
#25 = VERTEX_POINT('', #26);
#26 = CARTESIAN_POINT('', (-9., 3.94336269325448E-15, -55.4));
#27 = VERTEX_POINT('', #28);
#28 = CARTESIAN_POINT('', (-6.8, 3.94336269325448E-15, -57.6));
#29 = LINE('', #30, #31);
#30 = CARTESIAN_POINT('', (-9., 3.94336269325448E-15, -55.4));
#31 = VECTOR('', #32, 3.11126983722081);
#32 = DIRECTION('', (2.2, 0., -2.2));
#33 = ORIENTED_EDGE('', *, *, #34, .T.);
#34 = EDGE_CURVE('', #25, #25, #35, .T.);
#35 = CIRCLE('', #36, 9.);
#36 = AXIS2_PLACEMENT_3D('', #37, #38, #39);
#37 = CARTESIAN_POINT('', (4.46864767411626E-15, 2.66453525910038E-15, -55.4));
#38 = DIRECTION('', (0., 0., -1.));
#39 = DIRECTION('', (-1., 1.42091937128234E-16, 0.));
#40 = ORIENTED_EDGE('', *, *, #24, .T.);
#41 = ORIENTED_EDGE('', *, *, #42, .F.);
#42 = EDGE_CURVE('', #27, #27, #43, .T.);
#43 = CIRCLE('', #44, 6.8);
#44 = AXIS2_PLACEMENT_3D('', #45, #46, #47);
#45 = CARTESIAN_POINT('', (1.94289029309402E-16, 1.77635683940025E-15, -57.6));
#46 = DIRECTION('', (0., 0., -1.));
#47 = DIRECTION('', (-1., 3.18677331449151E-16, 0.));
#48 = (
   BOUNDED_SURFACE ()
   B_SPLINE_SURFACE (2, 1, ((#49, #50), (#51, #52), (#53, #54), (#55, #56), (#57, #58), (#59, #60), (#61, #62), (#63, #64), (#65, #66)), .UNSPECIFIED., .T., .F., .U.)
   B_SPLINE_SURFACE_WITH_KNOTS ((3, 2, 2, 2, 3), (2, 2), (0., 0.25, 0.5, 0.75, 1.), (0., 1.), .UNSPECIFIED.)
   GEOMETRIC_REPRESENTATION_ITEM ()
   RATIONAL_B_SPLINE_SURFACE (((1., 1.), (0.707106781186548, 0.707106781186548), (1., 1.), (0.707106781186548, 0.707106781186548), (1., 1.), (0.707106781186548, 0.707106781186548), (1., 1.), (0.707106781186548, 0.707106781186548), (1., 1.)))
   REPRESENTATION_ITEM ('')
   SURFACE ()
);
#49 = CARTESIAN_POINT('', (-9., 3.94336269325448E-15, -55.4));
#50 = CARTESIAN_POINT('', (-6.79999999999999, 2.74258201187224E-15, -57.6));
#51 = CARTESIAN_POINT('', (-9., 9., -55.4));
#52 = CARTESIAN_POINT('', (-6.79999999999999, 6.8, -57.6));
#53 = CARTESIAN_POINT('', (5.19638404865405E-15, 9., -55.4));
#54 = CARTESIAN_POINT('', (5.01849293487814E-15, 6.8, -57.6));
#55 = CARTESIAN_POINT('', (9.00000000000001, 9., -55.4));
#56 = CARTESIAN_POINT('', (6.8, 6.8, -57.6));
#57 = CARTESIAN_POINT('', (9.00000000000001, 2.48788994417889E-15, -55.4));
#58 = CARTESIAN_POINT('', (6.8, 1.64289149034846E-15, -57.6));
#59 = CARTESIAN_POINT('', (9.00000000000001, -9., -55.4));
#60 = CARTESIAN_POINT('', (6.8, -6.8, -57.6));
#61 = CARTESIAN_POINT('', (4.84309341881108E-15, -9., -55.4));
#62 = CARTESIAN_POINT('', (4.75156223677457E-15, -6.8, -57.6));
#63 = CARTESIAN_POINT('', (-9., -9., -55.4));
#64 = CARTESIAN_POINT('', (-6.79999999999999, -6.8, -57.6));
#65 = CARTESIAN_POINT('', (-9., 3.94336269325448E-15, -55.4));
#66 = CARTESIAN_POINT('', (-6.79999999999999, 2.74258201187224E-15, -57.6));
#67 = ADVANCED_FACE('', (#68), #87, .T.);
#68 = FACE_OUTER_BOUND('', #69, .T.);
#69 = EDGE_LOOP('', (#70, #78, #85, #86));
#70 = ORIENTED_EDGE('', *, *, #71, .T.);
#71 = EDGE_CURVE('', #25, #72, #74, .T.);
#72 = VERTEX_POINT('', #73);
#73 = CARTESIAN_POINT('', (-9., 6.06200165577939E-16, -0.899999999999999));
#74 = LINE('', #75, #76);
#75 = CARTESIAN_POINT('', (-9., 3.94336269325448E-15, -55.4));
#76 = VECTOR('', #77, 54.5);
#77 = DIRECTION('', (0., -3.33716252767654E-15, 54.5));
#78 = ORIENTED_EDGE('', *, *, #79, .T.);
#79 = EDGE_CURVE('', #72, #72, #80, .T.);
#80 = CIRCLE('', #81, 9.);
#81 = AXIS2_PLACEMENT_3D('', #82, #83, #84);
#82 = CARTESIAN_POINT('', (-1.36002320516582E-15, -5.10702591327572E-15, -0.899999999999999));
#83 = DIRECTION('', (1.2335811384724E-17, 4.38384980413081E-17, -1.));
#84 = DIRECTION('', (-1., 6.34802897650407E-16, -1.2335811384724E-17));
#85 = ORIENTED_EDGE('', *, *, #71, .F.);
#86 = ORIENTED_EDGE('', *, *, #34, .F.);
#87 = (
   BOUNDED_SURFACE ()
   B_SPLINE_SURFACE (1, 2, ((#88, #89, #90, #91, #92, #93, #94, #95, #96), (#97, #98, #99, #100, #101, #102, #103, #104, #105)), .UNSPECIFIED., .F., .T., .U.)
   B_SPLINE_SURFACE_WITH_KNOTS ((2, 2), (3, 2, 2, 2, 3), (0., 1.), (0., 14.1371669411541, 28.2743338823082, 42.4115008234622, 56.5486677646163), .UNSPECIFIED.)
   GEOMETRIC_REPRESENTATION_ITEM ()
   RATIONAL_B_SPLINE_SURFACE (((1., 0.707106781186548, 1., 0.707106781186548, 1., 0.707106781186548, 1., 0.707106781186548, 1.), (1., 0.707106781186548, 1., 0.707106781186548, 1., 0.707106781186548, 1., 0.707106781186548, 1.)))
   REPRESENTATION_ITEM ('')
   SURFACE ()
);
#88 = CARTESIAN_POINT('', (-9., 3.93686923945341E-15, -55.4));
#89 = CARTESIAN_POINT('', (-9., 9.00000000000001, -55.4));
#90 = CARTESIAN_POINT('', (4.47441353453899E-15, 9., -55.4));
#91 = CARTESIAN_POINT('', (9.00000000000001, 9., -55.4));
#92 = CARTESIAN_POINT('', (9., -6.38740079902129E-15, -55.4));
#93 = CARTESIAN_POINT('', (9., -9.00000000000001, -55.4));
#94 = CARTESIAN_POINT('', (-4.74767438470309E-15, -9.00000000000001, -55.4));
#95 = CARTESIAN_POINT('', (-9.00000000000001, -9., -55.4));
#96 = CARTESIAN_POINT('', (-9., 3.93686923945341E-15, -55.4));
#97 = CARTESIAN_POINT('', (-9., 6.06200165577941E-16, -0.899999999999999));
#98 = CARTESIAN_POINT('', (-9., 9., -0.899999999999998));
#99 = CARTESIAN_POINT('', (3.80211181407154E-15, 9., -0.899999999999998));
#100 = CARTESIAN_POINT('', (9.00000000000001, 8.99999999999999, -0.899999999999998));
#101 = CARTESIAN_POINT('', (9., -9.71806987289676E-15, -0.899999999999999));
#102 = CARTESIAN_POINT('', (9., -9.00000000000001, -0.899999999999999));
#103 = CARTESIAN_POINT('', (-5.41997610517055E-15, -9.00000000000001, -0.899999999999999));
#104 = CARTESIAN_POINT('', (-9.00000000000001, -9., -0.9));
#105 = CARTESIAN_POINT('', (-9., 6.06200165577941E-16, -0.899999999999999));
#106 = ADVANCED_FACE('', (#107), #126, .T.);
#107 = FACE_OUTER_BOUND('', #108, .T.);
#108 = EDGE_LOOP('', (#109, #117, #124, #125));
#109 = ORIENTED_EDGE('', *, *, #110, .T.);
#110 = EDGE_CURVE('', #72, #111, #113, .T.);
#111 = VERTEX_POINT('', #112);
#112 = CARTESIAN_POINT('', (-8.1, 4.95981953654678E-16, 0.));
#113 = LINE('', #114, #115);
#114 = CARTESIAN_POINT('', (-9., 6.06200165577939E-16, -0.899999999999999));
#115 = VECTOR('', #116, 1.27279220613579);
#116 = DIRECTION('', (0.9, -1.10218211923261E-16, 0.899999999999999));
#117 = ORIENTED_EDGE('', *, *, #118, .T.);
#118 = EDGE_CURVE('', #111, #111, #119, .T.);
#119 = CIRCLE('', #120, 8.1);
#120 = AXIS2_PLACEMENT_3D('', #121, #122, #123);
#121 = CARTESIAN_POINT('', (2.4980018054066E-15, 2.22044604925031E-16, 2.46519032881566E-32));
#122 = DIRECTION('', (5.11428742624572E-33, 6.12323399573676E-17, -1.));
#123 = DIRECTION('', (-1., 3.38194257690922E-17, -3.04344485038971E-33));
#124 = ORIENTED_EDGE('', *, *, #110, .F.);
#125 = ORIENTED_EDGE('', *, *, #79, .F.);
#126 = (
   BOUNDED_SURFACE ()
   B_SPLINE_SURFACE (1, 2, ((#127, #128, #129, #130, #131, #132, #133, #134, #135), (#136, #137, #138, #139, #140, #141, #142, #143, #144)), .UNSPECIFIED., .F., .T., .U.)
   B_SPLINE_SURFACE_WITH_KNOTS ((2, 2), (3, 2, 2, 2, 3), (0., 1.), (0., 0.25, 0.5, 0.75, 1.), .UNSPECIFIED.)
   GEOMETRIC_REPRESENTATION_ITEM ()
   RATIONAL_B_SPLINE_SURFACE (((1., 0.707106781186548, 1., 0.707106781186548, 1., 0.707106781186548, 1., 0.707106781186548, 1.), (1., 0.707106781186548, 1., 0.707106781186548, 1., 0.707106781186548, 1., 0.707106781186548, 1.)))
   REPRESENTATION_ITEM ('')
   SURFACE ()
);
#127 = CARTESIAN_POINT('', (-9., 5.26419436846861E-16, -0.899999999999999));
#128 = CARTESIAN_POINT('', (-9., 9., -0.899999999999999));
#129 = CARTESIAN_POINT('', (2.25128557771212E-15, 9., -0.899999999999999));
#130 = CARTESIAN_POINT('', (9., 9., -0.899999999999999));
#131 = CARTESIAN_POINT('', (9., 1.01985189223582E-15, -0.899999999999999));
#132 = CARTESIAN_POINT('', (9., -9., -0.899999999999999));
#133 = CARTESIAN_POINT('', (3.8469001523337E-15, -9., -0.899999999999999));
#134 = CARTESIAN_POINT('', (-9., -9., -0.899999999999999));
#135 = CARTESIAN_POINT('', (-9., 5.26419436846861E-16, -0.899999999999999));
#136 = CARTESIAN_POINT('', (-8.1, 4.95981953654678E-16, 5.47382212626882E-48));
#137 = CARTESIAN_POINT('', (-8.1, 8.1, 6.33607399717552E-31));
#138 = CARTESIAN_POINT('', (2.27595720048157E-15, 8.1, 6.58259303005708E-31));
#139 = CARTESIAN_POINT('', (8.1, 8.1, 6.82911206293865E-31));
#140 = CARTESIAN_POINT('', (8.1, 9.40071163504741E-16, 4.93038065763133E-32));
#141 = CARTESIAN_POINT('', (8.1, -8.1, -5.84303593141239E-31));
#142 = CARTESIAN_POINT('', (3.71201031764099E-15, -8.1, -6.08955496429395E-31));
#143 = CARTESIAN_POINT('', (-8.1, -8.1, -6.33607399717552E-31));
#144 = CARTESIAN_POINT('', (-8.1, 4.95981953654678E-16, 5.47382212626882E-48));
#145 = ADVANCED_FACE('', (#146), #149, .T.);
#146 = FACE_OUTER_BOUND('', #147, .T.);
#147 = EDGE_LOOP('', (#148));
#148 = ORIENTED_EDGE('', *, *, #118, .F.);
#149 = B_SPLINE_SURFACE_WITH_KNOTS('', 1, 1, ((#150, #151), (#152, #153)), .UNSPECIFIED., .F., .F., .U., (2, 2), (2, 2), (0.0454545454545454, 0.954545454545455), (0.0454545454545454, 0.954545454545454), .UNSPECIFIED.);
#150 = CARTESIAN_POINT('', (8.1, -8.1, -4.95981953654678E-16));
#151 = CARTESIAN_POINT('', (-8.1, -8.1, -4.95981953654678E-16));
#152 = CARTESIAN_POINT('', (8.1, 8.1, 4.95981953654678E-16));
#153 = CARTESIAN_POINT('', (-8.1, 8.1, 4.95981953654678E-16));
#154 = ADVANCED_FACE('', (#155, #158), #169, .T.);
#155 = FACE_OUTER_BOUND('', #156, .T.);
#156 = EDGE_LOOP('', (#157));
#157 = ORIENTED_EDGE('', *, *, #42, .T.);
#158 = FACE_BOUND('', #159, .T.);
#159 = EDGE_LOOP('', (#160));
#160 = ORIENTED_EDGE('', *, *, #161, .F.);
#161 = EDGE_CURVE('', #162, #162, #164, .T.);
#162 = VERTEX_POINT('', #163);
#163 = CARTESIAN_POINT('', (-5.06795, 3.83730521883132E-15, -57.6));
#164 = CIRCLE('', #165, 5.06795);
#165 = AXIS2_PLACEMENT_3D('', #166, #167, #168);
#166 = CARTESIAN_POINT('', (-1.22124532708767E-15, 8.88178419700125E-16, -57.6));
#167 = DIRECTION('', (0., 0., -1.));
#168 = DIRECTION('', (-1., 5.8191710635093E-16, 0.));
#169 = B_SPLINE_SURFACE_WITH_KNOTS('', 1, 1, ((#170, #171), (#172, #173)), .UNSPECIFIED., .F., .F., .U., (2, 2), (2, 2), (0.0454545454545453, 0.954545454545454), (0.0454545454545452, 0.954545454545455), .UNSPECIFIED.);
#170 = CARTESIAN_POINT('', (6.8, -6.8, -57.6));
#171 = CARTESIAN_POINT('', (6.8, 6.8, -57.6));
#172 = CARTESIAN_POINT('', (-6.8, -6.8, -57.6));
#173 = CARTESIAN_POINT('', (-6.8, 6.8, -57.6));
#174 = ADVANCED_FACE('', (#175), #186, .T.);
#175 = FACE_OUTER_BOUND('', #176, .T.);
#176 = EDGE_LOOP('', (#177, #183, #184, #185));
#177 = ORIENTED_EDGE('', *, *, #178, .T.);
#178 = EDGE_CURVE('', #8, #162, #179, .T.);
#179 = LINE('', #180, #181);
#180 = CARTESIAN_POINT('', (-5.06795, 5.94369771336477E-15, -92.));
#181 = VECTOR('', #182, 34.4);
#182 = DIRECTION('', (0., -2.10639249453345E-15, 34.4));
#183 = ORIENTED_EDGE('', *, *, #161, .T.);
#184 = ORIENTED_EDGE('', *, *, #178, .F.);
#185 = ORIENTED_EDGE('', *, *, #7, .F.);
#186 = (
   BOUNDED_SURFACE ()
   B_SPLINE_SURFACE (1, 2, ((#187, #188, #189, #190, #191, #192, #193, #194, #195), (#196, #197, #198, #199, #200, #201, #202, #203, #204)), .UNSPECIFIED., .F., .T., .U.)
   B_SPLINE_SURFACE_WITH_KNOTS ((2, 2), (3, 2, 2, 2, 3), (0., 1.), (0., 7.9607172443802, 15.9214344887604, 23.8821517331406, 31.8428689775208), .UNSPECIFIED.)
   GEOMETRIC_REPRESENTATION_ITEM ()
   RATIONAL_B_SPLINE_SURFACE (((1., 0.707106781186548, 1., 0.707106781186548, 1., 0.707106781186548, 1., 0.707106781186548, 1.), (1., 0.707106781186548, 1., 0.707106781186548, 1., 0.707106781186548, 1., 0.707106781186548, 1.)))
   REPRESENTATION_ITEM ('')
   SURFACE ()
);
#187 = CARTESIAN_POINT('', (-5.06795, 3.28219370651874E-15, -92.));
#188 = CARTESIAN_POINT('', (-5.06795, 5.06795, -92.));
#189 = CARTESIAN_POINT('', (1.41755903475658E-15, 5.06795, -92.));
#190 = CARTESIAN_POINT('', (5.06795, 5.06795, -92.));
#191 = CARTESIAN_POINT('', (5.06795, -1.99541501716976E-15, -92.));
#192 = CARTESIAN_POINT('', (5.06795, -5.06795, -92.));
#193 = CARTESIAN_POINT('', (-3.23940481435804E-15, -5.06795, -92.));
#194 = CARTESIAN_POINT('', (-5.06795, -5.06795, -92.));
#195 = CARTESIAN_POINT('', (-5.06795, 3.28219370651874E-15, -92.));
#196 = CARTESIAN_POINT('', (-5.06795, 3.83730521883132E-15, -57.6));
#197 = CARTESIAN_POINT('', (-5.06795, 5.06795, -57.6));
#198 = CARTESIAN_POINT('', (1.41755903475658E-15, 5.06795, -57.6));
#199 = CARTESIAN_POINT('', (5.06795, 5.06795, -57.6));
#200 = CARTESIAN_POINT('', (5.06795, -1.44030350485719E-15, -57.6));
#201 = CARTESIAN_POINT('', (5.06795, -5.06795, -57.6));
#202 = CARTESIAN_POINT('', (-3.23940481435804E-15, -5.06795, -57.6));
#203 = CARTESIAN_POINT('', (-5.06795, -5.06795, -57.6));
#204 = CARTESIAN_POINT('', (-5.06795, 3.83730521883132E-15, -57.6));
#205 = DRAUGHTING_MODEL('', (#213, #351, #390, #395, #400, #405, #410), #424);
#206 = PRESENTATION_STYLE_ASSIGNMENT((#207));
#207 = SURFACE_STYLE_USAGE(.POSITIVE., #208);
#208 = SURFACE_SIDE_STYLE('', (#209));
#209 = SURFACE_STYLE_FILL_AREA(#210);
#210 = FILL_AREA_STYLE('', (#211));
#211 = FILL_AREA_STYLE_COLOUR('', #212);
#212 = COLOUR_RGB('', 0.50196078431373, 0.50196078431373, 0.50196078431373);
#213 = STYLED_ITEM('', (#206), #1);
#214 = MANIFOLD_SOLID_BREP('CUT', #215);
#215 = CLOSED_SHELL('', (#216, #263, #288, #327));
#216 = ADVANCED_FACE('', (#217), #244, .T.);
#217 = FACE_OUTER_BOUND('', #218, .T.);
#218 = EDGE_LOOP('', (#219, #229, #236, #237));
#219 = ORIENTED_EDGE('', *, *, #220, .F.);
#220 = EDGE_CURVE('', #221, #223, #225, .T.);
#221 = VERTEX_POINT('', #222);
#222 = CARTESIAN_POINT('', (-6.8, 3.94336269325448E-15, -57.6));
#223 = VERTEX_POINT('', #224);
#224 = CARTESIAN_POINT('', (-6.8, 6.04975518778793E-15, -92.));
#225 = LINE('', #226, #227);
#226 = CARTESIAN_POINT('', (-6.8, 3.94336269325448E-15, -57.6));
#227 = VECTOR('', #228, 34.4);
#228 = DIRECTION('', (0., 2.10639249453345E-15, -34.4));
#229 = ORIENTED_EDGE('', *, *, #230, .T.);
#230 = EDGE_CURVE('', #221, #221, #231, .T.);
#231 = CIRCLE('', #232, 6.8);
#232 = AXIS2_PLACEMENT_3D('', #233, #234, #235);
#233 = CARTESIAN_POINT('', (3.88578058618805E-16, 2.66453525910038E-15, -57.6));
#234 = DIRECTION('', (0., 0., -1.));
#235 = DIRECTION('', (-1., 1.88062857963839E-16, 0.));
#236 = ORIENTED_EDGE('', *, *, #220, .T.);
#237 = ORIENTED_EDGE('', *, *, #238, .F.);
#238 = EDGE_CURVE('', #223, #223, #239, .T.);
#239 = CIRCLE('', #240, 6.8);
#240 = AXIS2_PLACEMENT_3D('', #241, #242, #243);
#241 = CARTESIAN_POINT('', (4.16333634234434E-16, 2.99760216648792E-15, -92.));
#242 = DIRECTION('', (0., 0., -1.));
#243 = DIRECTION('', (-1., 4.48846032544119E-16, 0.));
#244 = (
   BOUNDED_SURFACE ()
   B_SPLINE_SURFACE (2, 1, ((#245, #246), (#247, #248), (#249, #250), (#251, #252), (#253, #254), (#255, #256), (#257, #258), (#259, #260), (#261, #262)), .UNSPECIFIED., .T., .F., .U.)
   B_SPLINE_SURFACE_WITH_KNOTS ((3, 2, 2, 2, 3), (2, 2), (0., 10.6814150222053, 21.3628300444106, 32.0442450666159, 42.7256600888212), (0., 1.), .UNSPECIFIED.)
   GEOMETRIC_REPRESENTATION_ITEM ()
   RATIONAL_B_SPLINE_SURFACE (((1., 1.), (0.707106781186548, 0.707106781186548), (1., 1.), (0.707106781186548, 0.707106781186548), (1., 1.), (0.707106781186548, 0.707106781186548), (1., 1.), (0.707106781186548, 0.707106781186548), (1., 1.)))
   REPRESENTATION_ITEM ('')
   SURFACE ()
);
#245 = CARTESIAN_POINT('', (-6.8, 3.94336269325448E-15, -57.6));
#246 = CARTESIAN_POINT('', (-6.79999999999996, 5.94176413757975E-15, -92.));
#247 = CARTESIAN_POINT('', (-6.8, 6.8, -57.6));
#248 = CARTESIAN_POINT('', (-6.79999999999996, 6.80000000000001, -92.));
#249 = CARTESIAN_POINT('', (2.94411569361617E-15, 6.8, -57.6));
#250 = CARTESIAN_POINT('', (3.88892187967742E-14, 6.8, -92.));
#251 = CARTESIAN_POINT('', (6.8, 6.8, -57.6));
#252 = CARTESIAN_POINT('', (6.80000000000004, 6.8, -92.));
#253 = CARTESIAN_POINT('', (6.8, -1.112201425509E-15, -57.6));
#254 = CARTESIAN_POINT('', (6.80000000000004, 8.86200018816267E-16, -92.));
#255 = CARTESIAN_POINT('', (6.8, -6.8, -57.6));
#256 = CARTESIAN_POINT('', (6.80000000000004, -6.8, -92.));
#257 = CARTESIAN_POINT('', (-1.2786886017271E-15, -6.8, -57.6));
#258 = CARTESIAN_POINT('', (3.46664145014309E-14, -6.8, -92.));
#259 = CARTESIAN_POINT('', (-6.8, -6.8, -57.6));
#260 = CARTESIAN_POINT('', (-6.79999999999997, -6.8, -92.));
#261 = CARTESIAN_POINT('', (-6.8, 3.94336269325448E-15, -57.6));
#262 = CARTESIAN_POINT('', (-6.79999999999996, 5.94176413757975E-15, -92.));
#263 = ADVANCED_FACE('', (#264), #283, .T.);
#264 = FACE_OUTER_BOUND('', #265, .T.);
#265 = EDGE_LOOP('', (#266, #274, #281, #282));
#266 = ORIENTED_EDGE('', *, *, #267, .F.);
#267 = EDGE_CURVE('', #268, #221, #270, .T.);
#268 = VERTEX_POINT('', #269);
#269 = CARTESIAN_POINT('', (-5.06795, 3.83730521883132E-15, -57.6));
#270 = LINE('', #271, #272);
#271 = CARTESIAN_POINT('', (-5.06795, 3.83730521883132E-15, -57.6));
#272 = VECTOR('', #273, 1.73205);
#273 = DIRECTION('', (-1.73205, 1.0605747442316E-16, 0.));
#274 = ORIENTED_EDGE('', *, *, #275, .T.);
#275 = EDGE_CURVE('', #268, #268, #276, .T.);
#276 = CIRCLE('', #277, 5.06795);
#277 = AXIS2_PLACEMENT_3D('', #278, #279, #280);
#278 = CARTESIAN_POINT('', (-1.22124532708767E-15, 8.88178419700125E-16, -57.6));
#279 = DIRECTION('', (0., 0., -1.));
#280 = DIRECTION('', (-1., 5.8191710635093E-16, 0.));
#281 = ORIENTED_EDGE('', *, *, #267, .T.);
#282 = ORIENTED_EDGE('', *, *, #230, .F.);
#283 = B_SPLINE_SURFACE_WITH_KNOTS('', 1, 1, ((#284, #285), (#286, #287)), .UNSPECIFIED., .F., .F., .U., (2, 2), (2, 2), (0., 1.), (0., 1.), .UNSPECIFIED.);
#284 = CARTESIAN_POINT('', (7.48, -7.48, -57.6));
#285 = CARTESIAN_POINT('', (-7.48, -7.48, -57.6));
#286 = CARTESIAN_POINT('', (7.48, 7.48, -57.6));
#287 = CARTESIAN_POINT('', (-7.48, 7.48, -57.6));
#288 = ADVANCED_FACE('', (#289), #308, .T.);
#289 = FACE_OUTER_BOUND('', #290, .T.);
#290 = EDGE_LOOP('', (#291, #299, #306, #307));
#291 = ORIENTED_EDGE('', *, *, #292, .F.);
#292 = EDGE_CURVE('', #293, #268, #295, .T.);
#293 = VERTEX_POINT('', #294);
#294 = CARTESIAN_POINT('', (-5.06795, 5.94369771336477E-15, -92.));
#295 = LINE('', #296, #297);
#296 = CARTESIAN_POINT('', (-5.06795, 5.94369771336477E-15, -92.));
#297 = VECTOR('', #298, 34.4);
#298 = DIRECTION('', (0., -2.10639249453345E-15, 34.4));
#299 = ORIENTED_EDGE('', *, *, #300, .T.);
#300 = EDGE_CURVE('', #293, #293, #301, .T.);
#301 = CIRCLE('', #302, 5.06795);
#302 = AXIS2_PLACEMENT_3D('', #303, #304, #305);
#303 = CARTESIAN_POINT('', (-4.44089209850063E-16, 3.33066907387547E-16, -92.));
#304 = DIRECTION('', (0., 0., -1.));
#305 = DIRECTION('', (-1., 1.10708093133855E-15, 0.));
#306 = ORIENTED_EDGE('', *, *, #292, .T.);
#307 = ORIENTED_EDGE('', *, *, #275, .F.);
#308 = (
   BOUNDED_SURFACE ()
   B_SPLINE_SURFACE (2, 1, ((#309, #310), (#311, #312), (#313, #314), (#315, #316), (#317, #318), (#319, #320), (#321, #322), (#323, #324), (#325, #326)), .UNSPECIFIED., .T., .F., .U.)
   B_SPLINE_SURFACE_WITH_KNOTS ((3, 2, 2, 2, 3), (2, 2), (0., 7.9607172443802, 15.9214344887604, 23.8821517331406, 31.8428689775208), (0., 1.), .UNSPECIFIED.)
   GEOMETRIC_REPRESENTATION_ITEM ()
   RATIONAL_B_SPLINE_SURFACE (((1., 1.), (0.707106781186548, 0.707106781186548), (1., 1.), (0.707106781186548, 0.707106781186548), (1., 1.), (0.707106781186548, 0.707106781186548), (1., 1.), (0.707106781186548, 0.707106781186548), (1., 1.)))
   REPRESENTATION_ITEM ('')
   SURFACE ()
);
#309 = CARTESIAN_POINT('', (-5.06795, 3.28219370651874E-15, -92.));
#310 = CARTESIAN_POINT('', (-5.06795, 3.83730521883132E-15, -57.6));
#311 = CARTESIAN_POINT('', (-5.06795, 5.06795, -92.));
#312 = CARTESIAN_POINT('', (-5.06795, 5.06795, -57.6));
#313 = CARTESIAN_POINT('', (1.41755903475658E-15, 5.06795, -92.));
#314 = CARTESIAN_POINT('', (1.41755903475658E-15, 5.06795, -57.6));
#315 = CARTESIAN_POINT('', (5.06795, 5.06795, -92.));
#316 = CARTESIAN_POINT('', (5.06795, 5.06795, -57.6));
#317 = CARTESIAN_POINT('', (5.06795, -1.99541501716976E-15, -92.));
#318 = CARTESIAN_POINT('', (5.06795, -1.44030350485719E-15, -57.6));
#319 = CARTESIAN_POINT('', (5.06795, -5.06795, -92.));
#320 = CARTESIAN_POINT('', (5.06795, -5.06795, -57.6));
#321 = CARTESIAN_POINT('', (-3.23940481435804E-15, -5.06795, -92.));
#322 = CARTESIAN_POINT('', (-3.23940481435804E-15, -5.06795, -57.6));
#323 = CARTESIAN_POINT('', (-5.06795, -5.06795, -92.));
#324 = CARTESIAN_POINT('', (-5.06795, -5.06795, -57.6));
#325 = CARTESIAN_POINT('', (-5.06795, 3.28219370651874E-15, -92.));
#326 = CARTESIAN_POINT('', (-5.06795, 3.83730521883132E-15, -57.6));
#327 = ADVANCED_FACE('', (#328), #339, .T.);
#328 = FACE_OUTER_BOUND('', #329, .T.);
#329 = EDGE_LOOP('', (#330, #336, #337, #338));
#330 = ORIENTED_EDGE('', *, *, #331, .F.);
#331 = EDGE_CURVE('', #223, #293, #332, .T.);
#332 = LINE('', #333, #334);
#333 = CARTESIAN_POINT('', (-6.8, 6.04975518778793E-15, -92.));
#334 = VECTOR('', #335, 1.73205);
#335 = DIRECTION('', (1.73205, -1.0605747442316E-16, 0.));
#336 = ORIENTED_EDGE('', *, *, #238, .T.);
#337 = ORIENTED_EDGE('', *, *, #331, .T.);
#338 = ORIENTED_EDGE('', *, *, #300, .F.);
#339 = B_SPLINE_SURFACE_WITH_KNOTS('', 1, 1, ((#340, #341), (#342, #343)), .UNSPECIFIED., .F., .F., .U., (2, 2), (2, 2), (0., 1.), (0., 1.), .UNSPECIFIED.);
#340 = CARTESIAN_POINT('', (7.48, -7.48, -92.));
#341 = CARTESIAN_POINT('', (7.48, 7.48, -92.));
#342 = CARTESIAN_POINT('', (-7.48, -7.47999999999999, -92.));
#343 = CARTESIAN_POINT('', (-7.48, 7.48000000000001, -92.));
#344 = PRESENTATION_STYLE_ASSIGNMENT((#345));
#345 = SURFACE_STYLE_USAGE(.POSITIVE., #346);
#346 = SURFACE_SIDE_STYLE('', (#347));
#347 = SURFACE_STYLE_FILL_AREA(#348);
#348 = FILL_AREA_STYLE('', (#349));
#349 = FILL_AREA_STYLE_COLOUR('', #350);
#350 = COLOUR_RGB('', 0.8, 0.8, 0.8);
#351 = STYLED_ITEM('', (#344), #214);
#352 = TRIMMED_CURVE('cutting part line', #353, (#357), (#358), .T., .CARTESIAN.);
#353 = LINE('', #354, #355);
#354 = CARTESIAN_POINT('', (6.8, 0., -57.6));
#355 = VECTOR('', #356, 1.73205);
#356 = DIRECTION('', (-1.73205, 0., 0.));
#357 = CARTESIAN_POINT('', (6.8, 0., -57.6));
#358 = CARTESIAN_POINT('', (5.06795, 0., -57.6));
#359 = TRIMMED_CURVE('cutting part line', #360, (#364), (#365), .T., .CARTESIAN.);
#360 = LINE('', #361, #362);
#361 = CARTESIAN_POINT('', (5.06795, 0., -57.6));
#362 = VECTOR('', #363, 34.4);
#363 = DIRECTION('', (0., -5.5502696614051E-16, -34.4));
#364 = CARTESIAN_POINT('', (5.06795, 0., -57.6));
#365 = CARTESIAN_POINT('', (5.06795, -5.5502696614051E-16, -92.));
#366 = TRIMMED_CURVE('cutting part line', #367, (#371), (#372), .T., .CARTESIAN.);
#367 = LINE('', #368, #369);
#368 = CARTESIAN_POINT('', (5.06795, 0., -92.));
#369 = VECTOR('', #370, 1.73205);
#370 = DIRECTION('', (1.73205, 0., 0.));
#371 = CARTESIAN_POINT('', (5.06795, 0., -92.));
#372 = CARTESIAN_POINT('', (6.8, 0., -92.));
#373 = TRIMMED_CURVE('cutting part line', #374, (#378), (#379), .T., .CARTESIAN.);
#374 = LINE('', #375, #376);
#375 = CARTESIAN_POINT('', (6.80000000000004, 2.6254256268922E-15, -92.));
#376 = VECTOR('', #377, 34.4);
#377 = DIRECTION('', (-3.5527136788005E-14, -2.6254256268922E-15, 34.4));
#378 = CARTESIAN_POINT('', (6.80000000000004, 2.6254256268922E-15, -92.));
#379 = CARTESIAN_POINT('', (6.8, 0., -57.6));
#380 = COMPOSITE_CURVE('cutting part line', (#381, #382, #383, #384), .U.);
#381 = COMPOSITE_CURVE_SEGMENT(.CONTINUOUS., .T., #352);
#382 = COMPOSITE_CURVE_SEGMENT(.CONTINUOUS., .T., #359);
#383 = COMPOSITE_CURVE_SEGMENT(.CONTINUOUS., .T., #366);
#384 = COMPOSITE_CURVE_SEGMENT(.CONTINUOUS., .T., #373);
#385 = GEOMETRIC_SET('', (#380, #423));
#386 = PRESENTATION_STYLE_ASSIGNMENT((#387));
#387 = CURVE_STYLE('', #389, POSITIVE_LENGTH_MEASURE(1.E-6), #388);
#388 = COLOUR_RGB('', 0., 0., 1.);
#389 = DRAUGHTING_PRE_DEFINED_CURVE_FONT('continuous');
#390 = STYLED_ITEM('', (#386), #380);
#391 = PRESENTATION_STYLE_ASSIGNMENT((#392));
#392 = CURVE_STYLE('', #394, POSITIVE_LENGTH_MEASURE(1.E-6), #393);
#393 = COLOUR_RGB('', 0., 0., 1.);
#394 = DRAUGHTING_PRE_DEFINED_CURVE_FONT('continuous');
#395 = OVER_RIDING_STYLED_ITEM('', (#391), #352, #390);
#396 = PRESENTATION_STYLE_ASSIGNMENT((#397));
#397 = CURVE_STYLE('', #399, POSITIVE_LENGTH_MEASURE(1.E-6), #398);
#398 = COLOUR_RGB('', 0., 0., 1.);
#399 = DRAUGHTING_PRE_DEFINED_CURVE_FONT('continuous');
#400 = OVER_RIDING_STYLED_ITEM('', (#396), #359, #390);
#401 = PRESENTATION_STYLE_ASSIGNMENT((#402));
#402 = CURVE_STYLE('', #404, POSITIVE_LENGTH_MEASURE(1.E-6), #403);
#403 = COLOUR_RGB('', 0., 0., 1.);
#404 = DRAUGHTING_PRE_DEFINED_CURVE_FONT('continuous');
#405 = OVER_RIDING_STYLED_ITEM('', (#401), #366, #390);
#406 = PRESENTATION_STYLE_ASSIGNMENT((#407));
#407 = CURVE_STYLE('', #409, POSITIVE_LENGTH_MEASURE(1.E-6), #408);
#408 = COLOUR_RGB('', 0., 0., 1.);
#409 = DRAUGHTING_PRE_DEFINED_CURVE_FONT('continuous');
#410 = OVER_RIDING_STYLED_ITEM('', (#406), #373, #390);
#411 = AXIS2_PLACEMENT_3D('MCS', #412, #413, #414);
#412 = CARTESIAN_POINT('', (0., 0., -48.));
#413 = DIRECTION('', (0., 0., 1.));
#414 = DIRECTION('', (1., 0., 0.));
#415 = AXIS2_PLACEMENT_3D('PCS', #416, #417, #418);
#416 = CARTESIAN_POINT('', (0., 0., 0.));
#417 = DIRECTION('', (0., 0., 1.));
#418 = DIRECTION('', (1., 0., 0.));
#419 = AXIS2_PLACEMENT_3D('CIP', #420, #421, #422);
#420 = CARTESIAN_POINT('', (0., 0., -92.));
#421 = DIRECTION('', (0., 0., 1.));
#422 = DIRECTION('', (1., 0., 0.));
#423 = CARTESIAN_POINT('CRP', (6.80000000000004, 0., -92.));
#424 = (
   GEOMETRIC_REPRESENTATION_CONTEXT (3)
   GLOBAL_UNCERTAINTY_ASSIGNED_CONTEXT ((#426))
   GLOBAL_UNIT_ASSIGNED_CONTEXT ((#425, #427, #428))
   REPRESENTATION_CONTEXT ('', '3D')
);
#425 = (
   LENGTH_UNIT ()
   NAMED_UNIT (*)
   SI_UNIT (.MILLI., .METRE.)
);
#426 = UNCERTAINTY_MEASURE_WITH_UNIT(LENGTH_MEASURE(1.E-6), #425, 'DISTANCE_ACCURACY_VALUE', '');
#427 = (
   NAMED_UNIT (*)
   SI_UNIT ($, .STERADIAN.)
   SOLID_ANGLE_UNIT ()
);
#428 = (
   NAMED_UNIT (*)
   PLANE_ANGLE_UNIT ()
   SI_UNIT ($, .RADIAN.)
);
#429 = SHAPE_REPRESENTATION('', (), #424);
#430 = PRODUCT_DEFINITION_SHAPE('', '', #431);
#431 = PRODUCT_DEFINITION('', '', #434, #438);
#432 = APPLICATION_CONTEXT('configuration controlled 3D designs of mechanical parts and assemblies');
#433 = APPLICATION_PROTOCOL_DEFINITION('International Standard', 'automotive_design', 2002, #432);
#434 = PRODUCT_DEFINITION_FORMATION_WITH_SPECIFIED_SOURCE('', '', #435, .NOT_KNOWN.);
#435 = PRODUCT('product-name', 'R217.14C136200CC34K 1630', '', (#436));
#436 = PRODUCT_CONTEXT('', #432, 'mechanical');
#437 = PRODUCT_RELATED_PRODUCT_CATEGORY('detail', '', (#435));
#438 = PRODUCT_DEFINITION_CONTEXT('part definition', #432, 'design');
#439 = SHAPE_DEFINITION_REPRESENTATION(#430, #429);
#440 = CONSTRUCTIVE_GEOMETRY_REPRESENTATION('supplemental geometry', (#411, #415, #419), #424);
#441 = CONSTRUCTIVE_GEOMETRY_REPRESENTATION_RELATIONSHIP('', '', #429, #440);
#442 = SHAPE_REPRESENTATION_RELATIONSHIP('', '', #429, #443);
#443 = SHAPE_REPRESENTATION('', (#385), #424);
#444 = SHAPE_REPRESENTATION_RELATIONSHIP('', '', #429, #445);
#445 = ADVANCED_BREP_SHAPE_REPRESENTATION('', (#1, #214), #424);
ENDSEC;
END-ISO-10303-21;
