ISO-10303-21;
HEADER;
FILE_DESCRIPTION(('STEP'), '1');
FILE_NAME('C:\\Users\\ds2002\\OneDrive - Sandvik\\HomeShare\\Documents\\Batchrepair\\CorSRT2\\NEW_MILTH_SLD\\Output\\MOD000000000000000020084661500000.stp', '2019-01-04T08:50:45', (''), (''), 'Express v3.0.0.0', 'Express Tool', 'Unknown');
FILE_SCHEMA(('AUTOMOTIVE_DESIGN'));
ENDSEC;

DATA;
#1 = MANIFOLD_SOLID_BREP('NOCUT', #2);
#2 = CLOSED_SHELL('', (#3, #50, #59, #98, #115, #135));
#3 = ADVANCED_FACE('', (#4), #31, .T.);
#4 = FACE_OUTER_BOUND('', #5, .T.);
#5 = EDGE_LOOP('', (#6, #16, #23, #24));
#6 = ORIENTED_EDGE('', *, *, #7, .T.);
#7 = EDGE_CURVE('', #8, #10, #12, .T.);
#8 = VERTEX_POINT('', #9);
#9 = CARTESIAN_POINT('', (-6., 4.04133443718627E-16, -0.600000000000001));
#10 = VERTEX_POINT('', #11);
#11 = CARTESIAN_POINT('', (-5.4, 3.30654635769785E-16, 0.));
#12 = LINE('', #13, #14);
#13 = CARTESIAN_POINT('', (-6., 4.04133443718627E-16, -0.600000000000001));
#14 = VECTOR('', #15, 0.848528137423857);
#15 = DIRECTION('', (0.6, -7.3478807948842E-17, 0.600000000000001));
#16 = ORIENTED_EDGE('', *, *, #17, .T.);
#17 = EDGE_CURVE('', #10, #10, #18, .T.);
#18 = CIRCLE('', #19, 5.4);
#19 = AXIS2_PLACEMENT_3D('', #20, #21, #22);
#20 = CARTESIAN_POINT('', (3.60822483003176E-16, 6.66133814775094E-16, 4.93038065763132E-32));
#21 = DIRECTION('', (5.32622804422992E-33, 6.12323399573677E-17, -1.));
#22 = DIRECTION('', (-1., -6.21257738898719E-17, -9.13033455116912E-33));
#23 = ORIENTED_EDGE('', *, *, #7, .F.);
#24 = ORIENTED_EDGE('', *, *, #25, .F.);
#25 = EDGE_CURVE('', #8, #8, #26, .T.);
#26 = CIRCLE('', #27, 6.);
#27 = AXIS2_PLACEMENT_3D('', #28, #29, #30);
#28 = CARTESIAN_POINT('', (5.82867087928207E-16, 0., -0.600000000000001));
#29 = DIRECTION('', (1.85037170770859E-17, 2.77964882263977E-18, -1.));
#30 = DIRECTION('', (-1., 6.73555739531045E-17, -1.85037170770859E-17));
#31 = (
   BOUNDED_SURFACE ()
   B_SPLINE_SURFACE (1, 2, ((#32, #33, #34, #35, #36, #37, #38, #39, #40), (#41, #42, #43, #44, #45, #46, #47, #48, #49)), .UNSPECIFIED., .F., .T., .U.)
   B_SPLINE_SURFACE_WITH_KNOTS ((2, 2), (3, 2, 2, 2, 3), (0., 1.), (0., 0.25, 0.5, 0.75, 1.), .UNSPECIFIED.)
   GEOMETRIC_REPRESENTATION_ITEM ()
   RATIONAL_B_SPLINE_SURFACE (((1., 0.707106781186548, 1., 0.707106781186548, 1., 0.707106781186548, 1., 0.707106781186548, 1.), (1., 0.707106781186548, 1., 0.707106781186548, 1., 0.707106781186548, 1., 0.707106781186548, 1.)))
   REPRESENTATION_ITEM ('')
   SURFACE ()
);
#32 = CARTESIAN_POINT('', (-6., 2.98258605330568E-15, -0.600000000000001));
#33 = CARTESIAN_POINT('', (-6., 6., -0.599999999999978));
#34 = CARTESIAN_POINT('', (4.68298239692583E-15, 6., -0.599999999999978));
#35 = CARTESIAN_POINT('', (6., 6., -0.599999999999978));
#36 = CARTESIAN_POINT('', (6., -2.69188718366733E-15, -0.600000000000001));
#37 = CARTESIAN_POINT('', (6., -6., -0.600000000000024));
#38 = CARTESIAN_POINT('', (-2.56702760558774E-16, -6., -0.600000000000024));
#39 = CARTESIAN_POINT('', (-6., -6., -0.600000000000024));
#40 = CARTESIAN_POINT('', (-6., 2.98258605330568E-15, -0.600000000000001));
#41 = CARTESIAN_POINT('', (-5.4, 3.30654635769784E-16, -6.56858655152258E-47));
#42 = CARTESIAN_POINT('', (-5.4, 5.4, 2.09832151654154E-14));
#43 = CARTESIAN_POINT('', (4.39925873507718E-15, 5.4, 2.09832151654154E-14));
#44 = CARTESIAN_POINT('', (5.4, 5.4, 2.09832151654154E-14));
#45 = CARTESIAN_POINT('', (5.4, -4.77637127750593E-15, 2.27387988935674E-30));
#46 = CARTESIAN_POINT('', (5.4, -5.40000000000001, -2.09832151654154E-14));
#47 = CARTESIAN_POINT('', (-4.64579066589654E-17, -5.4, -2.09832151654154E-14));
#48 = CARTESIAN_POINT('', (-5.4, -5.4, -2.09832151654154E-14));
#49 = CARTESIAN_POINT('', (-5.4, 3.30654635769784E-16, -6.56858655152258E-47));
#50 = ADVANCED_FACE('', (#51), #54, .T.);
#51 = FACE_OUTER_BOUND('', #52, .T.);
#52 = EDGE_LOOP('', (#53));
#53 = ORIENTED_EDGE('', *, *, #17, .F.);
#54 = B_SPLINE_SURFACE_WITH_KNOTS('', 1, 1, ((#55, #56), (#57, #58)), .UNSPECIFIED., .F., .F., .U., (2, 2), (2, 2), (2.99942856049619, 13.8014285604962), (2.99942856049619, 13.8014285604962), .UNSPECIFIED.);
#55 = CARTESIAN_POINT('', (5.401, -5.401, -7.43745904559182E-15));
#56 = CARTESIAN_POINT('', (-5.401, -5.401, -7.43745904559182E-15));
#57 = CARTESIAN_POINT('', (5.401, 5.401, 7.43745904559175E-15));
#58 = CARTESIAN_POINT('', (-5.401, 5.401, 7.43745904559175E-15));
#59 = ADVANCED_FACE('', (#60), #79, .T.);
#60 = FACE_OUTER_BOUND('', #61, .T.);
#61 = EDGE_LOOP('', (#62, #70, #77, #78));
#62 = ORIENTED_EDGE('', *, *, #63, .F.);
#63 = EDGE_CURVE('', #64, #8, #66, .T.);
#64 = VERTEX_POINT('', #65);
#65 = CARTESIAN_POINT('', (-6., 4.07195060716495E-15, -60.5));
#66 = LINE('', #67, #68);
#67 = CARTESIAN_POINT('', (-6., 4.07195060716495E-15, -60.5));
#68 = VECTOR('', #69, 59.9);
#69 = DIRECTION('', (0., -3.66781716344632E-15, 59.9));
#70 = ORIENTED_EDGE('', *, *, #71, .F.);
#71 = EDGE_CURVE('', #64, #64, #72, .T.);
#72 = CIRCLE('', #73, 6.);
#73 = AXIS2_PLACEMENT_3D('', #74, #75, #76);
#74 = CARTESIAN_POINT('', (5.82867087928207E-16, 3.66373598126302E-15, -60.5));
#75 = DIRECTION('', (0., 0., -1.));
#76 = DIRECTION('', (-1., 6.80357709836556E-17, 0.));
#77 = ORIENTED_EDGE('', *, *, #63, .T.);
#78 = ORIENTED_EDGE('', *, *, #25, .T.);
#79 = (
   BOUNDED_SURFACE ()
   B_SPLINE_SURFACE (1, 2, ((#80, #81, #82, #83, #84, #85, #86, #87, #88), (#89, #90, #91, #92, #93, #94, #95, #96, #97)), .UNSPECIFIED., .F., .T., .U.)
   B_SPLINE_SURFACE_WITH_KNOTS ((2, 2), (3, 2, 2, 2, 3), (-0.349099099099099, 1.), (0., 0.25, 0.5, 0.75, 1.), .UNSPECIFIED.)
   GEOMETRIC_REPRESENTATION_ITEM ()
   RATIONAL_B_SPLINE_SURFACE (((1., 0.707106781186548, 1., 0.707106781186548, 1., 0.707106781186548, 1., 0.707106781186548, 1.), (1., 0.707106781186548, 1., 0.707106781186548, 1., 0.707106781186548, 1., 0.707106781186548, 1.)))
   REPRESENTATION_ITEM ('')
   SURFACE ()
);
#80 = CARTESIAN_POINT('', (-6., 1.29231186341875E-15, -60.5));
#81 = CARTESIAN_POINT('', (-6., 6., -60.5));
#82 = CARTESIAN_POINT('', (1.09330164907603E-15, 6., -60.5));
#83 = CARTESIAN_POINT('', (6., 6., -60.5));
#84 = CARTESIAN_POINT('', (6., -2.55592522825562E-15, -60.5));
#85 = CARTESIAN_POINT('', (6., -6., -60.5));
#86 = CARTESIAN_POINT('', (-2.02014736310993E-15, -6., -60.5));
#87 = CARTESIAN_POINT('', (-6., -6., -60.5));
#88 = CARTESIAN_POINT('', (-6., 1.29231186341875E-15, -60.5));
#89 = CARTESIAN_POINT('', (-6., 4.04133443718627E-16, -0.600000000000001));
#90 = CARTESIAN_POINT('', (-6., 6., -0.600000000000001));
#91 = CARTESIAN_POINT('', (2.20167430199348E-15, 6., -0.600000000000001));
#92 = CARTESIAN_POINT('', (6., 6., -0.600000000000001));
#93 = CARTESIAN_POINT('', (6., -3.44410364795575E-15, -0.600000000000001));
#94 = CARTESIAN_POINT('', (6., -6., -0.600000000000001));
#95 = CARTESIAN_POINT('', (-9.11774710192486E-16, -6., -0.600000000000001));
#96 = CARTESIAN_POINT('', (-6., -6., -0.600000000000001));
#97 = CARTESIAN_POINT('', (-6., 4.04133443718627E-16, -0.600000000000001));
#98 = ADVANCED_FACE('', (#99), #110, .T.);
#99 = FACE_OUTER_BOUND('', #100, .T.);
#100 = EDGE_LOOP('', (#101));
#101 = ORIENTED_EDGE('', *, *, #102, .T.);
#102 = EDGE_CURVE('', #103, #103, #105, .T.);
#103 = VERTEX_POINT('', #104);
#104 = CARTESIAN_POINT('', (-4.7009625, 5.37013515038835E-15, -83.));
#105 = CIRCLE('', #106, 4.70096249999999);
#106 = AXIS2_PLACEMENT_3D('', #107, #108, #109);
#107 = CARTESIAN_POINT('', (-7.07767178198537E-16, 8.32667268468867E-15, -83.));
#108 = DIRECTION('', (0., 0., -1.));
#109 = DIRECTION('', (-1., -6.28921744068438E-16, 0.));
#110 = B_SPLINE_SURFACE_WITH_KNOTS('', 1, 1, ((#111, #112), (#113, #114)), .UNSPECIFIED., .F., .F., .U., (2, 2), (2, 2), (3.38733907677411, 12.7912640767741), (3.38733907677411, 12.7912640767741), .UNSPECIFIED.);
#111 = CARTESIAN_POINT('', (4.70196249999999, -4.70196249999999, -83.));
#112 = CARTESIAN_POINT('', (4.70196249999999, 4.7019625, -83.));
#113 = CARTESIAN_POINT('', (-4.70196249999999, -4.70196249999999, -83.));
#114 = CARTESIAN_POINT('', (-4.70196249999999, 4.7019625, -83.));
#115 = ADVANCED_FACE('', (#116, #119), #130, .T.);
#116 = FACE_OUTER_BOUND('', #117, .T.);
#117 = EDGE_LOOP('', (#118));
#118 = ORIENTED_EDGE('', *, *, #71, .T.);
#119 = FACE_BOUND('', #120, .T.);
#120 = EDGE_LOOP('', (#121));
#121 = ORIENTED_EDGE('', *, *, #122, .F.);
#122 = EDGE_CURVE('', #123, #123, #125, .T.);
#123 = VERTEX_POINT('', #124);
#124 = CARTESIAN_POINT('', (-4.7009625, 3.99240750134758E-15, -60.5));
#125 = CIRCLE('', #126, 4.7009625);
#126 = AXIS2_PLACEMENT_3D('', #127, #128, #129);
#127 = CARTESIAN_POINT('', (-1.02695629777827E-15, 4.77395900588817E-15, -60.5));
#128 = DIRECTION('', (0., 0., -1.));
#129 = DIRECTION('', (-1., -1.6625350756161E-16, 0.));
#130 = B_SPLINE_SURFACE_WITH_KNOTS('', 1, 1, ((#131, #132), (#133, #134)), .UNSPECIFIED., .F., .F., .U., (2, 2), (2, 2), (3.33280951166243, 15.3348095116624), (3.33280951166242, 15.3348095116624), .UNSPECIFIED.);
#131 = CARTESIAN_POINT('', (6.001, -6.001, -60.5));
#132 = CARTESIAN_POINT('', (6.001, 6.00100000000001, -60.5));
#133 = CARTESIAN_POINT('', (-6.001, -6.001, -60.5));
#134 = CARTESIAN_POINT('', (-6.001, 6.001, -60.5));
#135 = ADVANCED_FACE('', (#136), #147, .T.);
#136 = FACE_OUTER_BOUND('', #137, .T.);
#137 = EDGE_LOOP('', (#138, #144, #145, #146));
#138 = ORIENTED_EDGE('', *, *, #139, .T.);
#139 = EDGE_CURVE('', #103, #123, #140, .T.);
#140 = LINE('', #141, #142);
#141 = CARTESIAN_POINT('', (-4.7009625, 5.37013515038835E-15, -83.));
#142 = VECTOR('', #143, 22.5);
#143 = DIRECTION('', (0., -1.37772764904077E-15, 22.5));
#144 = ORIENTED_EDGE('', *, *, #122, .T.);
#145 = ORIENTED_EDGE('', *, *, #139, .F.);
#146 = ORIENTED_EDGE('', *, *, #102, .F.);
#147 = (
   BOUNDED_SURFACE ()
   B_SPLINE_SURFACE (1, 2, ((#148, #149, #150, #151, #152, #153, #154, #155, #156), (#157, #158, #159, #160, #161, #162, #163, #164, #165)), .UNSPECIFIED., .F., .T., .U.)
   B_SPLINE_SURFACE_WITH_KNOTS ((2, 2), (3, 2, 2, 2, 3), (0., 1.), (0., 7.38425462740055, 14.7685092548011, 22.1527638822016, 29.5370185096022), .UNSPECIFIED.)
   GEOMETRIC_REPRESENTATION_ITEM ()
   RATIONAL_B_SPLINE_SURFACE (((1., 0.707106781186548, 1., 0.707106781186548, 1., 0.707106781186548, 1., 0.707106781186548, 1.), (1., 0.707106781186548, 1., 0.707106781186548, 1., 0.707106781186548, 1., 0.707106781186548, 1.)))
   REPRESENTATION_ITEM ('')
   SURFACE ()
);
#148 = CARTESIAN_POINT('', (-4.7009625, 6.32387585306041E-15, -83.));
#149 = CARTESIAN_POINT('', (-4.7009625, 4.70096250000001, -83.));
#150 = CARTESIAN_POINT('', (2.77474478429718E-15, 4.7009625, -83.));
#151 = CARTESIAN_POINT('', (4.7009625, 4.7009625, -83.));
#152 = CARTESIAN_POINT('', (4.7009625, -4.19103467005983E-16, -83.));
#153 = CARTESIAN_POINT('', (4.7009625, -4.7009625, -83.));
#154 = CARTESIAN_POINT('', (-3.39253266791554E-15, -4.7009625, -83.));
#155 = CARTESIAN_POINT('', (-4.7009625, -4.70096249999999, -83.));
#156 = CARTESIAN_POINT('', (-4.7009625, 6.32387585306041E-15, -83.));
#157 = CARTESIAN_POINT('', (-4.7009625, 3.99240750134758E-15, -60.5));
#158 = CARTESIAN_POINT('', (-4.7009625, 4.7009625, -60.5));
#159 = CARTESIAN_POINT('', (2.77474478429718E-15, 4.7009625, -60.5));
#160 = CARTESIAN_POINT('', (4.7009625, 4.7009625, -60.5));
#161 = CARTESIAN_POINT('', (4.7009625, -2.75057181871881E-15, -60.5));
#162 = CARTESIAN_POINT('', (4.7009625, -4.7009625, -60.5));
#163 = CARTESIAN_POINT('', (-3.39253266791554E-15, -4.7009625, -60.5));
#164 = CARTESIAN_POINT('', (-4.7009625, -4.7009625, -60.5));
#165 = CARTESIAN_POINT('', (-4.7009625, 3.99240750134758E-15, -60.5));
#166 = DRAUGHTING_MODEL('', (#174, #341, #388, #393, #398, #403, #408, #413), #427);
#167 = PRESENTATION_STYLE_ASSIGNMENT((#168));
#168 = SURFACE_STYLE_USAGE(.POSITIVE., #169);
#169 = SURFACE_SIDE_STYLE('', (#170));
#170 = SURFACE_STYLE_FILL_AREA(#171);
#171 = FILL_AREA_STYLE('', (#172));
#172 = FILL_AREA_STYLE_COLOUR('', #173);
#173 = COLOUR_RGB('', 0.50196078431373, 0.50196078431373, 0.50196078431373);
#174 = STYLED_ITEM('', (#167), #1);
#175 = MANIFOLD_SOLID_BREP('CUT', #176);
#176 = CLOSED_SHELL('', (#177, #205, #244, #264, #303));
#177 = ADVANCED_FACE('', (#178, #189), #200, .T.);
#178 = FACE_OUTER_BOUND('', #179, .T.);
#179 = EDGE_LOOP('', (#180));
#180 = ORIENTED_EDGE('', *, *, #181, .T.);
#181 = EDGE_CURVE('', #182, #182, #184, .T.);
#182 = VERTEX_POINT('', #183);
#183 = CARTESIAN_POINT('', (-5.2, 5.40069238423983E-15, -83.));
#184 = CIRCLE('', #185, 5.2);
#185 = AXIS2_PLACEMENT_3D('', #186, #187, #188);
#186 = CARTESIAN_POINT('', (1.4432899320127E-15, 2.99760216648792E-15, -83.));
#187 = DIRECTION('', (0., 0., -1.));
#188 = DIRECTION('', (-1., 4.62132734183059E-16, 0.));
#189 = FACE_BOUND('', #190, .T.);
#190 = EDGE_LOOP('', (#191));
#191 = ORIENTED_EDGE('', *, *, #192, .F.);
#192 = EDGE_CURVE('', #193, #193, #195, .T.);
#193 = VERTEX_POINT('', #194);
#194 = CARTESIAN_POINT('', (-4.7009625, 5.37013515038835E-15, -83.));
#195 = CIRCLE('', #196, 4.7009625);
#196 = AXIS2_PLACEMENT_3D('', #197, #198, #199);
#197 = CARTESIAN_POINT('', (-1.04083408558608E-15, 5.99520433297585E-15, -83.));
#198 = DIRECTION('', (0., 0., -1.));
#199 = DIRECTION('', (-1., -1.32966213320674E-16, 0.));
#200 = B_SPLINE_SURFACE_WITH_KNOTS('', 1, 1, ((#201, #202), (#203, #204)), .UNSPECIFIED., .F., .F., .U., (2, 2), (2, 2), (2.8883015767741, 13.2903015767741), (2.8883015767741, 13.2903015767741), .UNSPECIFIED.);
#201 = CARTESIAN_POINT('', (5.201, -5.201, -83.));
#202 = CARTESIAN_POINT('', (5.201, 5.20100000000001, -83.));
#203 = CARTESIAN_POINT('', (-5.201, -5.201, -83.));
#204 = CARTESIAN_POINT('', (-5.201, 5.20100000000001, -83.));
#205 = ADVANCED_FACE('', (#206), #225, .T.);
#206 = FACE_OUTER_BOUND('', #207, .T.);
#207 = EDGE_LOOP('', (#208, #216, #217, #218));
#208 = ORIENTED_EDGE('', *, *, #209, .F.);
#209 = EDGE_CURVE('', #193, #210, #212, .T.);
#210 = VERTEX_POINT('', #211);
#211 = CARTESIAN_POINT('', (-4.7009625, 3.99240750134758E-15, -60.5));
#212 = LINE('', #213, #214);
#213 = CARTESIAN_POINT('', (-4.7009625, 5.37013515038835E-15, -83.));
#214 = VECTOR('', #215, 22.5);
#215 = DIRECTION('', (0., -1.37772764904077E-15, 22.5));
#216 = ORIENTED_EDGE('', *, *, #192, .T.);
#217 = ORIENTED_EDGE('', *, *, #209, .T.);
#218 = ORIENTED_EDGE('', *, *, #219, .F.);
#219 = EDGE_CURVE('', #210, #210, #220, .T.);
#220 = CIRCLE('', #221, 4.7009625);
#221 = AXIS2_PLACEMENT_3D('', #222, #223, #224);
#222 = CARTESIAN_POINT('', (-1.02695629777827E-15, 4.77395900588817E-15, -60.5));
#223 = DIRECTION('', (0., 0., -1.));
#224 = DIRECTION('', (-1., -1.6625350756161E-16, 0.));
#225 = (
   BOUNDED_SURFACE ()
   B_SPLINE_SURFACE (2, 1, ((#226, #227), (#228, #229), (#230, #231), (#232, #233), (#234, #235), (#236, #237), (#238, #239), (#240, #241), (#242, #243)), .UNSPECIFIED., .T., .F., .U.)
   B_SPLINE_SURFACE_WITH_KNOTS ((3, 2, 2, 2, 3), (2, 2), (0., 7.38425462740055, 14.7685092548011, 22.1527638822016, 29.5370185096022), (0., 1.), .UNSPECIFIED.)
   GEOMETRIC_REPRESENTATION_ITEM ()
   RATIONAL_B_SPLINE_SURFACE (((1., 1.), (0.707106781186548, 0.707106781186548), (1., 1.), (0.707106781186548, 0.707106781186548), (1., 1.), (0.707106781186548, 0.707106781186548), (1., 1.), (0.707106781186548, 0.707106781186548), (1., 1.)))
   REPRESENTATION_ITEM ('')
   SURFACE ()
);
#226 = CARTESIAN_POINT('', (-4.7009625, 6.32387585306041E-15, -83.));
#227 = CARTESIAN_POINT('', (-4.7009625, 3.99240750134758E-15, -60.5));
#228 = CARTESIAN_POINT('', (-4.7009625, 4.70096250000001, -83.));
#229 = CARTESIAN_POINT('', (-4.7009625, 4.7009625, -60.5));
#230 = CARTESIAN_POINT('', (2.77474478429718E-15, 4.7009625, -83.));
#231 = CARTESIAN_POINT('', (2.77474478429718E-15, 4.7009625, -60.5));
#232 = CARTESIAN_POINT('', (4.7009625, 4.7009625, -83.));
#233 = CARTESIAN_POINT('', (4.7009625, 4.7009625, -60.5));
#234 = CARTESIAN_POINT('', (4.7009625, -4.19103467005983E-16, -83.));
#235 = CARTESIAN_POINT('', (4.7009625, -2.75057181871881E-15, -60.5));
#236 = CARTESIAN_POINT('', (4.7009625, -4.7009625, -83.));
#237 = CARTESIAN_POINT('', (4.7009625, -4.7009625, -60.5));
#238 = CARTESIAN_POINT('', (-3.39253266791554E-15, -4.7009625, -83.));
#239 = CARTESIAN_POINT('', (-3.39253266791554E-15, -4.7009625, -60.5));
#240 = CARTESIAN_POINT('', (-4.7009625, -4.70096249999999, -83.));
#241 = CARTESIAN_POINT('', (-4.7009625, -4.7009625, -60.5));
#242 = CARTESIAN_POINT('', (-4.7009625, 6.32387585306041E-15, -83.));
#243 = CARTESIAN_POINT('', (-4.7009625, 3.99240750134758E-15, -60.5));
#244 = ADVANCED_FACE('', (#245, #256), #259, .T.);
#245 = FACE_OUTER_BOUND('', #246, .T.);
#246 = EDGE_LOOP('', (#247));
#247 = ORIENTED_EDGE('', *, *, #248, .F.);
#248 = EDGE_CURVE('', #249, #249, #251, .T.);
#249 = VERTEX_POINT('', #250);
#250 = CARTESIAN_POINT('', (-6., 4.07195060716495E-15, -60.5));
#251 = CIRCLE('', #252, 6.);
#252 = AXIS2_PLACEMENT_3D('', #253, #254, #255);
#253 = CARTESIAN_POINT('', (5.82867087928207E-16, 3.66373598126302E-15, -60.5));
#254 = DIRECTION('', (0., 0., -1.));
#255 = DIRECTION('', (-1., 6.80357709836556E-17, 0.));
#256 = FACE_BOUND('', #257, .T.);
#257 = EDGE_LOOP('', (#258));
#258 = ORIENTED_EDGE('', *, *, #219, .T.);
#259 = B_SPLINE_SURFACE_WITH_KNOTS('', 1, 1, ((#260, #261), (#262, #263)), .UNSPECIFIED., .F., .F., .U., (2, 2), (2, 2), (3.33280951166242, 15.3348095116624), (3.33280951166243, 15.3348095116624), .UNSPECIFIED.);
#260 = CARTESIAN_POINT('', (6.001, -6.001, -60.5));
#261 = CARTESIAN_POINT('', (-6.001, -6.001, -60.5));
#262 = CARTESIAN_POINT('', (6.001, 6.00100000000001, -60.5));
#263 = CARTESIAN_POINT('', (-6.001, 6.00100000000001, -60.5));
#264 = ADVANCED_FACE('', (#265), #284, .T.);
#265 = FACE_OUTER_BOUND('', #266, .T.);
#266 = EDGE_LOOP('', (#267, #275, #276, #277));
#267 = ORIENTED_EDGE('', *, *, #268, .F.);
#268 = EDGE_CURVE('', #249, #269, #271, .T.);
#269 = VERTEX_POINT('', #270);
#270 = CARTESIAN_POINT('', (-6., 5.40069238423983E-15, -82.2));
#271 = LINE('', #272, #273);
#272 = CARTESIAN_POINT('', (-6., 4.07195060716495E-15, -60.5));
#273 = VECTOR('', #274, 21.7);
#274 = DIRECTION('', (0., 1.32874177707488E-15, -21.7));
#275 = ORIENTED_EDGE('', *, *, #248, .T.);
#276 = ORIENTED_EDGE('', *, *, #268, .T.);
#277 = ORIENTED_EDGE('', *, *, #278, .F.);
#278 = EDGE_CURVE('', #269, #269, #279, .T.);
#279 = CIRCLE('', #280, 6.);
#280 = AXIS2_PLACEMENT_3D('', #281, #282, #283);
#281 = CARTESIAN_POINT('', (1.52655665885959E-15, 4.77395900588817E-15, -82.2));
#282 = DIRECTION('', (2.368475785867E-15, -7.70540152533532E-15, -1.));
#283 = DIRECTION('', (-1., 1.04455563058609E-16, -2.368475785867E-15));
#284 = (
   BOUNDED_SURFACE ()
   B_SPLINE_SURFACE (2, 1, ((#285, #286), (#287, #288), (#289, #290), (#291, #292), (#293, #294), (#295, #296), (#297, #298), (#299, #300), (#301, #302)), .UNSPECIFIED., .T., .F., .U.)
   B_SPLINE_SURFACE_WITH_KNOTS ((3, 2, 2, 2, 3), (2, 2), (0., 9.42477796076938, 18.8495559215388, 28.2743338823081, 37.6991118430775), (0., 1.), .UNSPECIFIED.)
   GEOMETRIC_REPRESENTATION_ITEM ()
   RATIONAL_B_SPLINE_SURFACE (((1., 1.), (0.707106781186548, 0.707106781186548), (1., 1.), (0.707106781186548, 0.707106781186548), (1., 1.), (0.707106781186548, 0.707106781186548), (1., 1.), (0.707106781186548, 0.707106781186548), (1., 1.)))
   REPRESENTATION_ITEM ('')
   SURFACE ()
);
#285 = CARTESIAN_POINT('', (-6., 4.07195060716495E-15, -60.5));
#286 = CARTESIAN_POINT('', (-6., 9.28999882290319E-15, -82.2));
#287 = CARTESIAN_POINT('', (-6., 6., -60.5));
#288 = CARTESIAN_POINT('', (-6., 6.00000000000001, -82.2));
#289 = CARTESIAN_POINT('', (3.53802311372697E-15, 6., -60.5));
#290 = CARTESIAN_POINT('', (3.53802311372697E-15, 6.00000000000001, -82.2));
#291 = CARTESIAN_POINT('', (6., 6., -60.5));
#292 = CARTESIAN_POINT('', (6., 6., -82.2));
#293 = CARTESIAN_POINT('', (6., -3.11511792275151E-15, -60.5));
#294 = CARTESIAN_POINT('', (6., 2.10293029298673E-15, -82.2));
#295 = CARTESIAN_POINT('', (6., -6., -60.5));
#296 = CARTESIAN_POINT('', (6., -6., -82.2));
#297 = CARTESIAN_POINT('', (-2.91425733670107E-15, -6., -60.5));
#298 = CARTESIAN_POINT('', (-2.91425733670107E-15, -5.99999999999999, -82.2));
#299 = CARTESIAN_POINT('', (-6., -6., -60.5));
#300 = CARTESIAN_POINT('', (-6., -5.99999999999999, -82.2));
#301 = CARTESIAN_POINT('', (-6., 4.07195060716495E-15, -60.5));
#302 = CARTESIAN_POINT('', (-6., 9.28999882290319E-15, -82.2));
#303 = ADVANCED_FACE('', (#304), #315, .T.);
#304 = FACE_OUTER_BOUND('', #305, .T.);
#305 = EDGE_LOOP('', (#306, #312, #313, #314));
#306 = ORIENTED_EDGE('', *, *, #307, .F.);
#307 = EDGE_CURVE('', #269, #182, #308, .T.);
#308 = LINE('', #309, #310);
#309 = CARTESIAN_POINT('', (-6., 5.40069238423983E-15, -82.2));
#310 = VECTOR('', #311, 1.13137084989847);
#311 = DIRECTION('', (0.8, 0., -0.799999999999997));
#312 = ORIENTED_EDGE('', *, *, #278, .T.);
#313 = ORIENTED_EDGE('', *, *, #307, .T.);
#314 = ORIENTED_EDGE('', *, *, #181, .F.);
#315 = (
   BOUNDED_SURFACE ()
   B_SPLINE_SURFACE (2, 1, ((#316, #317), (#318, #319), (#320, #321), (#322, #323), (#324, #325), (#326, #327), (#328, #329), (#330, #331), (#332, #333)), .UNSPECIFIED., .T., .F., .U.)
   B_SPLINE_SURFACE_WITH_KNOTS ((3, 2, 2, 2, 3), (2, 2), (0., 0.25, 0.5, 0.75, 1.), (0., 1.), .UNSPECIFIED.)
   GEOMETRIC_REPRESENTATION_ITEM ()
   RATIONAL_B_SPLINE_SURFACE (((1., 1.), (0.707106781186548, 0.707106781186548), (1., 1.), (0.707106781186548, 0.707106781186548), (1., 1.), (0.707106781186548, 0.707106781186548), (1., 1.), (0.707106781186548, 0.707106781186548), (1., 1.)))
   REPRESENTATION_ITEM ('')
   SURFACE ()
);
#316 = CARTESIAN_POINT('', (-6., 5.40069238423983E-15, -82.2));
#317 = CARTESIAN_POINT('', (-5.2, 7.86323940359997E-15, -83.));
#318 = CARTESIAN_POINT('', (-5.99999999999999, 6.00000000000001, -82.2));
#319 = CARTESIAN_POINT('', (-5.19999999999999, 5.20000000000001, -83.));
#320 = CARTESIAN_POINT('', (6.00474349104258E-15, 6., -82.2));
#321 = CARTESIAN_POINT('', (7.30243254211183E-15, 5.2, -83.));
#322 = CARTESIAN_POINT('', (6.00000000000001, 6., -82.1999999999999));
#323 = CARTESIAN_POINT('', (5.20000000000001, 5.2, -83.));
#324 = CARTESIAN_POINT('', (6., -3.55568128012626E-15, -82.2));
#325 = CARTESIAN_POINT('', (5.2, 1.01048894482703E-16, -83.));
#326 = CARTESIAN_POINT('', (6., -6., -82.2));
#327 = CARTESIAN_POINT('', (5.2, -5.2, -83.));
#328 = CARTESIAN_POINT('', (-2.21684209383499E-15, -6., -82.2));
#329 = CARTESIAN_POINT('', (1.77058368551305E-16, -5.2, -83.));
#330 = CARTESIAN_POINT('', (-6., -6., -82.2));
#331 = CARTESIAN_POINT('', (-5.2, -5.19999999999999, -83.));
#332 = CARTESIAN_POINT('', (-6., 5.40069238423983E-15, -82.2));
#333 = CARTESIAN_POINT('', (-5.2, 7.86323940359997E-15, -83.));
#334 = PRESENTATION_STYLE_ASSIGNMENT((#335));
#335 = SURFACE_STYLE_USAGE(.POSITIVE., #336);
#336 = SURFACE_SIDE_STYLE('', (#337));
#337 = SURFACE_STYLE_FILL_AREA(#338);
#338 = FILL_AREA_STYLE('', (#339));
#339 = FILL_AREA_STYLE_COLOUR('', #340);
#340 = COLOUR_RGB('', 0.8, 0.8, 0.8);
#341 = STYLED_ITEM('', (#334), #175);
#342 = TRIMMED_CURVE('cutting part line', #343, (#347), (#348), .T., .CARTESIAN.);
#343 = LINE('', #344, #345);
#344 = CARTESIAN_POINT('', (4.7009625, -4.56810936920125E-15, -60.5));
#345 = VECTOR('', #346, 1.2990375);
#346 = DIRECTION('', (1.2990375, -2.38629317452108E-16, 0.));
#347 = CARTESIAN_POINT('', (4.7009625, -4.56810936920125E-15, -60.5));
#348 = CARTESIAN_POINT('', (6., -4.80673868665336E-15, -60.5));
#349 = TRIMMED_CURVE('cutting part line', #350, (#354), (#355), .T., .CARTESIAN.);
#350 = LINE('', #351, #352);
#351 = CARTESIAN_POINT('', (6., -4.80673868665336E-15, -60.5));
#352 = VECTOR('', #353, 21.7);
#353 = DIRECTION('', (0., -1.32874177707488E-15, -21.7));
#354 = CARTESIAN_POINT('', (6., -4.80673868665336E-15, -60.5));
#355 = CARTESIAN_POINT('', (6., -6.13548046372824E-15, -82.2));
#356 = TRIMMED_CURVE('cutting part line', #357, (#361), (#362), .T., .CARTESIAN.);
#357 = LINE('', #358, #359);
#358 = CARTESIAN_POINT('', (6., -6.13548046372824E-15, -82.2));
#359 = VECTOR('', #360, 1.13137084989847);
#360 = DIRECTION('', (-0.8, 9.79717439317876E-17, -0.799999999999997));
#361 = CARTESIAN_POINT('', (6., -6.13548046372824E-15, -82.2));
#362 = CARTESIAN_POINT('', (5.2, -6.03750871979645E-15, -83.));
#363 = TRIMMED_CURVE('cutting part line', #364, (#368), (#369), .T., .CARTESIAN.);
#364 = LINE('', #365, #366);
#365 = CARTESIAN_POINT('', (5.2, -6.03750871979645E-15, -83.));
#366 = VECTOR('', #367, 0.4990375);
#367 = DIRECTION('', (-0.4990375, 9.16717015544298E-17, 0.));
#368 = CARTESIAN_POINT('', (5.2, -6.03750871979645E-15, -83.));
#369 = CARTESIAN_POINT('', (4.7009625, -5.94583701824202E-15, -83.));
#370 = TRIMMED_CURVE('cutting part line', #371, (#375), (#376), .T., .CARTESIAN.);
#371 = LINE('', #372, #373);
#372 = CARTESIAN_POINT('', (4.7009625, -5.94583701824202E-15, -83.));
#373 = VECTOR('', #374, 22.5);
#374 = DIRECTION('', (0., 1.37772764904077E-15, 22.5));
#375 = CARTESIAN_POINT('', (4.7009625, -5.94583701824202E-15, -83.));
#376 = CARTESIAN_POINT('', (4.7009625, -4.56810936920125E-15, -60.5));
#377 = COMPOSITE_CURVE('cutting part line', (#378, #379, #380, #381, #382), .U.);
#378 = COMPOSITE_CURVE_SEGMENT(.CONTINUOUS., .T., #342);
#379 = COMPOSITE_CURVE_SEGMENT(.CONTINUOUS., .T., #349);
#380 = COMPOSITE_CURVE_SEGMENT(.CONTINUOUS., .T., #356);
#381 = COMPOSITE_CURVE_SEGMENT(.CONTINUOUS., .T., #363);
#382 = COMPOSITE_CURVE_SEGMENT(.CONTINUOUS., .T., #370);
#383 = GEOMETRIC_SET('', (#377, #426));
#384 = PRESENTATION_STYLE_ASSIGNMENT((#385));
#385 = CURVE_STYLE('', #387, POSITIVE_LENGTH_MEASURE(1.E-6), #386);
#386 = COLOUR_RGB('', 0., 0., 1.);
#387 = DRAUGHTING_PRE_DEFINED_CURVE_FONT('continuous');
#388 = STYLED_ITEM('', (#384), #377);
#389 = PRESENTATION_STYLE_ASSIGNMENT((#390));
#390 = CURVE_STYLE('', #392, POSITIVE_LENGTH_MEASURE(1.E-6), #391);
#391 = COLOUR_RGB('', 0., 0., 1.);
#392 = DRAUGHTING_PRE_DEFINED_CURVE_FONT('continuous');
#393 = OVER_RIDING_STYLED_ITEM('', (#389), #342, #388);
#394 = PRESENTATION_STYLE_ASSIGNMENT((#395));
#395 = CURVE_STYLE('', #397, POSITIVE_LENGTH_MEASURE(1.E-6), #396);
#396 = COLOUR_RGB('', 0., 0., 1.);
#397 = DRAUGHTING_PRE_DEFINED_CURVE_FONT('continuous');
#398 = OVER_RIDING_STYLED_ITEM('', (#394), #349, #388);
#399 = PRESENTATION_STYLE_ASSIGNMENT((#400));
#400 = CURVE_STYLE('', #402, POSITIVE_LENGTH_MEASURE(1.E-6), #401);
#401 = COLOUR_RGB('', 0., 0., 1.);
#402 = DRAUGHTING_PRE_DEFINED_CURVE_FONT('continuous');
#403 = OVER_RIDING_STYLED_ITEM('', (#399), #356, #388);
#404 = PRESENTATION_STYLE_ASSIGNMENT((#405));
#405 = CURVE_STYLE('', #407, POSITIVE_LENGTH_MEASURE(1.E-6), #406);
#406 = COLOUR_RGB('', 0., 0., 1.);
#407 = DRAUGHTING_PRE_DEFINED_CURVE_FONT('continuous');
#408 = OVER_RIDING_STYLED_ITEM('', (#404), #363, #388);
#409 = PRESENTATION_STYLE_ASSIGNMENT((#410));
#410 = CURVE_STYLE('', #412, POSITIVE_LENGTH_MEASURE(1.E-6), #411);
#411 = COLOUR_RGB('', 0., 0., 1.);
#412 = DRAUGHTING_PRE_DEFINED_CURVE_FONT('continuous');
#413 = OVER_RIDING_STYLED_ITEM('', (#409), #370, #388);
#414 = AXIS2_PLACEMENT_3D('CIP', #415, #416, #417);
#415 = CARTESIAN_POINT('', (3.11200154902335E-31, 5.08228421646152E-15, -83.));
#416 = DIRECTION('', (-3.74939945665465E-33, -6.12323399573677E-17, 1.));
#417 = DIRECTION('', (1., -6.12323399573677E-17, 0.));
#418 = AXIS2_PLACEMENT_3D('MCS', #419, #420, #421);
#419 = CARTESIAN_POINT('', (1.68722975549459E-31, 2.75545529808154E-15, -45.));
#420 = DIRECTION('', (-3.74939945665465E-33, -6.12323399573677E-17, 1.));
#421 = DIRECTION('', (1., -6.12323399573677E-17, 0.));
#422 = AXIS2_PLACEMENT_3D('PCS', #423, #424, #425);
#423 = CARTESIAN_POINT('', (0., 0., 0.));
#424 = DIRECTION('', (0., 0., 1.));
#425 = DIRECTION('', (1., 0., 0.));
#426 = CARTESIAN_POINT('CRP', (6., 0., -83.));
#427 = (
   GEOMETRIC_REPRESENTATION_CONTEXT (3)
   GLOBAL_UNCERTAINTY_ASSIGNED_CONTEXT ((#429))
   GLOBAL_UNIT_ASSIGNED_CONTEXT ((#428, #430, #431))
   REPRESENTATION_CONTEXT ('', '3D')
);
#428 = (
   LENGTH_UNIT ()
   NAMED_UNIT (*)
   SI_UNIT (.MILLI., .METRE.)
);
#429 = UNCERTAINTY_MEASURE_WITH_UNIT(LENGTH_MEASURE(1.E-6), #428, 'DISTANCE_ACCURACY_VALUE', '');
#430 = (
   NAMED_UNIT (*)
   SI_UNIT ($, .STERADIAN.)
   SOLID_ANGLE_UNIT ()
);
#431 = (
   NAMED_UNIT (*)
   PLANE_ANGLE_UNIT ()
   SI_UNIT ($, .RADIAN.)
);
#432 = SHAPE_REPRESENTATION('', (), #427);
#433 = PRODUCT_DEFINITION_SHAPE('', '', #434);
#434 = PRODUCT_DEFINITION('', '', #437, #441);
#435 = APPLICATION_CONTEXT('configuration controlled 3D designs of mechanical parts and assemblies');
#436 = APPLICATION_PROTOCOL_DEFINITION('International Standard', 'automotive_design', 2002, #435);
#437 = PRODUCT_DEFINITION_FORMATION_WITH_SPECIFIED_SOURCE('', '', #438, .NOT_KNOWN.);
#438 = PRODUCT('NONE', 'R217.14C120150AC22N 1630', '', (#439));
#439 = PRODUCT_CONTEXT('', #435, 'mechanical');
#440 = PRODUCT_RELATED_PRODUCT_CATEGORY('detail', '', (#438));
#441 = PRODUCT_DEFINITION_CONTEXT('part definition', #435, 'design');
#442 = SHAPE_DEFINITION_REPRESENTATION(#433, #432);
#443 = CONSTRUCTIVE_GEOMETRY_REPRESENTATION('supplemental geometry', (#414, #418, #422), #427);
#444 = CONSTRUCTIVE_GEOMETRY_REPRESENTATION_RELATIONSHIP('', '', #432, #443);
#445 = SHAPE_REPRESENTATION_RELATIONSHIP('', '', #432, #446);
#446 = SHAPE_REPRESENTATION('', (#383), #427);
#447 = SHAPE_REPRESENTATION_RELATIONSHIP('', '', #432, #448);
#448 = ADVANCED_BREP_SHAPE_REPRESENTATION('', (#1, #175), #427);
ENDSEC;
END-ISO-10303-21;
