ISO-10303-21;
HEADER;
FILE_DESCRIPTION(('STEP'), '1');
FILE_NAME('C:\\Users\\ds2002\\OneDrive - Sandvik\\HomeShare\\Documents\\Batchrepair\\CorSRT2\\NEW_MILTH_SLD\\Output\\MOD000000000000000020084661200000.stp', '2019-01-04T08:50:30', (''), (''), 'Express v3.0.0.0', 'Express Tool', 'Unknown');
FILE_SCHEMA(('AUTOMOTIVE_DESIGN'));
ENDSEC;

DATA;
#1 = MANIFOLD_SOLID_BREP('NOCUT', #2);
#2 = CLOSED_SHELL('', (#3, #31, #78, #87, #118, #135));
#3 = ADVANCED_FACE('', (#4, #15), #26, .T.);
#4 = FACE_OUTER_BOUND('', #5, .T.);
#5 = EDGE_LOOP('', (#6));
#6 = ORIENTED_EDGE('', *, *, #7, .T.);
#7 = EDGE_CURVE('', #8, #8, #10, .T.);
#8 = VERTEX_POINT('', #9);
#9 = CARTESIAN_POINT('', (-5., 3.60046158949322E-15, -53.8));
#10 = CIRCLE('', #11, 5.);
#11 = AXIS2_PLACEMENT_3D('', #12, #13, #14);
#12 = CARTESIAN_POINT('', (-5.82867087928207E-16, 2.22044604925031E-16, -53.8));
#13 = DIRECTION('', (3.26809001084204E-30, 4.83671794477991E-15, -1.));
#14 = DIRECTION('', (-1., 6.75683396913638E-16, 0.));
#15 = FACE_BOUND('', #16, .T.);
#16 = EDGE_LOOP('', (#17));
#17 = ORIENTED_EDGE('', *, *, #18, .F.);
#18 = EDGE_CURVE('', #19, #19, #21, .T.);
#19 = VERTEX_POINT('', #20);
#20 = CARTESIAN_POINT('', (-3.23445625, 3.49235321438361E-15, -53.8));
#21 = CIRCLE('', #22, 3.23445625);
#22 = AXIS2_PLACEMENT_3D('', #23, #24, #25);
#23 = CARTESIAN_POINT('', (6.93889390390723E-16, 4.21884749357559E-15, -53.8));
#24 = DIRECTION('', (2.19679192062066E-15, -7.14685956132689E-15, -1.));
#25 = DIRECTION('', (-1., -2.24610946335101E-16, -2.19679192062066E-15));
#26 = B_SPLINE_SURFACE_WITH_KNOTS('', 1, 1, ((#27, #28), (#29, #30)), .UNSPECIFIED., .F., .F., .U., (2, 2), (2, 2), (2.77717459305203, 12.779174593052), (2.77717459305202, 12.779174593052), .UNSPECIFIED.);
#27 = CARTESIAN_POINT('', (5.001, -5.001, -53.8));
#28 = CARTESIAN_POINT('', (5.001, 5.001, -53.8));
#29 = CARTESIAN_POINT('', (-5.001, -5.001, -53.8));
#30 = CARTESIAN_POINT('', (-5.001, 5.001, -53.8));
#31 = ADVANCED_FACE('', (#32), #59, .T.);
#32 = FACE_OUTER_BOUND('', #33, .T.);
#33 = EDGE_LOOP('', (#34, #44, #51, #52));
#34 = ORIENTED_EDGE('', *, *, #35, .T.);
#35 = EDGE_CURVE('', #36, #38, #40, .T.);
#36 = VERTEX_POINT('', #37);
#37 = CARTESIAN_POINT('', (-5., 3.36777869765522E-16, -0.5));
#38 = VERTEX_POINT('', #39);
#39 = CARTESIAN_POINT('', (-4.5, 2.75545529808154E-16, 0.));
#40 = LINE('', #41, #42);
#41 = CARTESIAN_POINT('', (-5., 3.36777869765522E-16, -0.5));
#42 = VECTOR('', #43, 0.707106781186548);
#43 = DIRECTION('', (0.5, -6.1232339957368E-17, 0.5));
#44 = ORIENTED_EDGE('', *, *, #45, .T.);
#45 = EDGE_CURVE('', #38, #38, #46, .T.);
#46 = CIRCLE('', #47, 4.5);
#47 = AXIS2_PLACEMENT_3D('', #48, #49, #50);
#48 = CARTESIAN_POINT('', (1.36002320516582E-15, 1.11022302462516E-16, 6.16297582203915E-33));
#49 = DIRECTION('', (3.60824844661125E-33, 6.12323399573677E-17, -1.));
#50 = DIRECTION('', (-1., 3.65607171879198E-17, -1.36955018267537E-33));
#51 = ORIENTED_EDGE('', *, *, #35, .F.);
#52 = ORIENTED_EDGE('', *, *, #53, .F.);
#53 = EDGE_CURVE('', #36, #36, #54, .T.);
#54 = CIRCLE('', #55, 5.);
#55 = AXIS2_PLACEMENT_3D('', #56, #57, #58);
#56 = CARTESIAN_POINT('', (-6.24500451351651E-16, -3.10862446895044E-15, -0.5));
#57 = DIRECTION('', (5.20763728707942E-32, 7.55737178871861E-17, -1.));
#58 = DIRECTION('', (-1., 6.89080467743192E-16, 0.));
#59 = (
   BOUNDED_SURFACE ()
   B_SPLINE_SURFACE (1, 2, ((#60, #61, #62, #63, #64, #65, #66, #67, #68), (#69, #70, #71, #72, #73, #74, #75, #76, #77)), .UNSPECIFIED., .F., .T., .U.)
   B_SPLINE_SURFACE_WITH_KNOTS ((2, 2), (3, 2, 2, 2, 3), (0., 1.), (0., 0.25, 0.5, 0.75, 1.), .UNSPECIFIED.)
   GEOMETRIC_REPRESENTATION_ITEM ()
   RATIONAL_B_SPLINE_SURFACE (((1., 0.707106781186548, 1., 0.707106781186548, 1., 0.707106781186548, 1., 0.707106781186548, 1.), (1., 0.707106781186548, 1., 0.707106781186548, 1., 0.707106781186548, 1., 0.707106781186548, 1.)))
   REPRESENTATION_ITEM ('')
   SURFACE ()
);
#60 = CARTESIAN_POINT('', (-5., -2.69144046670109E-15, -0.5));
#61 = CARTESIAN_POINT('', (-5., 5., -0.50000000000003));
#62 = CARTESIAN_POINT('', (2.28983498828938E-15, 5., -0.50000000000003));
#63 = CARTESIAN_POINT('', (5., 5., -0.50000000000003));
#64 = CARTESIAN_POINT('', (5., -2.69144046670108E-15, -0.5));
#65 = CARTESIAN_POINT('', (5., -5., -0.49999999999997));
#66 = CARTESIAN_POINT('', (2.90215838786306E-15, -5., -0.49999999999997));
#67 = CARTESIAN_POINT('', (-5., -5., -0.49999999999997));
#68 = CARTESIAN_POINT('', (-5., -2.69144046670109E-15, -0.5));
#69 = CARTESIAN_POINT('', (-4.5, 2.75545529808154E-16, -5.47382212626882E-48));
#70 = CARTESIAN_POINT('', (-4.5, 4.5, -2.69784194983913E-14));
#71 = CARTESIAN_POINT('', (2.28983498828938E-15, 4.5, -2.69784194983913E-14));
#72 = CARTESIAN_POINT('', (4.5, 4.5, -2.69784194983913E-14));
#73 = CARTESIAN_POINT('', (4.5, 2.75545529808155E-16, -3.34088136340818E-30));
#74 = CARTESIAN_POINT('', (4.5, -4.5, 2.69784194983913E-14));
#75 = CARTESIAN_POINT('', (2.8409260479057E-15, -4.5, 2.69784194983913E-14));
#76 = CARTESIAN_POINT('', (-4.5, -4.5, 2.69784194983913E-14));
#77 = CARTESIAN_POINT('', (-4.5, 2.75545529808154E-16, -5.47382212626882E-48));
#78 = ADVANCED_FACE('', (#79), #82, .T.);
#79 = FACE_OUTER_BOUND('', #80, .T.);
#80 = EDGE_LOOP('', (#81));
#81 = ORIENTED_EDGE('', *, *, #45, .F.);
#82 = B_SPLINE_SURFACE_WITH_KNOTS('', 1, 1, ((#83, #84), (#85, #86)), .UNSPECIFIED., .F., .F., .U., (2, 2), (2, 2), (2.49935713374682, 11.5013571337468), (2.49935713374682, 11.5013571337468), .UNSPECIFIED.);
#83 = CARTESIAN_POINT('', (4.501, -4.501, -2.75606762148106E-16));
#84 = CARTESIAN_POINT('', (-4.501, -4.501, -1.44896194450646E-14));
#85 = CARTESIAN_POINT('', (4.501, 4.501, 1.44896194450647E-14));
#86 = CARTESIAN_POINT('', (-4.501, 4.501, 2.75606762148136E-16));
#87 = ADVANCED_FACE('', (#88), #99, .T.);
#88 = FACE_OUTER_BOUND('', #89, .T.);
#89 = EDGE_LOOP('', (#90, #96, #97, #98));
#90 = ORIENTED_EDGE('', *, *, #91, .F.);
#91 = EDGE_CURVE('', #8, #36, #92, .T.);
#92 = LINE('', #93, #94);
#93 = CARTESIAN_POINT('', (-5., 3.60046158949322E-15, -53.8));
#94 = VECTOR('', #95, 53.3);
#95 = DIRECTION('', (0., -3.2636837197277E-15, 53.3));
#96 = ORIENTED_EDGE('', *, *, #7, .F.);
#97 = ORIENTED_EDGE('', *, *, #91, .T.);
#98 = ORIENTED_EDGE('', *, *, #53, .T.);
#99 = (
   BOUNDED_SURFACE ()
   B_SPLINE_SURFACE (1, 2, ((#100, #101, #102, #103, #104, #105, #106, #107, #108), (#109, #110, #111, #112, #113, #114, #115, #116, #117)), .UNSPECIFIED., .F., .T., .U.)
   B_SPLINE_SURFACE_WITH_KNOTS ((2, 2), (3, 2, 2, 2, 3), (-0.349367088607595, 1.), (0., 0.25, 0.5, 0.75, 1.), .UNSPECIFIED.)
   GEOMETRIC_REPRESENTATION_ITEM ()
   RATIONAL_B_SPLINE_SURFACE (((1., 0.707106781186548, 1., 0.707106781186548, 1., 0.707106781186548, 1., 0.707106781186548, 1.), (1., 0.707106781186548, 1., 0.707106781186548, 1., 0.707106781186548, 1., 0.707106781186548, 1.)))
   REPRESENTATION_ITEM ('')
   SURFACE ()
);
#100 = CARTESIAN_POINT('', (-5., -6.62422852397119E-16, -53.8));
#101 = CARTESIAN_POINT('', (-5., 5., -53.8));
#102 = CARTESIAN_POINT('', (1.55516260249014E-16, 5., -53.8));
#103 = CARTESIAN_POINT('', (5., 5., -53.8));
#104 = CARTESIAN_POINT('', (5., -1.83387821697964E-15, -53.8));
#105 = CARTESIAN_POINT('', (5., -5., -53.8));
#106 = CARTESIAN_POINT('', (-4.03615704759834E-16, -5., -53.8));
#107 = CARTESIAN_POINT('', (-5., -5., -53.8));
#108 = CARTESIAN_POINT('', (-5., -6.62422852397119E-16, -53.8));
#109 = CARTESIAN_POINT('', (-5., 3.36777869765522E-16, -0.5));
#110 = CARTESIAN_POINT('', (-5., 5., -0.5));
#111 = CARTESIAN_POINT('', (1.55516260249014E-16, 5., -0.5));
#112 = CARTESIAN_POINT('', (5., 5., -0.5));
#113 = CARTESIAN_POINT('', (5., -8.34677494817002E-16, -0.5));
#114 = CARTESIAN_POINT('', (5., -5., -0.5));
#115 = CARTESIAN_POINT('', (-4.03615704759834E-16, -5., -0.5));
#116 = CARTESIAN_POINT('', (-5., -5., -0.5));
#117 = CARTESIAN_POINT('', (-5., 3.36777869765522E-16, -0.5));
#118 = ADVANCED_FACE('', (#119), #130, .T.);
#119 = FACE_OUTER_BOUND('', #120, .T.);
#120 = EDGE_LOOP('', (#121));
#121 = ORIENTED_EDGE('', *, *, #122, .T.);
#122 = EDGE_CURVE('', #123, #123, #125, .T.);
#123 = VERTEX_POINT('', #124);
#124 = CARTESIAN_POINT('', (-3.23445625, 5.09664052126665E-15, -80.));
#125 = CIRCLE('', #126, 3.23445625000001);
#126 = AXIS2_PLACEMENT_3D('', #127, #128, #129);
#127 = CARTESIAN_POINT('', (2.35922392732846E-16, 4.27435864480685E-15, -80.));
#128 = DIRECTION('', (3.80162187576103E-30, 1.49537281414145E-14, -1.));
#129 = DIRECTION('', (-1., 2.54225691400153E-16, 0.));
#130 = B_SPLINE_SURFACE_WITH_KNOTS('', 1, 1, ((#131, #132), (#133, #134)), .UNSPECIFIED., .F., .F., .U., (2, 2), (2, 2), (3.14264691630265, 9.61355941630267), (3.14264691630265, 9.61355941630267), .UNSPECIFIED.);
#131 = CARTESIAN_POINT('', (3.23545625000001, -3.23545625000001, -80.));
#132 = CARTESIAN_POINT('', (3.23545625000001, 3.23545625000001, -80.));
#133 = CARTESIAN_POINT('', (-3.23545625000001, -3.23545625, -80.));
#134 = CARTESIAN_POINT('', (-3.23545625000001, 3.23545625000002, -80.));
#135 = ADVANCED_FACE('', (#136), #147, .T.);
#136 = FACE_OUTER_BOUND('', #137, .T.);
#137 = EDGE_LOOP('', (#138, #144, #145, #146));
#138 = ORIENTED_EDGE('', *, *, #139, .T.);
#139 = EDGE_CURVE('', #123, #19, #140, .T.);
#140 = LINE('', #141, #142);
#141 = CARTESIAN_POINT('', (-3.23445625, 5.09664052126665E-15, -80.));
#142 = VECTOR('', #143, 26.2);
#143 = DIRECTION('', (0., -1.60428730688304E-15, 26.2));
#144 = ORIENTED_EDGE('', *, *, #18, .T.);
#145 = ORIENTED_EDGE('', *, *, #139, .F.);
#146 = ORIENTED_EDGE('', *, *, #122, .F.);
#147 = (
   BOUNDED_SURFACE ()
   B_SPLINE_SURFACE (1, 2, ((#148, #149, #150, #151, #152, #153, #154, #155, #156), (#157, #158, #159, #160, #161, #162, #163, #164, #165)), .UNSPECIFIED., .F., .T., .U.)
   B_SPLINE_SURFACE_WITH_KNOTS ((2, 2), (3, 2, 2, 2, 3), (0., 1.), (0., 5.0806719966788, 10.1613439933576, 15.2420159900364, 20.3226879867152), .UNSPECIFIED.)
   GEOMETRIC_REPRESENTATION_ITEM ()
   RATIONAL_B_SPLINE_SURFACE (((1., 0.707106781186548, 1., 0.707106781186548, 1., 0.707106781186548, 1., 0.707106781186548, 1.), (1., 0.707106781186548, 1., 0.707106781186548, 1., 0.707106781186548, 1., 0.707106781186548, 1.)))
   REPRESENTATION_ITEM ('')
   SURFACE ()
);
#148 = CARTESIAN_POINT('', (-3.23445625, 7.15608919564663E-15, -80.));
#149 = CARTESIAN_POINT('', (-3.23445625, 3.23445625000001, -80.));
#150 = CARTESIAN_POINT('', (2.47551040904533E-15, 3.23445625, -80.));
#151 = CARTESIAN_POINT('', (3.23445625, 3.23445625, -80.));
#152 = CARTESIAN_POINT('', (3.23445625, 2.67691316302167E-15, -80.));
#153 = CARTESIAN_POINT('', (3.23445625, -3.23445625, -80.));
#154 = CARTESIAN_POINT('', (-1.60755897422516E-15, -3.23445625, -80.));
#155 = CARTESIAN_POINT('', (-3.23445625, -3.23445624999999, -80.));
#156 = CARTESIAN_POINT('', (-3.23445625, 7.15608919564663E-15, -80.));
#157 = CARTESIAN_POINT('', (-3.23445625, 3.49235321438361E-15, -53.8));
#158 = CARTESIAN_POINT('', (-3.23445625, 3.23445625, -53.8));
#159 = CARTESIAN_POINT('', (2.47551040904532E-15, 3.23445625, -53.8));
#160 = CARTESIAN_POINT('', (3.23445625, 3.23445625, -53.8));
#161 = CARTESIAN_POINT('', (3.23445625, -9.86822818241347E-16, -53.8));
#162 = CARTESIAN_POINT('', (3.23445625, -3.23445625, -53.8));
#163 = CARTESIAN_POINT('', (-1.60755897422517E-15, -3.23445625, -53.8));
#164 = CARTESIAN_POINT('', (-3.23445625, -3.23445625, -53.8));
#165 = CARTESIAN_POINT('', (-3.23445625, 3.49235321438361E-15, -53.8));
#166 = DRAUGHTING_MODEL('', (#174, #341, #388, #393, #398, #403, #408, #413), #427);
#167 = PRESENTATION_STYLE_ASSIGNMENT((#168));
#168 = SURFACE_STYLE_USAGE(.POSITIVE., #169);
#169 = SURFACE_SIDE_STYLE('', (#170));
#170 = SURFACE_STYLE_FILL_AREA(#171);
#171 = FILL_AREA_STYLE('', (#172));
#172 = FILL_AREA_STYLE_COLOUR('', #173);
#173 = COLOUR_RGB('', 0.50196078431373, 0.50196078431373, 0.50196078431373);
#174 = STYLED_ITEM('', (#167), #1);
#175 = MANIFOLD_SOLID_BREP('CUT', #176);
#176 = CLOSED_SHELL('', (#177, #205, #244, #264, #303));
#177 = ADVANCED_FACE('', (#178, #189), #200, .T.);
#178 = FACE_OUTER_BOUND('', #179, .T.);
#179 = EDGE_LOOP('', (#180));
#180 = ORIENTED_EDGE('', *, *, #181, .T.);
#181 = EDGE_CURVE('', #182, #182, #184, .T.);
#182 = VERTEX_POINT('', #183);
#183 = CARTESIAN_POINT('', (-4.1, 5.14963979041462E-15, -80.));
#184 = CIRCLE('', #185, 4.1);
#185 = AXIS2_PLACEMENT_3D('', #186, #187, #188);
#186 = CARTESIAN_POINT('', (5.55111512312578E-16, 5.99520433297585E-15, -80.));
#187 = DIRECTION('', (3.46606212565903E-15, -1.12761973541493E-14, -1.));
#188 = DIRECTION('', (-1., -2.06235254283226E-16, -3.46606212565902E-15));
#189 = FACE_BOUND('', #190, .T.);
#190 = EDGE_LOOP('', (#191));
#191 = ORIENTED_EDGE('', *, *, #192, .F.);
#192 = EDGE_CURVE('', #193, #193, #195, .T.);
#193 = VERTEX_POINT('', #194);
#194 = CARTESIAN_POINT('', (-3.23445625, 5.09664052126665E-15, -80.));
#195 = CIRCLE('', #196, 3.23445625);
#196 = AXIS2_PLACEMENT_3D('', #197, #198, #199);
#197 = CARTESIAN_POINT('', (1.04083408558608E-15, 3.66373598126302E-15, -80.));
#198 = DIRECTION('', (4.39358384124132E-15, -1.42937191226537E-14, -1.));
#199 = DIRECTION('', (-1., 4.43012497078491E-16, -4.39358384124132E-15));
#200 = B_SPLINE_SURFACE_WITH_KNOTS('', 1, 1, ((#201, #202), (#203, #204)), .UNSPECIFIED., .F., .F., .U., (2, 2), (2, 2), (2.27710316630266, 10.4791031663027), (2.27710316630266, 10.4791031663027), .UNSPECIFIED.);
#201 = CARTESIAN_POINT('', (4.101, -4.101, -80.));
#202 = CARTESIAN_POINT('', (4.101, 4.101, -80.));
#203 = CARTESIAN_POINT('', (-4.101, -4.101, -80.));
#204 = CARTESIAN_POINT('', (-4.101, 4.101, -80.));
#205 = ADVANCED_FACE('', (#206), #225, .T.);
#206 = FACE_OUTER_BOUND('', #207, .T.);
#207 = EDGE_LOOP('', (#208, #216, #217, #218));
#208 = ORIENTED_EDGE('', *, *, #209, .F.);
#209 = EDGE_CURVE('', #193, #210, #212, .T.);
#210 = VERTEX_POINT('', #211);
#211 = CARTESIAN_POINT('', (-3.23445625, 3.49235321438361E-15, -53.8));
#212 = LINE('', #213, #214);
#213 = CARTESIAN_POINT('', (-3.23445625, 5.09664052126665E-15, -80.));
#214 = VECTOR('', #215, 26.2);
#215 = DIRECTION('', (0., -1.60428730688304E-15, 26.2));
#216 = ORIENTED_EDGE('', *, *, #192, .T.);
#217 = ORIENTED_EDGE('', *, *, #209, .T.);
#218 = ORIENTED_EDGE('', *, *, #219, .F.);
#219 = EDGE_CURVE('', #210, #210, #220, .T.);
#220 = CIRCLE('', #221, 3.23445625);
#221 = AXIS2_PLACEMENT_3D('', #222, #223, #224);
#222 = CARTESIAN_POINT('', (6.93889390390723E-16, 4.21884749357559E-15, -53.8));
#223 = DIRECTION('', (2.19679192062066E-15, -7.14685956132689E-15, -1.));
#224 = DIRECTION('', (-1., -2.24610946335101E-16, -2.19679192062066E-15));
#225 = (
   BOUNDED_SURFACE ()
   B_SPLINE_SURFACE (2, 1, ((#226, #227), (#228, #229), (#230, #231), (#232, #233), (#234, #235), (#236, #237), (#238, #239), (#240, #241), (#242, #243)), .UNSPECIFIED., .T., .F., .U.)
   B_SPLINE_SURFACE_WITH_KNOTS ((3, 2, 2, 2, 3), (2, 2), (0., 5.0806719966788, 10.1613439933576, 15.2420159900364, 20.3226879867152), (0., 1.), .UNSPECIFIED.)
   GEOMETRIC_REPRESENTATION_ITEM ()
   RATIONAL_B_SPLINE_SURFACE (((1., 1.), (0.707106781186548, 0.707106781186548), (1., 1.), (0.707106781186548, 0.707106781186548), (1., 1.), (0.707106781186548, 0.707106781186548), (1., 1.), (0.707106781186548, 0.707106781186548), (1., 1.)))
   REPRESENTATION_ITEM ('')
   SURFACE ()
);
#226 = CARTESIAN_POINT('', (-3.23445625, 5.15768775132134E-15, -80.));
#227 = CARTESIAN_POINT('', (-3.23445625, 3.49235321438361E-15, -53.8));
#228 = CARTESIAN_POINT('', (-3.23445625, 3.23445625, -80.));
#229 = CARTESIAN_POINT('', (-3.23445625, 3.23445625, -53.8));
#230 = CARTESIAN_POINT('', (2.47551040904533E-15, 3.23445625, -80.));
#231 = CARTESIAN_POINT('', (2.47551040904532E-15, 3.23445625, -53.8));
#232 = CARTESIAN_POINT('', (3.23445625, 3.23445625, -80.));
#233 = CARTESIAN_POINT('', (3.23445625, 3.23445625, -53.8));
#234 = CARTESIAN_POINT('', (3.23445625, 6.78511718696388E-16, -80.));
#235 = CARTESIAN_POINT('', (3.23445625, -9.86822818241347E-16, -53.8));
#236 = CARTESIAN_POINT('', (3.23445625, -3.23445625, -80.));
#237 = CARTESIAN_POINT('', (3.23445625, -3.23445625, -53.8));
#238 = CARTESIAN_POINT('', (-1.60755897422517E-15, -3.23445625, -80.));
#239 = CARTESIAN_POINT('', (-1.60755897422517E-15, -3.23445625, -53.8));
#240 = CARTESIAN_POINT('', (-3.23445625, -3.23445625, -80.));
#241 = CARTESIAN_POINT('', (-3.23445625, -3.23445625, -53.8));
#242 = CARTESIAN_POINT('', (-3.23445625, 5.15768775132134E-15, -80.));
#243 = CARTESIAN_POINT('', (-3.23445625, 3.49235321438361E-15, -53.8));
#244 = ADVANCED_FACE('', (#245, #256), #259, .T.);
#245 = FACE_OUTER_BOUND('', #246, .T.);
#246 = EDGE_LOOP('', (#247));
#247 = ORIENTED_EDGE('', *, *, #248, .F.);
#248 = EDGE_CURVE('', #249, #249, #251, .T.);
#249 = VERTEX_POINT('', #250);
#250 = CARTESIAN_POINT('', (-4.75, 3.58515350450388E-15, -53.8));
#251 = CIRCLE('', #252, 4.75);
#252 = AXIS2_PLACEMENT_3D('', #253, #254, #255);
#253 = CARTESIAN_POINT('', (-9.85322934354826E-16, 4.66293670342566E-15, -53.8));
#254 = DIRECTION('', (-1.15522068450023E-30, 5.09128204713678E-15, -1.));
#255 = DIRECTION('', (-1., -2.26901726088795E-16, 0.));
#256 = FACE_BOUND('', #257, .T.);
#257 = EDGE_LOOP('', (#258));
#258 = ORIENTED_EDGE('', *, *, #219, .T.);
#259 = B_SPLINE_SURFACE_WITH_KNOTS('', 1, 1, ((#260, #261), (#262, #263)), .UNSPECIFIED., .F., .F., .U., (2, 2), (2, 2), (2.63826586339942, 12.1402658633994), (2.63826586339942, 12.1402658633994), .UNSPECIFIED.);
#260 = CARTESIAN_POINT('', (4.751, -4.751, -53.8));
#261 = CARTESIAN_POINT('', (-4.751, -4.751, -53.8));
#262 = CARTESIAN_POINT('', (4.751, 4.75100000000001, -53.8));
#263 = CARTESIAN_POINT('', (-4.751, 4.75100000000001, -53.8));
#264 = ADVANCED_FACE('', (#265), #284, .T.);
#265 = FACE_OUTER_BOUND('', #266, .T.);
#266 = EDGE_LOOP('', (#267, #275, #276, #277));
#267 = ORIENTED_EDGE('', *, *, #268, .F.);
#268 = EDGE_CURVE('', #249, #269, #271, .T.);
#269 = VERTEX_POINT('', #270);
#270 = CARTESIAN_POINT('', (-4.75, 5.14963979041462E-15, -79.35));
#271 = LINE('', #272, #273);
#272 = CARTESIAN_POINT('', (-4.75, 3.58515350450388E-15, -53.8));
#273 = VECTOR('', #274, 25.55);
#274 = DIRECTION('', (0., 1.56448628591074E-15, -25.55));
#275 = ORIENTED_EDGE('', *, *, #248, .T.);
#276 = ORIENTED_EDGE('', *, *, #268, .T.);
#277 = ORIENTED_EDGE('', *, *, #278, .F.);
#278 = EDGE_CURVE('', #269, #269, #279, .T.);
#279 = CIRCLE('', #280, 4.75);
#280 = AXIS2_PLACEMENT_3D('', #281, #282, #283);
#281 = CARTESIAN_POINT('', (-6.80011602582908E-16, 4.21884749357559E-15, -79.35));
#282 = DIRECTION('', (0., 0., -1.));
#283 = DIRECTION('', (-1., 1.95956273018742E-16, 0.));
#284 = (
   BOUNDED_SURFACE ()
   B_SPLINE_SURFACE (2, 1, ((#285, #286), (#287, #288), (#289, #290), (#291, #292), (#293, #294), (#295, #296), (#297, #298), (#299, #300), (#301, #302)), .UNSPECIFIED., .T., .F., .U.)
   B_SPLINE_SURFACE_WITH_KNOTS ((3, 2, 2, 2, 3), (2, 2), (0., 7.46128255227575, 14.9225651045515, 22.3838476568273, 29.845130209103), (0., 1.), .UNSPECIFIED.)
   GEOMETRIC_REPRESENTATION_ITEM ()
   RATIONAL_B_SPLINE_SURFACE (((1., 1.), (0.707106781186548, 0.707106781186548), (1., 1.), (0.707106781186548, 0.707106781186548), (1., 1.), (0.707106781186548, 0.707106781186548), (1., 1.), (0.707106781186548, 0.707106781186548), (1., 1.)))
   REPRESENTATION_ITEM ('')
   SURFACE ()
);
#285 = CARTESIAN_POINT('', (-4.75, 3.58515350450388E-15, -53.8));
#286 = CARTESIAN_POINT('', (-4.75, 5.25048804144162E-15, -79.35));
#287 = CARTESIAN_POINT('', (-4.75, 4.75, -53.8));
#288 = CARTESIAN_POINT('', (-4.75, 4.75000000000001, -79.35));
#289 = CARTESIAN_POINT('', (3.68287794832519E-15, 4.75, -53.8));
#290 = CARTESIAN_POINT('', (3.68287794832519E-15, 4.75, -79.35));
#291 = CARTESIAN_POINT('', (4.75, 4.75, -53.8));
#292 = CARTESIAN_POINT('', (4.75, 4.75, -79.35));
#293 = CARTESIAN_POINT('', (4.75, -3.89162469460901E-15, -53.8));
#294 = CARTESIAN_POINT('', (4.75, -2.22629015767128E-15, -79.35));
#295 = CARTESIAN_POINT('', (4.75, -4.75, -53.8));
#296 = CARTESIAN_POINT('', (4.75, -4.75, -79.35));
#297 = CARTESIAN_POINT('', (-3.21219302119271E-15, -4.75, -53.8));
#298 = CARTESIAN_POINT('', (-3.21219302119271E-15, -4.75, -79.35));
#299 = CARTESIAN_POINT('', (-4.75, -4.75, -53.8));
#300 = CARTESIAN_POINT('', (-4.75, -4.75, -79.35));
#301 = CARTESIAN_POINT('', (-4.75, 3.58515350450388E-15, -53.8));
#302 = CARTESIAN_POINT('', (-4.75, 5.25048804144162E-15, -79.35));
#303 = ADVANCED_FACE('', (#304), #315, .T.);
#304 = FACE_OUTER_BOUND('', #305, .T.);
#305 = EDGE_LOOP('', (#306, #312, #313, #314));
#306 = ORIENTED_EDGE('', *, *, #307, .F.);
#307 = EDGE_CURVE('', #269, #182, #308, .T.);
#308 = LINE('', #309, #310);
#309 = CARTESIAN_POINT('', (-4.75, 5.14963979041462E-15, -79.35));
#310 = VECTOR('', #311, 0.919238815542516);
#311 = DIRECTION('', (0.65, 0., -0.650000000000006));
#312 = ORIENTED_EDGE('', *, *, #278, .T.);
#313 = ORIENTED_EDGE('', *, *, #307, .T.);
#314 = ORIENTED_EDGE('', *, *, #181, .F.);
#315 = (
   BOUNDED_SURFACE ()
   B_SPLINE_SURFACE (2, 1, ((#316, #317), (#318, #319), (#320, #321), (#322, #323), (#324, #325), (#326, #327), (#328, #329), (#330, #331), (#332, #333)), .UNSPECIFIED., .T., .F., .U.)
   B_SPLINE_SURFACE_WITH_KNOTS ((3, 2, 2, 2, 3), (2, 2), (0., 0.25, 0.5, 0.75, 1.), (0., 1.), .UNSPECIFIED.)
   GEOMETRIC_REPRESENTATION_ITEM ()
   RATIONAL_B_SPLINE_SURFACE (((1., 1.), (0.707106781186548, 0.707106781186548), (1., 1.), (0.707106781186548, 0.707106781186548), (1., 1.), (0.707106781186548, 0.707106781186548), (1., 1.), (0.707106781186548, 0.707106781186548), (1., 1.)))
   REPRESENTATION_ITEM ('')
   SURFACE ()
);
#316 = CARTESIAN_POINT('', (-4.75, 5.14963979041462E-15, -79.35));
#317 = CARTESIAN_POINT('', (-4.1, 8.66379973372295E-15, -80.));
#318 = CARTESIAN_POINT('', (-4.74999999999999, 4.75000000000001, -79.35));
#319 = CARTESIAN_POINT('', (-4.1, 4.10000000000001, -80.));
#320 = CARTESIAN_POINT('', (4.66449714630772E-15, 4.75, -79.35));
#321 = CARTESIAN_POINT('', (3.99961061701275E-15, 4.1, -80.));
#322 = CARTESIAN_POINT('', (4.75, 4.75, -79.35));
#323 = CARTESIAN_POINT('', (4.1, 4.1, -80.));
#324 = CARTESIAN_POINT('', (4.75, -4.56793256081963E-15, -79.35));
#325 = CARTESIAN_POINT('', (4.1, 2.76000441078654E-16, -80.));
#326 = CARTESIAN_POINT('', (4.75, -4.75, -79.35));
#327 = CARTESIAN_POINT('', (4.1, -4.1, -80.));
#328 = CARTESIAN_POINT('', (-4.47136797533153E-15, -4.75, -79.35));
#329 = CARTESIAN_POINT('', (-3.88608348798113E-15, -4.1, -80.));
#330 = CARTESIAN_POINT('', (-4.75, -4.75, -79.35));
#331 = CARTESIAN_POINT('', (-4.1, -4.09999999999999, -80.));
#332 = CARTESIAN_POINT('', (-4.75, 5.14963979041462E-15, -79.35));
#333 = CARTESIAN_POINT('', (-4.1, 8.66379973372295E-15, -80.));
#334 = PRESENTATION_STYLE_ASSIGNMENT((#335));
#335 = SURFACE_STYLE_USAGE(.POSITIVE., #336);
#336 = SURFACE_SIDE_STYLE('', (#337));
#337 = SURFACE_STYLE_FILL_AREA(#338);
#338 = FILL_AREA_STYLE('', (#339));
#339 = FILL_AREA_STYLE_COLOUR('', #340);
#340 = COLOUR_RGB('', 0.8, 0.8, 0.8);
#341 = STYLED_ITEM('', (#334), #175);
#342 = TRIMMED_CURVE('cutting part line', #343, (#347), (#348), .T., .CARTESIAN.);
#343 = LINE('', #344, #345);
#344 = CARTESIAN_POINT('', (3.23445625, -3.88845986373808E-15, -53.8));
#345 = VECTOR('', #346, 1.51554375);
#346 = DIRECTION('', (1.51554375, -2.78400870360798E-16, 0.));
#347 = CARTESIAN_POINT('', (3.23445625, -3.88845986373808E-15, -53.8));
#348 = CARTESIAN_POINT('', (4.75, -4.16686073409887E-15, -53.8));
#349 = TRIMMED_CURVE('cutting part line', #350, (#354), (#355), .T., .CARTESIAN.);
#350 = LINE('', #351, #352);
#351 = CARTESIAN_POINT('', (4.75, -4.16686073409887E-15, -53.8));
#352 = VECTOR('', #353, 25.55);
#353 = DIRECTION('', (0., -1.56448628591074E-15, -25.55));
#354 = CARTESIAN_POINT('', (4.75, -4.16686073409887E-15, -53.8));
#355 = CARTESIAN_POINT('', (4.75, -5.73134702000961E-15, -79.35));
#356 = TRIMMED_CURVE('cutting part line', #357, (#361), (#362), .T., .CARTESIAN.);
#357 = LINE('', #358, #359);
#358 = CARTESIAN_POINT('', (4.75, -5.73134702000961E-15, -79.35));
#359 = VECTOR('', #360, 0.919238815542516);
#360 = DIRECTION('', (-0.65, 7.9602041944578E-17, -0.650000000000006));
#361 = CARTESIAN_POINT('', (4.75, -5.73134702000961E-15, -79.35));
#362 = CARTESIAN_POINT('', (4.1, -5.65174497806503E-15, -80.));
#363 = TRIMMED_CURVE('cutting part line', #364, (#368), (#369), .T., .CARTESIAN.);
#364 = LINE('', #365, #366);
#365 = CARTESIAN_POINT('', (4.1, -5.65174497806503E-15, -80.));
#366 = VECTOR('', #367, 0.86554375);
#367 = DIRECTION('', (-0.86554375, 1.58997807443919E-16, 0.));
#368 = CARTESIAN_POINT('', (4.1, -5.65174497806503E-15, -80.));
#369 = CARTESIAN_POINT('', (3.23445625, -5.49274717062112E-15, -80.));
#370 = TRIMMED_CURVE('cutting part line', #371, (#375), (#376), .T., .CARTESIAN.);
#371 = LINE('', #372, #373);
#372 = CARTESIAN_POINT('', (3.23445625, -5.49274717062112E-15, -80.));
#373 = VECTOR('', #374, 26.2);
#374 = DIRECTION('', (0., 1.60428730688304E-15, 26.2));
#375 = CARTESIAN_POINT('', (3.23445625, -5.49274717062112E-15, -80.));
#376 = CARTESIAN_POINT('', (3.23445625, -3.88845986373808E-15, -53.8));
#377 = COMPOSITE_CURVE('cutting part line', (#378, #379, #380, #381, #382), .U.);
#378 = COMPOSITE_CURVE_SEGMENT(.CONTINUOUS., .T., #342);
#379 = COMPOSITE_CURVE_SEGMENT(.CONTINUOUS., .T., #349);
#380 = COMPOSITE_CURVE_SEGMENT(.CONTINUOUS., .T., #356);
#381 = COMPOSITE_CURVE_SEGMENT(.CONTINUOUS., .T., #363);
#382 = COMPOSITE_CURVE_SEGMENT(.CONTINUOUS., .T., #370);
#383 = GEOMETRIC_SET('', (#377, #426));
#384 = PRESENTATION_STYLE_ASSIGNMENT((#385));
#385 = CURVE_STYLE('', #387, POSITIVE_LENGTH_MEASURE(1.E-6), #386);
#386 = COLOUR_RGB('', 0., 0., 1.);
#387 = DRAUGHTING_PRE_DEFINED_CURVE_FONT('continuous');
#388 = STYLED_ITEM('', (#384), #377);
#389 = PRESENTATION_STYLE_ASSIGNMENT((#390));
#390 = CURVE_STYLE('', #392, POSITIVE_LENGTH_MEASURE(1.E-6), #391);
#391 = COLOUR_RGB('', 0., 0., 1.);
#392 = DRAUGHTING_PRE_DEFINED_CURVE_FONT('continuous');
#393 = OVER_RIDING_STYLED_ITEM('', (#389), #342, #388);
#394 = PRESENTATION_STYLE_ASSIGNMENT((#395));
#395 = CURVE_STYLE('', #397, POSITIVE_LENGTH_MEASURE(1.E-6), #396);
#396 = COLOUR_RGB('', 0., 0., 1.);
#397 = DRAUGHTING_PRE_DEFINED_CURVE_FONT('continuous');
#398 = OVER_RIDING_STYLED_ITEM('', (#394), #349, #388);
#399 = PRESENTATION_STYLE_ASSIGNMENT((#400));
#400 = CURVE_STYLE('', #402, POSITIVE_LENGTH_MEASURE(1.E-6), #401);
#401 = COLOUR_RGB('', 0., 0., 1.);
#402 = DRAUGHTING_PRE_DEFINED_CURVE_FONT('continuous');
#403 = OVER_RIDING_STYLED_ITEM('', (#399), #356, #388);
#404 = PRESENTATION_STYLE_ASSIGNMENT((#405));
#405 = CURVE_STYLE('', #407, POSITIVE_LENGTH_MEASURE(1.E-6), #406);
#406 = COLOUR_RGB('', 0., 0., 1.);
#407 = DRAUGHTING_PRE_DEFINED_CURVE_FONT('continuous');
#408 = OVER_RIDING_STYLED_ITEM('', (#404), #363, #388);
#409 = PRESENTATION_STYLE_ASSIGNMENT((#410));
#410 = CURVE_STYLE('', #412, POSITIVE_LENGTH_MEASURE(1.E-6), #411);
#411 = COLOUR_RGB('', 0., 0., 1.);
#412 = DRAUGHTING_PRE_DEFINED_CURVE_FONT('continuous');
#413 = OVER_RIDING_STYLED_ITEM('', (#409), #370, #388);
#414 = AXIS2_PLACEMENT_3D('CIP', #415, #416, #417);
#415 = CARTESIAN_POINT('', (2.99951956532372E-31, 4.89858719658941E-15, -80.));
#416 = DIRECTION('', (-3.74939945665465E-33, -6.12323399573677E-17, 1.));
#417 = DIRECTION('', (1., -6.12323399573677E-17, 0.));
#418 = AXIS2_PLACEMENT_3D('MCS', #419, #420, #421);
#419 = CARTESIAN_POINT('', (1.49975978266186E-31, 2.44929359829471E-15, -40.));
#420 = DIRECTION('', (-3.74939945665465E-33, -6.12323399573677E-17, 1.));
#421 = DIRECTION('', (1., -6.12323399573677E-17, 0.));
#422 = AXIS2_PLACEMENT_3D('PCS', #423, #424, #425);
#423 = CARTESIAN_POINT('', (0., 0., 0.));
#424 = DIRECTION('', (0., 0., 1.));
#425 = DIRECTION('', (1., 0., 0.));
#426 = CARTESIAN_POINT('CRP', (4.75, 0., -80.));
#427 = (
   GEOMETRIC_REPRESENTATION_CONTEXT (3)
   GLOBAL_UNCERTAINTY_ASSIGNED_CONTEXT ((#429))
   GLOBAL_UNIT_ASSIGNED_CONTEXT ((#428, #430, #431))
   REPRESENTATION_CONTEXT ('', '3D')
);
#428 = (
   LENGTH_UNIT ()
   NAMED_UNIT (*)
   SI_UNIT (.MILLI., .METRE.)
);
#429 = UNCERTAINTY_MEASURE_WITH_UNIT(LENGTH_MEASURE(1.E-6), #428, 'DISTANCE_ACCURACY_VALUE', '');
#430 = (
   NAMED_UNIT (*)
   SI_UNIT ($, .STERADIAN.)
   SOLID_ANGLE_UNIT ()
);
#431 = (
   NAMED_UNIT (*)
   PLANE_ANGLE_UNIT ()
   SI_UNIT ($, .RADIAN.)
);
#432 = SHAPE_REPRESENTATION('', (), #427);
#433 = PRODUCT_DEFINITION_SHAPE('', '', #434);
#434 = PRODUCT_DEFINITION('', '', #437, #441);
#435 = APPLICATION_CONTEXT('configuration controlled 3D designs of mechanical parts and assemblies');
#436 = APPLICATION_PROTOCOL_DEFINITION('International Standard', 'automotive_design', 2002, #435);
#437 = PRODUCT_DEFINITION_FORMATION_WITH_SPECIFIED_SOURCE('', '', #438, .NOT_KNOWN.);
#438 = PRODUCT('NONE', 'R217.14C095175AK26N 1630', '', (#439));
#439 = PRODUCT_CONTEXT('', #435, 'mechanical');
#440 = PRODUCT_RELATED_PRODUCT_CATEGORY('detail', '', (#438));
#441 = PRODUCT_DEFINITION_CONTEXT('part definition', #435, 'design');
#442 = SHAPE_DEFINITION_REPRESENTATION(#433, #432);
#443 = CONSTRUCTIVE_GEOMETRY_REPRESENTATION('supplemental geometry', (#414, #418, #422), #427);
#444 = CONSTRUCTIVE_GEOMETRY_REPRESENTATION_RELATIONSHIP('', '', #432, #443);
#445 = SHAPE_REPRESENTATION_RELATIONSHIP('', '', #432, #446);
#446 = SHAPE_REPRESENTATION('', (#383), #427);
#447 = SHAPE_REPRESENTATION_RELATIONSHIP('', '', #432, #448);
#448 = ADVANCED_BREP_SHAPE_REPRESENTATION('', (#1, #175), #427);
ENDSEC;
END-ISO-10303-21;
