ISO-10303-21;
HEADER;
FILE_DESCRIPTION(('STEP'), '1');
FILE_NAME('C:\\Users\\ds2002\\OneDrive - Sandvik\\HomeShare\\Documents\\Batchrepair\\CorSRT2\\NEW_MILTH_SLD\\Output\\MOD000000000000000020084661100000.stp', '2019-01-04T08:50:50', (''), (''), 'Express v3.0.0.0', 'Express Tool', 'Unknown');
FILE_SCHEMA(('AUTOMOTIVE_DESIGN'));
ENDSEC;

DATA;
#1 = MANIFOLD_SOLID_BREP('NOCUT', #2);
#2 = CLOSED_SHELL('', (#3, #50, #59, #98, #115, #135));
#3 = ADVANCED_FACE('', (#4), #31, .T.);
#4 = FACE_OUTER_BOUND('', #5, .T.);
#5 = EDGE_LOOP('', (#6, #16, #23, #24));
#6 = ORIENTED_EDGE('', *, *, #7, .T.);
#7 = EDGE_CURVE('', #8, #10, #12, .T.);
#8 = VERTEX_POINT('', #9);
#9 = CARTESIAN_POINT('', (-4., 2.69422295812418E-16, -0.399999999999999));
#10 = VERTEX_POINT('', #11);
#11 = CARTESIAN_POINT('', (-3.6, 2.20436423846524E-16, 0.));
#12 = LINE('', #13, #14);
#13 = CARTESIAN_POINT('', (-4., 2.69422295812418E-16, -0.399999999999999));
#14 = VECTOR('', #15, 0.565685424949237);
#15 = DIRECTION('', (0.4, -4.8985871965894E-17, 0.399999999999999));
#16 = ORIENTED_EDGE('', *, *, #17, .T.);
#17 = EDGE_CURVE('', #10, #10, #18, .T.);
#18 = CIRCLE('', #19, 3.6);
#19 = AXIS2_PLACEMENT_3D('', #20, #21, #22);
#20 = CARTESIAN_POINT('', (-5.55111512312578E-16, -1.11022302462516E-16, -6.16297582203915E-33));
#21 = DIRECTION('', (3.9258382192089E-33, 6.12323399573677E-17, -1.));
#22 = DIRECTION('', (-1., 9.20718684191777E-17, 1.71193772834421E-33));
#23 = ORIENTED_EDGE('', *, *, #7, .F.);
#24 = ORIENTED_EDGE('', *, *, #25, .F.);
#25 = EDGE_CURVE('', #8, #8, #26, .T.);
#26 = CIRCLE('', #27, 4.);
#27 = AXIS2_PLACEMENT_3D('', #28, #29, #30);
#28 = CARTESIAN_POINT('', (5.55111512312578E-17, 1.11022302462516E-16, -0.399999999999999));
#29 = DIRECTION('', (-1.38777878078145E-17, 1.39615984421495E-16, -1.));
#30 = DIRECTION('', (-1., 3.95999983374756E-17, 1.38777878078145E-17));
#31 = (
   BOUNDED_SURFACE ()
   B_SPLINE_SURFACE (1, 2, ((#32, #33, #34, #35, #36, #37, #38, #39, #40), (#41, #42, #43, #44, #45, #46, #47, #48, #49)), .UNSPECIFIED., .F., .T., .U.)
   B_SPLINE_SURFACE_WITH_KNOTS ((2, 2), (3, 2, 2, 2, 3), (0., 1.), (0., 0.25, 0.5, 0.75, 1.), .UNSPECIFIED.)
   GEOMETRIC_REPRESENTATION_ITEM ()
   RATIONAL_B_SPLINE_SURFACE (((1., 0.707106781186548, 1., 0.707106781186548, 1., 0.707106781186548, 1., 0.707106781186548, 1.), (1., 0.707106781186548, 1., 0.707106781186548, 1., 0.707106781186548, 1., 0.707106781186548, 1.)))
   REPRESENTATION_ITEM ('')
   SURFACE ()
);
#32 = CARTESIAN_POINT('', (-4., -2.04953155772919E-15, -0.399999999999999));
#33 = CARTESIAN_POINT('', (-4., 4., -0.400000000000022));
#34 = CARTESIAN_POINT('', (3.28440978118275E-16, 4., -0.400000000000022));
#35 = CARTESIAN_POINT('', (4., 4., -0.400000000000022));
#36 = CARTESIAN_POINT('', (4., -2.78968024081262E-15, -0.399999999999999));
#37 = CARTESIAN_POINT('', (4., -4., -0.399999999999976));
#38 = CARTESIAN_POINT('', (7.81510146937783E-17, -4., -0.399999999999976));
#39 = CARTESIAN_POINT('', (-4., -4., -0.399999999999976));
#40 = CARTESIAN_POINT('', (-4., -2.04953155772919E-15, -0.399999999999999));
#41 = CARTESIAN_POINT('', (-3.6, 2.20436423846524E-16, 0.));
#42 = CARTESIAN_POINT('', (-3.6, 3.6, -2.09832151654155E-14));
#43 = CARTESIAN_POINT('', (2.91433543964104E-16, 3.6, -2.09832151654155E-14));
#44 = CARTESIAN_POINT('', (3.6, 3.6, -2.09832151654155E-14));
#45 = CARTESIAN_POINT('', (3.6, -4.45697390928571E-16, -2.60668058374687E-30));
#46 = CARTESIAN_POINT('', (3.6, -3.6, 2.09832151654155E-14));
#47 = CARTESIAN_POINT('', (6.61725768820564E-17, -3.6, 2.09832151654155E-14));
#48 = CARTESIAN_POINT('', (-3.6, -3.6, 2.09832151654155E-14));
#49 = CARTESIAN_POINT('', (-3.6, 2.20436423846524E-16, 0.));
#50 = ADVANCED_FACE('', (#51), #54, .T.);
#51 = FACE_OUTER_BOUND('', #52, .T.);
#52 = EDGE_LOOP('', (#53));
#53 = ORIENTED_EDGE('', *, *, #17, .F.);
#54 = B_SPLINE_SURFACE_WITH_KNOTS('', 1, 1, ((#55, #56), (#57, #58)), .UNSPECIFIED., .F., .F., .U., (2, 2), (2, 2), (1.99928570699746, 9.20128570699746), (1.99928570699746, 9.20128570699746), .UNSPECIFIED.);
#55 = CARTESIAN_POINT('', (3.601, -3.601, -2.2049765618648E-16));
#56 = CARTESIAN_POINT('', (-3.601, -3.601, -2.2049765618648E-16));
#57 = CARTESIAN_POINT('', (3.601, 3.601, 2.20497656186482E-16));
#58 = CARTESIAN_POINT('', (-3.601, 3.601, 2.20497656186482E-16));
#59 = ADVANCED_FACE('', (#60), #79, .T.);
#60 = FACE_OUTER_BOUND('', #61, .T.);
#61 = EDGE_LOOP('', (#62, #70, #77, #78));
#62 = ORIENTED_EDGE('', *, *, #63, .F.);
#63 = EDGE_CURVE('', #64, #8, #66, .T.);
#64 = VERTEX_POINT('', #65);
#65 = CARTESIAN_POINT('', (-4., 3.12284933782575E-15, -47.));
#66 = LINE('', #67, #68);
#67 = CARTESIAN_POINT('', (-4., 3.12284933782575E-15, -47.));
#68 = VECTOR('', #69, 46.6);
#69 = DIRECTION('', (0., -2.85342704201333E-15, 46.6));
#70 = ORIENTED_EDGE('', *, *, #71, .F.);
#71 = EDGE_CURVE('', #64, #64, #72, .T.);
#72 = CIRCLE('', #73, 4.);
#73 = AXIS2_PLACEMENT_3D('', #74, #75, #76);
#74 = CARTESIAN_POINT('', (4.16333634234434E-17, 2.88657986402541E-15, -47.));
#75 = DIRECTION('', (0., 0., -1.));
#76 = DIRECTION('', (-1., 5.90673684500859E-17, 0.));
#77 = ORIENTED_EDGE('', *, *, #63, .T.);
#78 = ORIENTED_EDGE('', *, *, #25, .T.);
#79 = (
   BOUNDED_SURFACE ()
   B_SPLINE_SURFACE (1, 2, ((#80, #81, #82, #83, #84, #85, #86, #87, #88), (#89, #90, #91, #92, #93, #94, #95, #96, #97)), .UNSPECIFIED., .F., .T., .U.)
   B_SPLINE_SURFACE_WITH_KNOTS ((2, 2), (3, 2, 2, 2, 3), (-0.308988764044944, 1.), (0., 0.25, 0.5, 0.75, 1.), .UNSPECIFIED.)
   GEOMETRIC_REPRESENTATION_ITEM ()
   RATIONAL_B_SPLINE_SURFACE (((1., 0.707106781186548, 1., 0.707106781186548, 1., 0.707106781186548, 1., 0.707106781186548, 1.), (1., 0.707106781186548, 1., 0.707106781186548, 1., 0.707106781186548, 1., 0.707106781186548, 1.)))
   REPRESENTATION_ITEM ('')
   SURFACE ()
);
#80 = CARTESIAN_POINT('', (-4., 3.04497985737531E-15, -47.));
#81 = CARTESIAN_POINT('', (-4., 4., -47.));
#82 = CARTESIAN_POINT('', (3.70488226261534E-15, 4., -47.));
#83 = CARTESIAN_POINT('', (4., 4., -47.));
#84 = CARTESIAN_POINT('', (4., -5.56719693391086E-16, -47.));
#85 = CARTESIAN_POINT('', (4., -4., -47.));
#86 = CARTESIAN_POINT('', (5.93041431507889E-16, -4., -47.));
#87 = CARTESIAN_POINT('', (-4., -4., -47.));
#88 = CARTESIAN_POINT('', (-4., 3.04497985737531E-15, -47.));
#89 = CARTESIAN_POINT('', (-4., 2.69422295812417E-16, -0.399999999999999));
#90 = CARTESIAN_POINT('', (-4., 4., -0.399999999999999));
#91 = CARTESIAN_POINT('', (2.41147243892703E-15, 4., -0.399999999999999));
#92 = CARTESIAN_POINT('', (4., 4., -0.399999999999999));
#93 = CARTESIAN_POINT('', (4., -3.33227725495398E-15, -0.399999999999999));
#94 = CARTESIAN_POINT('', (4., -4., -0.399999999999999));
#95 = CARTESIAN_POINT('', (-7.0036839218042E-16, -4., -0.399999999999999));
#96 = CARTESIAN_POINT('', (-4., -4., -0.399999999999999));
#97 = CARTESIAN_POINT('', (-4., 2.69422295812417E-16, -0.399999999999999));
#98 = ADVANCED_FACE('', (#99), #110, .T.);
#99 = FACE_OUTER_BOUND('', #100, .T.);
#100 = EDGE_LOOP('', (#101));
#101 = ORIENTED_EDGE('', *, *, #102, .T.);
#102 = EDGE_CURVE('', #103, #103, #105, .T.);
#103 = VERTEX_POINT('', #104);
#104 = CARTESIAN_POINT('', (-3.133975, 4.04953803993205E-15, -63.));
#105 = CIRCLE('', #106, 3.133975);
#106 = AXIS2_PLACEMENT_3D('', #107, #108, #109);
#107 = CARTESIAN_POINT('', (2.77555756156289E-17, 4.66293670342566E-15, -63.));
#108 = DIRECTION('', (0., 0., -1.));
#109 = DIRECTION('', (-1., -1.95725448828917E-16, 0.));
#110 = B_SPLINE_SURFACE_WITH_KNOTS('', 1, 1, ((#111, #112), (#113, #114)), .UNSPECIFIED., .F., .F., .U., (2, 2), (2, 2), (2.2319654692059, 8.5019154692059), (2.2319654692059, 8.5019154692059), .UNSPECIFIED.);
#111 = CARTESIAN_POINT('', (3.134975, -3.134975, -63.));
#112 = CARTESIAN_POINT('', (3.134975, 3.13497500000001, -63.));
#113 = CARTESIAN_POINT('', (-3.134975, -3.13497499999999, -63.));
#114 = CARTESIAN_POINT('', (-3.134975, 3.13497500000001, -63.));
#115 = ADVANCED_FACE('', (#116, #119), #130, .T.);
#116 = FACE_OUTER_BOUND('', #117, .T.);
#117 = EDGE_LOOP('', (#118));
#118 = ORIENTED_EDGE('', *, *, #71, .T.);
#119 = FACE_BOUND('', #120, .T.);
#120 = EDGE_LOOP('', (#121));
#121 = ORIENTED_EDGE('', *, *, #122, .F.);
#122 = EDGE_CURVE('', #123, #123, #125, .T.);
#123 = VERTEX_POINT('', #124);
#124 = CARTESIAN_POINT('', (-3.133975, 3.06982060061417E-15, -47.));
#125 = CIRCLE('', #126, 3.133975);
#126 = AXIS2_PLACEMENT_3D('', #127, #128, #129);
#127 = CARTESIAN_POINT('', (-2.4980018054066E-16, 2.44249065417534E-15, -47.));
#128 = DIRECTION('', (0., 0., -1.));
#129 = DIRECTION('', (-1., 2.00170692631188E-16, 0.));
#130 = B_SPLINE_SURFACE_WITH_KNOTS('', 1, 1, ((#131, #132), (#133, #134)), .UNSPECIFIED., .F., .F., .U., (2, 2), (2, 2), (2.22153967444162, 10.2235396744416), (2.22153967444162, 10.2235396744416), .UNSPECIFIED.);
#131 = CARTESIAN_POINT('', (4.001, -4.001, -47.));
#132 = CARTESIAN_POINT('', (4.001, 4.001, -47.));
#133 = CARTESIAN_POINT('', (-4.001, -4.001, -47.));
#134 = CARTESIAN_POINT('', (-4.001, 4.001, -47.));
#135 = ADVANCED_FACE('', (#136), #147, .T.);
#136 = FACE_OUTER_BOUND('', #137, .T.);
#137 = EDGE_LOOP('', (#138, #144, #145, #146));
#138 = ORIENTED_EDGE('', *, *, #139, .T.);
#139 = EDGE_CURVE('', #103, #123, #140, .T.);
#140 = LINE('', #141, #142);
#141 = CARTESIAN_POINT('', (-3.133975, 4.04953803993205E-15, -63.));
#142 = VECTOR('', #143, 16.);
#143 = DIRECTION('', (0., -9.7971743931788E-16, 16.));
#144 = ORIENTED_EDGE('', *, *, #122, .T.);
#145 = ORIENTED_EDGE('', *, *, #139, .F.);
#146 = ORIENTED_EDGE('', *, *, #102, .F.);
#147 = (
   BOUNDED_SURFACE ()
   B_SPLINE_SURFACE (1, 2, ((#148, #149, #150, #151, #152, #153, #154, #155, #156), (#157, #158, #159, #160, #161, #162, #163, #164, #165)), .UNSPECIFIED., .F., .T., .U.)
   B_SPLINE_SURFACE_WITH_KNOTS ((2, 2), (3, 2, 2, 2, 3), (0., 1.), (0., 4.92283641826703, 9.84567283653405, 14.7685092548011, 19.6913456730681), .UNSPECIFIED.)
   GEOMETRIC_REPRESENTATION_ITEM ()
   RATIONAL_B_SPLINE_SURFACE (((1., 0.707106781186548, 1., 0.707106781186548, 1., 0.707106781186548, 1., 0.707106781186548, 1.), (1., 0.707106781186548, 1., 0.707106781186548, 1., 0.707106781186548, 1., 0.707106781186548, 1.)))
   REPRESENTATION_ITEM ('')
   SURFACE ()
);
#148 = CARTESIAN_POINT('', (-3.133975, 4.06902132277681E-15, -63.));
#149 = CARTESIAN_POINT('', (-3.133975, 3.133975, -63.));
#150 = CARTESIAN_POINT('', (2.40607519253059E-15, 3.133975, -63.));
#151 = CARTESIAN_POINT('', (3.133975, 3.133975, -63.));
#152 = CARTESIAN_POINT('', (3.133975, -1.02068481844065E-15, -63.));
#153 = CARTESIAN_POINT('', (3.133975, -3.133975, -63.));
#154 = CARTESIAN_POINT('', (-2.29982970345109E-15, -3.133975, -63.));
#155 = CARTESIAN_POINT('', (-3.133975, -3.133975, -63.));
#156 = CARTESIAN_POINT('', (-3.133975, 4.06902132277681E-15, -63.));
#157 = CARTESIAN_POINT('', (-3.133975, 3.06982060061417E-15, -47.));
#158 = CARTESIAN_POINT('', (-3.133975, 3.133975, -47.));
#159 = CARTESIAN_POINT('', (2.40607519253059E-15, 3.133975, -47.));
#160 = CARTESIAN_POINT('', (3.133975, 3.133975, -47.));
#161 = CARTESIAN_POINT('', (3.133975, -2.01988554060329E-15, -47.));
#162 = CARTESIAN_POINT('', (3.133975, -3.133975, -47.));
#163 = CARTESIAN_POINT('', (-2.29982970345109E-15, -3.133975, -47.));
#164 = CARTESIAN_POINT('', (-3.133975, -3.133975, -47.));
#165 = CARTESIAN_POINT('', (-3.133975, 3.06982060061417E-15, -47.));
#166 = DRAUGHTING_MODEL('', (#174, #341, #388, #393, #398, #403, #408, #413), #427);
#167 = PRESENTATION_STYLE_ASSIGNMENT((#168));
#168 = SURFACE_STYLE_USAGE(.POSITIVE., #169);
#169 = SURFACE_SIDE_STYLE('', (#170));
#170 = SURFACE_STYLE_FILL_AREA(#171);
#171 = FILL_AREA_STYLE('', (#172));
#172 = FILL_AREA_STYLE_COLOUR('', #173);
#173 = COLOUR_RGB('', 0.50196078431373, 0.50196078431373, 0.50196078431373);
#174 = STYLED_ITEM('', (#167), #1);
#175 = MANIFOLD_SOLID_BREP('CUT', #176);
#176 = CLOSED_SHELL('', (#177, #205, #244, #264, #303));
#177 = ADVANCED_FACE('', (#178, #189), #200, .T.);
#178 = FACE_OUTER_BOUND('', #179, .T.);
#179 = EDGE_LOOP('', (#180));
#180 = ORIENTED_EDGE('', *, *, #181, .T.);
#181 = EDGE_CURVE('', #182, #182, #184, .T.);
#182 = VERTEX_POINT('', #183);
#183 = CARTESIAN_POINT('', (-3.45, 4.06888899016708E-15, -63.));
#184 = CIRCLE('', #185, 3.45);
#185 = AXIS2_PLACEMENT_3D('', #186, #187, #188);
#186 = CARTESIAN_POINT('', (3.46944695195361E-16, 3.66373598126302E-15, -63.));
#187 = DIRECTION('', (0., 0., -1.));
#188 = DIRECTION('', (-1., 1.17435654754801E-16, 0.));
#189 = FACE_BOUND('', #190, .T.);
#190 = EDGE_LOOP('', (#191));
#191 = ORIENTED_EDGE('', *, *, #192, .F.);
#192 = EDGE_CURVE('', #193, #193, #195, .T.);
#193 = VERTEX_POINT('', #194);
#194 = CARTESIAN_POINT('', (-3.133975, 4.04953803993205E-15, -63.));
#195 = CIRCLE('', #196, 3.133975);
#196 = AXIS2_PLACEMENT_3D('', #197, #198, #199);
#197 = CARTESIAN_POINT('', (2.77555756156289E-17, 4.66293670342566E-15, -63.));
#198 = DIRECTION('', (0., 0., -1.));
#199 = DIRECTION('', (-1., -1.95725448828917E-16, 0.));
#200 = B_SPLINE_SURFACE_WITH_KNOTS('', 1, 1, ((#201, #202), (#203, #204)), .UNSPECIFIED., .F., .F., .U., (2, 2), (2, 2), (1.9159404692059, 8.8179404692059), (1.91594046920589, 8.81794046920589), .UNSPECIFIED.);
#201 = CARTESIAN_POINT('', (3.451, -3.451, -63.));
#202 = CARTESIAN_POINT('', (3.451, 3.451, -63.));
#203 = CARTESIAN_POINT('', (-3.451, -3.451, -63.));
#204 = CARTESIAN_POINT('', (-3.451, 3.45100000000001, -63.));
#205 = ADVANCED_FACE('', (#206), #225, .T.);
#206 = FACE_OUTER_BOUND('', #207, .T.);
#207 = EDGE_LOOP('', (#208, #216, #217, #218));
#208 = ORIENTED_EDGE('', *, *, #209, .F.);
#209 = EDGE_CURVE('', #193, #210, #212, .T.);
#210 = VERTEX_POINT('', #211);
#211 = CARTESIAN_POINT('', (-3.133975, 3.06982060061417E-15, -47.));
#212 = LINE('', #213, #214);
#213 = CARTESIAN_POINT('', (-3.133975, 4.04953803993205E-15, -63.));
#214 = VECTOR('', #215, 16.);
#215 = DIRECTION('', (0., -9.7971743931788E-16, 16.));
#216 = ORIENTED_EDGE('', *, *, #192, .T.);
#217 = ORIENTED_EDGE('', *, *, #209, .T.);
#218 = ORIENTED_EDGE('', *, *, #219, .F.);
#219 = EDGE_CURVE('', #210, #210, #220, .T.);
#220 = CIRCLE('', #221, 3.133975);
#221 = AXIS2_PLACEMENT_3D('', #222, #223, #224);
#222 = CARTESIAN_POINT('', (-2.4980018054066E-16, 2.44249065417534E-15, -47.));
#223 = DIRECTION('', (0., 0., -1.));
#224 = DIRECTION('', (-1., 2.00170692631188E-16, 0.));
#225 = (
   BOUNDED_SURFACE ()
   B_SPLINE_SURFACE (2, 1, ((#226, #227), (#228, #229), (#230, #231), (#232, #233), (#234, #235), (#236, #237), (#238, #239), (#240, #241), (#242, #243)), .UNSPECIFIED., .T., .F., .U.)
   B_SPLINE_SURFACE_WITH_KNOTS ((3, 2, 2, 2, 3), (2, 2), (0., 4.92283641826703, 9.84567283653405, 14.7685092548011, 19.6913456730681), (0., 1.), .UNSPECIFIED.)
   GEOMETRIC_REPRESENTATION_ITEM ()
   RATIONAL_B_SPLINE_SURFACE (((1., 1.), (0.707106781186548, 0.707106781186548), (1., 1.), (0.707106781186548, 0.707106781186548), (1., 1.), (0.707106781186548, 0.707106781186548), (1., 1.), (0.707106781186548, 0.707106781186548), (1., 1.)))
   REPRESENTATION_ITEM ('')
   SURFACE ()
);
#226 = CARTESIAN_POINT('', (-3.133975, 4.06902132277681E-15, -63.));
#227 = CARTESIAN_POINT('', (-3.133975, 3.06982060061417E-15, -47.));
#228 = CARTESIAN_POINT('', (-3.133975, 3.133975, -63.));
#229 = CARTESIAN_POINT('', (-3.133975, 3.133975, -47.));
#230 = CARTESIAN_POINT('', (2.40607519253059E-15, 3.133975, -63.));
#231 = CARTESIAN_POINT('', (2.40607519253059E-15, 3.133975, -47.));
#232 = CARTESIAN_POINT('', (3.133975, 3.133975, -63.));
#233 = CARTESIAN_POINT('', (3.133975, 3.133975, -47.));
#234 = CARTESIAN_POINT('', (3.133975, -1.02068481844065E-15, -63.));
#235 = CARTESIAN_POINT('', (3.133975, -2.01988554060329E-15, -47.));
#236 = CARTESIAN_POINT('', (3.133975, -3.133975, -63.));
#237 = CARTESIAN_POINT('', (3.133975, -3.133975, -47.));
#238 = CARTESIAN_POINT('', (-2.29982970345109E-15, -3.133975, -63.));
#239 = CARTESIAN_POINT('', (-2.29982970345109E-15, -3.133975, -47.));
#240 = CARTESIAN_POINT('', (-3.133975, -3.133975, -63.));
#241 = CARTESIAN_POINT('', (-3.133975, -3.133975, -47.));
#242 = CARTESIAN_POINT('', (-3.133975, 4.06902132277681E-15, -63.));
#243 = CARTESIAN_POINT('', (-3.133975, 3.06982060061417E-15, -47.));
#244 = ADVANCED_FACE('', (#245, #256), #259, .T.);
#245 = FACE_OUTER_BOUND('', #246, .T.);
#246 = EDGE_LOOP('', (#247));
#247 = ORIENTED_EDGE('', *, *, #248, .F.);
#248 = EDGE_CURVE('', #249, #249, #251, .T.);
#249 = VERTEX_POINT('', #250);
#250 = CARTESIAN_POINT('', (-4., 3.12284933782575E-15, -47.));
#251 = CIRCLE('', #252, 4.);
#252 = AXIS2_PLACEMENT_3D('', #253, #254, #255);
#253 = CARTESIAN_POINT('', (4.16333634234434E-17, 2.88657986402541E-15, -47.));
#254 = DIRECTION('', (0., 0., -1.));
#255 = DIRECTION('', (-1., 5.90673684500859E-17, 0.));
#256 = FACE_BOUND('', #257, .T.);
#257 = EDGE_LOOP('', (#258));
#258 = ORIENTED_EDGE('', *, *, #219, .T.);
#259 = B_SPLINE_SURFACE_WITH_KNOTS('', 1, 1, ((#260, #261), (#262, #263)), .UNSPECIFIED., .F., .F., .U., (2, 2), (2, 2), (2.22153967444162, 10.2235396744416), (2.22153967444162, 10.2235396744416), .UNSPECIFIED.);
#260 = CARTESIAN_POINT('', (4.001, -4.001, -47.));
#261 = CARTESIAN_POINT('', (-4.001, -4.001, -47.));
#262 = CARTESIAN_POINT('', (4.001, 4.001, -47.));
#263 = CARTESIAN_POINT('', (-4.001, 4.001, -47.));
#264 = ADVANCED_FACE('', (#265), #284, .T.);
#265 = FACE_OUTER_BOUND('', #266, .T.);
#266 = EDGE_LOOP('', (#267, #275, #276, #277));
#267 = ORIENTED_EDGE('', *, *, #268, .F.);
#268 = EDGE_CURVE('', #249, #269, #271, .T.);
#269 = VERTEX_POINT('', #270);
#270 = CARTESIAN_POINT('', (-4., 4.06888899016708E-15, -62.45));
#271 = LINE('', #272, #273);
#272 = CARTESIAN_POINT('', (-4., 3.12284933782575E-15, -47.));
#273 = VECTOR('', #274, 15.45);
#274 = DIRECTION('', (0., 9.4603965234133E-16, -15.45));
#275 = ORIENTED_EDGE('', *, *, #248, .T.);
#276 = ORIENTED_EDGE('', *, *, #268, .T.);
#277 = ORIENTED_EDGE('', *, *, #278, .F.);
#278 = EDGE_CURVE('', #269, #269, #279, .T.);
#279 = CIRCLE('', #280, 4.);
#280 = AXIS2_PLACEMENT_3D('', #281, #282, #283);
#281 = CARTESIAN_POINT('', (8.32667268468867E-17, 4.10782519111308E-15, -62.45));
#282 = DIRECTION('', (0., 0., -1.));
#283 = DIRECTION('', (-1., -9.73405023649944E-18, 0.));
#284 = (
   BOUNDED_SURFACE ()
   B_SPLINE_SURFACE (2, 1, ((#285, #286), (#287, #288), (#289, #290), (#291, #292), (#293, #294), (#295, #296), (#297, #298), (#299, #300), (#301, #302)), .UNSPECIFIED., .T., .F., .U.)
   B_SPLINE_SURFACE_WITH_KNOTS ((3, 2, 2, 2, 3), (2, 2), (0., 6.28318530717958, 12.5663706143592, 18.8495559215387, 25.1327412287183), (0., 1.), .UNSPECIFIED.)
   GEOMETRIC_REPRESENTATION_ITEM ()
   RATIONAL_B_SPLINE_SURFACE (((1., 1.), (0.707106781186548, 0.707106781186548), (1., 1.), (0.707106781186548, 0.707106781186548), (1., 1.), (0.707106781186548, 0.707106781186548), (1., 1.), (0.707106781186548, 0.707106781186548), (1., 1.)))
   REPRESENTATION_ITEM ('')
   SURFACE ()
);
#285 = CARTESIAN_POINT('', (-4., 3.12284933782575E-15, -47.));
#286 = CARTESIAN_POINT('', (-4., 4.12205005998839E-15, -62.45));
#287 = CARTESIAN_POINT('', (-4., 4., -47.));
#288 = CARTESIAN_POINT('', (-4., 4., -62.45));
#289 = CARTESIAN_POINT('', (4.07140972946832E-15, 4., -47.));
#290 = CARTESIAN_POINT('', (4.07140972946832E-15, 4., -62.45));
#291 = CARTESIAN_POINT('', (4., 4., -47.));
#292 = CARTESIAN_POINT('', (4., 4., -62.45));
#293 = CARTESIAN_POINT('', (4., -2.63299061816681E-15, -47.));
#294 = CARTESIAN_POINT('', (4., -1.63378989600417E-15, -62.45));
#295 = CARTESIAN_POINT('', (4., -4., -47.));
#296 = CARTESIAN_POINT('', (4., -4., -62.45));
#297 = CARTESIAN_POINT('', (-1.19457150686529E-15, -4., -47.));
#298 = CARTESIAN_POINT('', (-1.19457150686529E-15, -4., -62.45));
#299 = CARTESIAN_POINT('', (-4., -4., -47.));
#300 = CARTESIAN_POINT('', (-4., -4., -62.45));
#301 = CARTESIAN_POINT('', (-4., 3.12284933782575E-15, -47.));
#302 = CARTESIAN_POINT('', (-4., 4.12205005998839E-15, -62.45));
#303 = ADVANCED_FACE('', (#304), #315, .T.);
#304 = FACE_OUTER_BOUND('', #305, .T.);
#305 = EDGE_LOOP('', (#306, #312, #313, #314));
#306 = ORIENTED_EDGE('', *, *, #307, .F.);
#307 = EDGE_CURVE('', #269, #182, #308, .T.);
#308 = LINE('', #309, #310);
#309 = CARTESIAN_POINT('', (-4., 4.06888899016708E-15, -62.45));
#310 = VECTOR('', #311, 0.7778174593052);
#311 = DIRECTION('', (0.55, 0., -0.549999999999997));
#312 = ORIENTED_EDGE('', *, *, #278, .T.);
#313 = ORIENTED_EDGE('', *, *, #307, .T.);
#314 = ORIENTED_EDGE('', *, *, #181, .F.);
#315 = (
   BOUNDED_SURFACE ()
   B_SPLINE_SURFACE (2, 1, ((#316, #317), (#318, #319), (#320, #321), (#322, #323), (#324, #325), (#326, #327), (#328, #329), (#330, #331), (#332, #333)), .UNSPECIFIED., .T., .F., .U.)
   B_SPLINE_SURFACE_WITH_KNOTS ((3, 2, 2, 2, 3), (2, 2), (0., 0.25, 0.5, 0.75, 1.), (0., 1.), .UNSPECIFIED.)
   GEOMETRIC_REPRESENTATION_ITEM ()
   RATIONAL_B_SPLINE_SURFACE (((1., 1.), (0.707106781186548, 0.707106781186548), (1., 1.), (0.707106781186548, 0.707106781186548), (1., 1.), (0.707106781186548, 0.707106781186548), (1., 1.), (0.707106781186548, 0.707106781186548), (1., 1.)))
   REPRESENTATION_ITEM ('')
   SURFACE ()
);
#316 = CARTESIAN_POINT('', (-4., 4.06888899016708E-15, -62.45));
#317 = CARTESIAN_POINT('', (-3.45, 4.95548224359337E-15, -63.));
#318 = CARTESIAN_POINT('', (-4., 4., -62.45));
#319 = CARTESIAN_POINT('', (-3.45, 3.45000000000001, -63.));
#320 = CARTESIAN_POINT('', (1.54800242985604E-15, 4., -62.45));
#321 = CARTESIAN_POINT('', (1.35805044563373E-15, 3.45, -63.));
#322 = CARTESIAN_POINT('', (4., 4., -62.45));
#323 = CARTESIAN_POINT('', (3.45, 3.45, -63.));
#324 = CARTESIAN_POINT('', (4., 1.30595103784255E-15, -62.45));
#325 = CARTESIAN_POINT('', (3.45, 2.57244825971347E-15, -63.));
#326 = CARTESIAN_POINT('', (4., -4., -62.45));
#327 = CARTESIAN_POINT('', (3.45, -3.45, -63.));
#328 = CARTESIAN_POINT('', (-7.2507680280955E-16, -4., -62.45));
#329 = CARTESIAN_POINT('', (-6.02480392540343E-16, -3.45, -63.));
#330 = CARTESIAN_POINT('', (-4., -4., -62.45));
#331 = CARTESIAN_POINT('', (-3.45, -3.45, -63.));
#332 = CARTESIAN_POINT('', (-4., 4.06888899016708E-15, -62.45));
#333 = CARTESIAN_POINT('', (-3.45, 4.95548224359337E-15, -63.));
#334 = PRESENTATION_STYLE_ASSIGNMENT((#335));
#335 = SURFACE_STYLE_USAGE(.POSITIVE., #336);
#336 = SURFACE_SIDE_STYLE('', (#337));
#337 = SURFACE_STYLE_FILL_AREA(#338);
#338 = FILL_AREA_STYLE('', (#339));
#339 = FILL_AREA_STYLE_COLOUR('', #340);
#340 = COLOUR_RGB('', 0.8, 0.8, 0.8);
#341 = STYLED_ITEM('', (#334), #175);
#342 = TRIMMED_CURVE('cutting part line', #343, (#347), (#348), .T., .CARTESIAN.);
#343 = LINE('', #344, #345);
#344 = CARTESIAN_POINT('', (3.133975, -3.45362184584995E-15, -47.));
#345 = VECTOR('', #346, 0.866025);
#346 = DIRECTION('', (0.866025, -1.59086211634738E-16, 0.));
#347 = CARTESIAN_POINT('', (3.133975, -3.45362184584995E-15, -47.));
#348 = CARTESIAN_POINT('', (4., -3.61270805748469E-15, -47.));
#349 = TRIMMED_CURVE('cutting part line', #350, (#354), (#355), .T., .CARTESIAN.);
#350 = LINE('', #351, #352);
#351 = CARTESIAN_POINT('', (4., -3.61270805748469E-15, -47.));
#352 = VECTOR('', #353, 15.45);
#353 = DIRECTION('', (0., -9.4603965234133E-16, -15.45));
#354 = CARTESIAN_POINT('', (4., -3.61270805748469E-15, -47.));
#355 = CARTESIAN_POINT('', (4., -4.55874770982602E-15, -62.45));
#356 = TRIMMED_CURVE('cutting part line', #357, (#361), (#362), .T., .CARTESIAN.);
#357 = LINE('', #358, #359);
#358 = CARTESIAN_POINT('', (4., -4.55874770982602E-15, -62.45));
#359 = VECTOR('', #360, 0.7778174593052);
#360 = DIRECTION('', (-0.55, 6.73555739531046E-17, -0.549999999999997));
#361 = CARTESIAN_POINT('', (4., -4.55874770982602E-15, -62.45));
#362 = CARTESIAN_POINT('', (3.45, -4.49139213587292E-15, -63.));
#363 = TRIMMED_CURVE('cutting part line', #364, (#368), (#369), .T., .CARTESIAN.);
#364 = LINE('', #365, #366);
#365 = CARTESIAN_POINT('', (3.45, -4.49139213587292E-15, -63.));
#366 = VECTOR('', #367, 0.316025);
#367 = DIRECTION('', (-0.316025, 5.80528507050836E-17, 0.));
#368 = CARTESIAN_POINT('', (3.45, -4.49139213587292E-15, -63.));
#369 = CARTESIAN_POINT('', (3.133975, -4.43333928516783E-15, -63.));
#370 = TRIMMED_CURVE('cutting part line', #371, (#375), (#376), .T., .CARTESIAN.);
#371 = LINE('', #372, #373);
#372 = CARTESIAN_POINT('', (3.133975, -4.43333928516783E-15, -63.));
#373 = VECTOR('', #374, 16.);
#374 = DIRECTION('', (0., 9.7971743931788E-16, 16.));
#375 = CARTESIAN_POINT('', (3.133975, -4.43333928516783E-15, -63.));
#376 = CARTESIAN_POINT('', (3.133975, -3.45362184584995E-15, -47.));
#377 = COMPOSITE_CURVE('cutting part line', (#378, #379, #380, #381, #382), .U.);
#378 = COMPOSITE_CURVE_SEGMENT(.CONTINUOUS., .T., #342);
#379 = COMPOSITE_CURVE_SEGMENT(.CONTINUOUS., .T., #349);
#380 = COMPOSITE_CURVE_SEGMENT(.CONTINUOUS., .T., #356);
#381 = COMPOSITE_CURVE_SEGMENT(.CONTINUOUS., .T., #363);
#382 = COMPOSITE_CURVE_SEGMENT(.CONTINUOUS., .T., #370);
#383 = GEOMETRIC_SET('', (#377, #426));
#384 = PRESENTATION_STYLE_ASSIGNMENT((#385));
#385 = CURVE_STYLE('', #387, POSITIVE_LENGTH_MEASURE(1.E-6), #386);
#386 = COLOUR_RGB('', 0., 0., 1.);
#387 = DRAUGHTING_PRE_DEFINED_CURVE_FONT('continuous');
#388 = STYLED_ITEM('', (#384), #377);
#389 = PRESENTATION_STYLE_ASSIGNMENT((#390));
#390 = CURVE_STYLE('', #392, POSITIVE_LENGTH_MEASURE(1.E-6), #391);
#391 = COLOUR_RGB('', 0., 0., 1.);
#392 = DRAUGHTING_PRE_DEFINED_CURVE_FONT('continuous');
#393 = OVER_RIDING_STYLED_ITEM('', (#389), #342, #388);
#394 = PRESENTATION_STYLE_ASSIGNMENT((#395));
#395 = CURVE_STYLE('', #397, POSITIVE_LENGTH_MEASURE(1.E-6), #396);
#396 = COLOUR_RGB('', 0., 0., 1.);
#397 = DRAUGHTING_PRE_DEFINED_CURVE_FONT('continuous');
#398 = OVER_RIDING_STYLED_ITEM('', (#394), #349, #388);
#399 = PRESENTATION_STYLE_ASSIGNMENT((#400));
#400 = CURVE_STYLE('', #402, POSITIVE_LENGTH_MEASURE(1.E-6), #401);
#401 = COLOUR_RGB('', 0., 0., 1.);
#402 = DRAUGHTING_PRE_DEFINED_CURVE_FONT('continuous');
#403 = OVER_RIDING_STYLED_ITEM('', (#399), #356, #388);
#404 = PRESENTATION_STYLE_ASSIGNMENT((#405));
#405 = CURVE_STYLE('', #407, POSITIVE_LENGTH_MEASURE(1.E-6), #406);
#406 = COLOUR_RGB('', 0., 0., 1.);
#407 = DRAUGHTING_PRE_DEFINED_CURVE_FONT('continuous');
#408 = OVER_RIDING_STYLED_ITEM('', (#404), #363, #388);
#409 = PRESENTATION_STYLE_ASSIGNMENT((#410));
#410 = CURVE_STYLE('', #412, POSITIVE_LENGTH_MEASURE(1.E-6), #411);
#411 = COLOUR_RGB('', 0., 0., 1.);
#412 = DRAUGHTING_PRE_DEFINED_CURVE_FONT('continuous');
#413 = OVER_RIDING_STYLED_ITEM('', (#409), #370, #388);
#414 = AXIS2_PLACEMENT_3D('CIP', #415, #416, #417);
#415 = CARTESIAN_POINT('', (2.36212165769243E-31, 3.85763741731416E-15, -63.));
#416 = DIRECTION('', (-3.74939945665465E-33, -6.12323399573677E-17, 1.));
#417 = DIRECTION('', (1., -6.12323399573677E-17, 0.));
#418 = AXIS2_PLACEMENT_3D('MCS', #419, #420, #421);
#419 = CARTESIAN_POINT('', (1.34978380439567E-31, 2.20436423846524E-15, -36.));
#420 = DIRECTION('', (-3.74939945665465E-33, -6.12323399573677E-17, 1.));
#421 = DIRECTION('', (1., -6.12323399573677E-17, 0.));
#422 = AXIS2_PLACEMENT_3D('PCS', #423, #424, #425);
#423 = CARTESIAN_POINT('', (0., 0., 0.));
#424 = DIRECTION('', (0., 0., 1.));
#425 = DIRECTION('', (1., 0., 0.));
#426 = CARTESIAN_POINT('CRP', (4., 0., -63.));
#427 = (
   GEOMETRIC_REPRESENTATION_CONTEXT (3)
   GLOBAL_UNCERTAINTY_ASSIGNED_CONTEXT ((#429))
   GLOBAL_UNIT_ASSIGNED_CONTEXT ((#428, #430, #431))
   REPRESENTATION_CONTEXT ('', '3D')
);
#428 = (
   LENGTH_UNIT ()
   NAMED_UNIT (*)
   SI_UNIT (.MILLI., .METRE.)
);
#429 = UNCERTAINTY_MEASURE_WITH_UNIT(LENGTH_MEASURE(1.E-6), #428, 'DISTANCE_ACCURACY_VALUE', '');
#430 = (
   NAMED_UNIT (*)
   SI_UNIT ($, .STERADIAN.)
   SOLID_ANGLE_UNIT ()
);
#431 = (
   NAMED_UNIT (*)
   PLANE_ANGLE_UNIT ()
   SI_UNIT ($, .RADIAN.)
);
#432 = SHAPE_REPRESENTATION('', (), #427);
#433 = PRODUCT_DEFINITION_SHAPE('', '', #434);
#434 = PRODUCT_DEFINITION('', '', #437, #441);
#435 = APPLICATION_CONTEXT('configuration controlled 3D designs of mechanical parts and assemblies');
#436 = APPLICATION_PROTOCOL_DEFINITION('International Standard', 'automotive_design', 2002, #435);
#437 = PRODUCT_DEFINITION_FORMATION_WITH_SPECIFIED_SOURCE('', '', #438, .NOT_KNOWN.);
#438 = PRODUCT('NONE', 'R217.14C080100AC16N 1630', '', (#439));
#439 = PRODUCT_CONTEXT('', #435, 'mechanical');
#440 = PRODUCT_RELATED_PRODUCT_CATEGORY('detail', '', (#438));
#441 = PRODUCT_DEFINITION_CONTEXT('part definition', #435, 'design');
#442 = SHAPE_DEFINITION_REPRESENTATION(#433, #432);
#443 = CONSTRUCTIVE_GEOMETRY_REPRESENTATION('supplemental geometry', (#414, #418, #422), #427);
#444 = CONSTRUCTIVE_GEOMETRY_REPRESENTATION_RELATIONSHIP('', '', #432, #443);
#445 = SHAPE_REPRESENTATION_RELATIONSHIP('', '', #432, #446);
#446 = SHAPE_REPRESENTATION('', (#383), #427);
#447 = SHAPE_REPRESENTATION_RELATIONSHIP('', '', #432, #448);
#448 = ADVANCED_BREP_SHAPE_REPRESENTATION('', (#1, #175), #427);
ENDSEC;
END-ISO-10303-21;
