ISO-10303-21;
HEADER;
FILE_DESCRIPTION(('STEP'), '1');
FILE_NAME('C:\\Users\\ds2002\\OneDrive - Sandvik\\HomeShare\\Documents\\Batchrepair\\CorSRT2\\NEW_MILTH_SLD\\Output\\MOD000000000000000020084661000000.stp', '2019-01-04T08:50:46', (''), (''), 'Express v3.0.0.0', 'Express Tool', 'Unknown');
FILE_SCHEMA(('AUTOMOTIVE_DESIGN'));
ENDSEC;

DATA;
#1 = MANIFOLD_SOLID_BREP('NOCUT', #2);
#2 = CLOSED_SHELL('', (#3, #31, #78, #87, #118, #135));
#3 = ADVANCED_FACE('', (#4, #15), #26, .T.);
#4 = FACE_OUTER_BOUND('', #5, .T.);
#5 = EDGE_LOOP('', (#6));
#6 = ORIENTED_EDGE('', *, *, #7, .T.);
#7 = EDGE_CURVE('', #8, #8, #10, .T.);
#8 = VERTEX_POINT('', #9);
#9 = CARTESIAN_POINT('', (-4., 3.36777869765522E-15, -51.));
#10 = CIRCLE('', #11, 4.);
#11 = AXIS2_PLACEMENT_3D('', #12, #13, #14);
#12 = CARTESIAN_POINT('', (2.91433543964104E-16, 2.1094237467878E-15, -51.));
#13 = DIRECTION('', (1.90197124117597E-30, 6.0458974309749E-15, -1.));
#14 = DIRECTION('', (-1., 3.14588737716856E-16, 0.));
#15 = FACE_BOUND('', #16, .T.);
#16 = EDGE_LOOP('', (#17));
#17 = ORIENTED_EDGE('', *, *, #18, .F.);
#18 = EDGE_CURVE('', #19, #19, #21, .T.);
#19 = VERTEX_POINT('', #20);
#20 = CARTESIAN_POINT('', (-2.4509625, 3.27292750684851E-15, -51.));
#21 = CIRCLE('', #22, 2.4509625);
#22 = AXIS2_PLACEMENT_3D('', #23, #24, #25);
#23 = CARTESIAN_POINT('', (1.45716771982052E-16, 3.88578058618805E-15, -51.));
#24 = DIRECTION('', (2.89903552486054E-15, -9.43148031681677E-15, -1.));
#25 = DIRECTION('', (-1., -2.50045881705468E-16, -2.89903552486054E-15));
#26 = B_SPLINE_SURFACE_WITH_KNOTS('', 1, 1, ((#27, #28), (#29, #30)), .UNSPECIFIED., .F., .F., .U., (2, 2), (2, 2), (2.22153967444162, 10.2235396744416), (2.22153967444162, 10.2235396744416), .UNSPECIFIED.);
#27 = CARTESIAN_POINT('', (4.001, -4.001, -51.));
#28 = CARTESIAN_POINT('', (4.001, 4.001, -51.));
#29 = CARTESIAN_POINT('', (-4.001, -4.001, -51.));
#30 = CARTESIAN_POINT('', (-4.001, 4.001, -51.));
#31 = ADVANCED_FACE('', (#32), #59, .T.);
#32 = FACE_OUTER_BOUND('', #33, .T.);
#33 = EDGE_LOOP('', (#34, #44, #51, #52));
#34 = ORIENTED_EDGE('', *, *, #35, .T.);
#35 = EDGE_CURVE('', #36, #38, #40, .T.);
#36 = VERTEX_POINT('', #37);
#37 = CARTESIAN_POINT('', (-4., 2.69422295812418E-16, -0.399999999999999));
#38 = VERTEX_POINT('', #39);
#39 = CARTESIAN_POINT('', (-3.6, 2.20436423846524E-16, 0.));
#40 = LINE('', #41, #42);
#41 = CARTESIAN_POINT('', (-4., 2.69422295812418E-16, -0.399999999999999));
#42 = VECTOR('', #43, 0.565685424949237);
#43 = DIRECTION('', (0.4, -4.8985871965894E-17, 0.399999999999999));
#44 = ORIENTED_EDGE('', *, *, #45, .T.);
#45 = EDGE_CURVE('', #38, #38, #46, .T.);
#46 = CIRCLE('', #47, 3.6);
#47 = AXIS2_PLACEMENT_3D('', #48, #49, #50);
#48 = CARTESIAN_POINT('', (-5.55111512312578E-16, -1.11022302462516E-16, -6.16297582203915E-33));
#49 = DIRECTION('', (3.9258382192089E-33, 6.12323399573677E-17, -1.));
#50 = DIRECTION('', (-1., 9.20718684191777E-17, 1.71193772834421E-33));
#51 = ORIENTED_EDGE('', *, *, #35, .F.);
#52 = ORIENTED_EDGE('', *, *, #53, .F.);
#53 = EDGE_CURVE('', #36, #36, #54, .T.);
#54 = CIRCLE('', #55, 4.);
#55 = AXIS2_PLACEMENT_3D('', #56, #57, #58);
#56 = CARTESIAN_POINT('', (5.55111512312578E-17, 1.11022302462516E-16, -0.399999999999999));
#57 = DIRECTION('', (-1.38777878078145E-17, 1.39615984421495E-16, -1.));
#58 = DIRECTION('', (-1., 3.95999983374756E-17, 1.38777878078145E-17));
#59 = (
   BOUNDED_SURFACE ()
   B_SPLINE_SURFACE (1, 2, ((#60, #61, #62, #63, #64, #65, #66, #67, #68), (#69, #70, #71, #72, #73, #74, #75, #76, #77)), .UNSPECIFIED., .F., .T., .U.)
   B_SPLINE_SURFACE_WITH_KNOTS ((2, 2), (3, 2, 2, 2, 3), (0., 1.), (0., 0.25, 0.5, 0.75, 1.), .UNSPECIFIED.)
   GEOMETRIC_REPRESENTATION_ITEM ()
   RATIONAL_B_SPLINE_SURFACE (((1., 0.707106781186548, 1., 0.707106781186548, 1., 0.707106781186548, 1., 0.707106781186548, 1.), (1., 0.707106781186548, 1., 0.707106781186548, 1., 0.707106781186548, 1., 0.707106781186548, 1.)))
   REPRESENTATION_ITEM ('')
   SURFACE ()
);
#60 = CARTESIAN_POINT('', (-4., -2.04953155772919E-15, -0.399999999999999));
#61 = CARTESIAN_POINT('', (-4., 4., -0.400000000000022));
#62 = CARTESIAN_POINT('', (3.28440978118275E-16, 4., -0.400000000000022));
#63 = CARTESIAN_POINT('', (4., 4., -0.400000000000022));
#64 = CARTESIAN_POINT('', (4., -2.78968024081262E-15, -0.399999999999999));
#65 = CARTESIAN_POINT('', (4., -4., -0.399999999999976));
#66 = CARTESIAN_POINT('', (7.81510146937783E-17, -4., -0.399999999999976));
#67 = CARTESIAN_POINT('', (-4., -4., -0.399999999999976));
#68 = CARTESIAN_POINT('', (-4., -2.04953155772919E-15, -0.399999999999999));
#69 = CARTESIAN_POINT('', (-3.6, 2.20436423846524E-16, 0.));
#70 = CARTESIAN_POINT('', (-3.6, 3.6, -2.09832151654155E-14));
#71 = CARTESIAN_POINT('', (2.91433543964104E-16, 3.6, -2.09832151654155E-14));
#72 = CARTESIAN_POINT('', (3.6, 3.6, -2.09832151654155E-14));
#73 = CARTESIAN_POINT('', (3.6, -4.45697390928571E-16, -2.60668058374687E-30));
#74 = CARTESIAN_POINT('', (3.6, -3.6, 2.09832151654155E-14));
#75 = CARTESIAN_POINT('', (6.61725768820564E-17, -3.6, 2.09832151654155E-14));
#76 = CARTESIAN_POINT('', (-3.6, -3.6, 2.09832151654155E-14));
#77 = CARTESIAN_POINT('', (-3.6, 2.20436423846524E-16, 0.));
#78 = ADVANCED_FACE('', (#79), #82, .T.);
#79 = FACE_OUTER_BOUND('', #80, .T.);
#80 = EDGE_LOOP('', (#81));
#81 = ORIENTED_EDGE('', *, *, #45, .F.);
#82 = B_SPLINE_SURFACE_WITH_KNOTS('', 1, 1, ((#83, #84), (#85, #86)), .UNSPECIFIED., .F., .F., .U., (2, 2), (2, 2), (1.99928570699746, 9.20128570699746), (1.99928570699746, 9.20128570699746), .UNSPECIFIED.);
#83 = CARTESIAN_POINT('', (3.601, -3.601, -2.2049765618648E-16));
#84 = CARTESIAN_POINT('', (-3.601, -3.601, -2.2049765618648E-16));
#85 = CARTESIAN_POINT('', (3.601, 3.601, 2.20497656186482E-16));
#86 = CARTESIAN_POINT('', (-3.601, 3.601, 2.20497656186482E-16));
#87 = ADVANCED_FACE('', (#88), #99, .T.);
#88 = FACE_OUTER_BOUND('', #89, .T.);
#89 = EDGE_LOOP('', (#90, #96, #97, #98));
#90 = ORIENTED_EDGE('', *, *, #91, .F.);
#91 = EDGE_CURVE('', #8, #36, #92, .T.);
#92 = LINE('', #93, #94);
#93 = CARTESIAN_POINT('', (-4., 3.36777869765522E-15, -51.));
#94 = VECTOR('', #95, 50.6);
#95 = DIRECTION('', (0., -3.0983564018428E-15, 50.6));
#96 = ORIENTED_EDGE('', *, *, #7, .F.);
#97 = ORIENTED_EDGE('', *, *, #91, .T.);
#98 = ORIENTED_EDGE('', *, *, #53, .T.);
#99 = (
   BOUNDED_SURFACE ()
   B_SPLINE_SURFACE (1, 2, ((#100, #101, #102, #103, #104, #105, #106, #107, #108), (#109, #110, #111, #112, #113, #114, #115, #116, #117)), .UNSPECIFIED., .F., .T., .U.)
   B_SPLINE_SURFACE_WITH_KNOTS ((2, 2), (3, 2, 2, 2, 3), (-0.421348314606742, 1.), (0., 0.25, 0.5, 0.75, 1.), .UNSPECIFIED.)
   GEOMETRIC_REPRESENTATION_ITEM ()
   RATIONAL_B_SPLINE_SURFACE (((1., 0.707106781186548, 1., 0.707106781186548, 1., 0.707106781186548, 1., 0.707106781186548, 1.), (1., 0.707106781186548, 1., 0.707106781186548, 1., 0.707106781186548, 1., 0.707106781186548, 1.)))
   REPRESENTATION_ITEM ('')
   SURFACE ()
);
#100 = CARTESIAN_POINT('', (-4., 3.15600215983782E-15, -51.));
#101 = CARTESIAN_POINT('', (-4., 4., -51.));
#102 = CARTESIAN_POINT('', (3.81590456507786E-15, 4., -51.));
#103 = CARTESIAN_POINT('', (4., 4., -51.));
#104 = CARTESIAN_POINT('', (4., -4.4569739092857E-16, -51.));
#105 = CARTESIAN_POINT('', (4., -4., -51.));
#106 = CARTESIAN_POINT('', (7.04063733970404E-16, -4., -51.));
#107 = CARTESIAN_POINT('', (-4., -4., -51.));
#108 = CARTESIAN_POINT('', (-4., 3.15600215983782E-15, -51.));
#109 = CARTESIAN_POINT('', (-4., 2.69422295812417E-16, -0.399999999999999));
#110 = CARTESIAN_POINT('', (-4., 4., -0.399999999999999));
#111 = CARTESIAN_POINT('', (2.41147243892703E-15, 4., -0.399999999999999));
#112 = CARTESIAN_POINT('', (4., 4., -0.399999999999999));
#113 = CARTESIAN_POINT('', (4., -3.33227725495398E-15, -0.399999999999999));
#114 = CARTESIAN_POINT('', (4., -4., -0.399999999999999));
#115 = CARTESIAN_POINT('', (-7.0036839218042E-16, -4., -0.399999999999999));
#116 = CARTESIAN_POINT('', (-4., -4., -0.399999999999999));
#117 = CARTESIAN_POINT('', (-4., 2.69422295812417E-16, -0.399999999999999));
#118 = ADVANCED_FACE('', (#119), #130, .T.);
#119 = FACE_OUTER_BOUND('', #120, .T.);
#120 = EDGE_LOOP('', (#121));
#121 = ORIENTED_EDGE('', *, *, #122, .T.);
#122 = EDGE_CURVE('', #123, #123, #125, .T.);
#123 = VERTEX_POINT('', #124);
#124 = CARTESIAN_POINT('', (-2.4509625, 4.55880664595323E-15, -72.));
#125 = CIRCLE('', #126, 2.45096250000002);
#126 = AXIS2_PLACEMENT_3D('', #127, #128, #129);
#127 = CARTESIAN_POINT('', (-1.04777297948999E-15, 4.10782519111308E-15, -72.));
#128 = DIRECTION('', (0., 0., -1.));
#129 = DIRECTION('', (-1., 1.84001776787751E-16, 0.));
#130 = B_SPLINE_SURFACE_WITH_KNOTS('', 1, 1, ((#131, #132), (#133, #134)), .UNSPECIFIED., .F., .F., .U., (2, 2), (2, 2), (2.6038509854838, 7.50777598548384), (2.60385098548379, 7.50777598548383), .UNSPECIFIED.);
#131 = CARTESIAN_POINT('', (2.45196250000002, -2.45196250000002, -72.));
#132 = CARTESIAN_POINT('', (2.45196250000002, 2.45196250000002, -72.));
#133 = CARTESIAN_POINT('', (-2.45196250000002, -2.45196250000002, -72.));
#134 = CARTESIAN_POINT('', (-2.45196250000002, 2.45196250000002, -72.));
#135 = ADVANCED_FACE('', (#136), #147, .T.);
#136 = FACE_OUTER_BOUND('', #137, .T.);
#137 = EDGE_LOOP('', (#138, #144, #145, #146));
#138 = ORIENTED_EDGE('', *, *, #139, .T.);
#139 = EDGE_CURVE('', #123, #19, #140, .T.);
#140 = LINE('', #141, #142);
#141 = CARTESIAN_POINT('', (-2.4509625, 4.55880664595323E-15, -72.));
#142 = VECTOR('', #143, 21.);
#143 = DIRECTION('', (0., -1.28587913910472E-15, 21.));
#144 = ORIENTED_EDGE('', *, *, #18, .T.);
#145 = ORIENTED_EDGE('', *, *, #139, .F.);
#146 = ORIENTED_EDGE('', *, *, #122, .F.);
#147 = (
   BOUNDED_SURFACE ()
   B_SPLINE_SURFACE (1, 2, ((#148, #149, #150, #151, #152, #153, #154, #155, #156), (#157, #158, #159, #160, #161, #162, #163, #164, #165)), .UNSPECIFIED., .F., .T., .U.)
   B_SPLINE_SURFACE_WITH_KNOTS ((2, 2), (3, 2, 2, 2, 3), (0., 1.), (0., 3.84996289211203, 7.69992578422405, 11.5498886763361, 15.3998515684481), .UNSPECIFIED.)
   GEOMETRIC_REPRESENTATION_ITEM ()
   RATIONAL_B_SPLINE_SURFACE (((1., 0.707106781186548, 1., 0.707106781186548, 1., 0.707106781186548, 1., 0.707106781186548, 1.), (1., 0.707106781186548, 1., 0.707106781186548, 1., 0.707106781186548, 1., 0.707106781186548, 1.)))
   REPRESENTATION_ITEM ('')
   SURFACE ()
);
#148 = CARTESIAN_POINT('', (-2.4509625, 3.38394980931103E-15, -72.));
#149 = CARTESIAN_POINT('', (-2.4509625, 2.4509625, -72.));
#150 = CARTESIAN_POINT('', (1.7350705570443E-15, 2.4509625, -72.));
#151 = CARTESIAN_POINT('', (2.4509625, 2.4509625, -72.));
#152 = CARTESIAN_POINT('', (2.4509625, 2.48309976849322E-17, -72.));
#153 = CARTESIAN_POINT('', (2.4509625, -2.4509625, -72.));
#154 = CARTESIAN_POINT('', (-1.32389191653627E-15, -2.4509625, -72.));
#155 = CARTESIAN_POINT('', (-2.4509625, -2.4509625, -72.));
#156 = CARTESIAN_POINT('', (-2.4509625, 3.38394980931103E-15, -72.));
#157 = CARTESIAN_POINT('', (-2.4509625, 3.27292750684851E-15, -51.));
#158 = CARTESIAN_POINT('', (-2.4509625, 2.4509625, -51.));
#159 = CARTESIAN_POINT('', (1.7350705570443E-15, 2.4509625, -51.));
#160 = CARTESIAN_POINT('', (2.4509625, 2.4509625, -51.));
#161 = CARTESIAN_POINT('', (2.4509625, -8.61913047775834E-17, -51.));
#162 = CARTESIAN_POINT('', (2.4509625, -2.4509625, -51.));
#163 = CARTESIAN_POINT('', (-1.32389191653627E-15, -2.4509625, -51.));
#164 = CARTESIAN_POINT('', (-2.4509625, -2.4509625, -51.));
#165 = CARTESIAN_POINT('', (-2.4509625, 3.27292750684851E-15, -51.));
#166 = DRAUGHTING_MODEL('', (#174, #341, #388, #393, #398, #403, #408, #413), #427);
#167 = PRESENTATION_STYLE_ASSIGNMENT((#168));
#168 = SURFACE_STYLE_USAGE(.POSITIVE., #169);
#169 = SURFACE_SIDE_STYLE('', (#170));
#170 = SURFACE_STYLE_FILL_AREA(#171);
#171 = FILL_AREA_STYLE('', (#172));
#172 = FILL_AREA_STYLE_COLOUR('', #173);
#173 = COLOUR_RGB('', 0.50196078431373, 0.50196078431373, 0.50196078431373);
#174 = STYLED_ITEM('', (#167), #1);
#175 = MANIFOLD_SOLID_BREP('CUT', #176);
#176 = CLOSED_SHELL('', (#177, #205, #244, #264, #303));
#177 = ADVANCED_FACE('', (#178, #189), #200, .T.);
#178 = FACE_OUTER_BOUND('', #179, .T.);
#179 = EDGE_LOOP('', (#180));
#180 = ORIENTED_EDGE('', *, *, #181, .T.);
#181 = EDGE_CURVE('', #182, #182, #184, .T.);
#182 = VERTEX_POINT('', #183);
#183 = CARTESIAN_POINT('', (-3.25, 4.60773358179192E-15, -72.));
#184 = CIRCLE('', #185, 3.25);
#185 = AXIS2_PLACEMENT_3D('', #186, #187, #188);
#186 = CARTESIAN_POINT('', (-4.16333634234434E-17, 4.66293670342566E-15, -72.));
#187 = DIRECTION('', (0., 0., -1.));
#188 = DIRECTION('', (-1., -1.6985575887304E-17, 0.));
#189 = FACE_BOUND('', #190, .T.);
#190 = EDGE_LOOP('', (#191));
#191 = ORIENTED_EDGE('', *, *, #192, .F.);
#192 = EDGE_CURVE('', #193, #193, #195, .T.);
#193 = VERTEX_POINT('', #194);
#194 = CARTESIAN_POINT('', (-2.4509625, 4.55880664595323E-15, -72.));
#195 = CIRCLE('', #196, 2.4509625);
#196 = AXIS2_PLACEMENT_3D('', #197, #198, #199);
#197 = CARTESIAN_POINT('', (1.59594559789866E-16, 5.16253706450698E-15, -72.));
#198 = DIRECTION('', (0., 0., -1.));
#199 = DIRECTION('', (-1., -2.46323808933734E-16, 0.));
#200 = B_SPLINE_SURFACE_WITH_KNOTS('', 1, 1, ((#201, #202), (#203, #204)), .UNSPECIFIED., .F., .F., .U., (2, 2), (2, 2), (1.80481348548382, 8.30681348548382), (1.80481348548381, 8.30681348548381), .UNSPECIFIED.);
#201 = CARTESIAN_POINT('', (3.251, -3.251, -72.));
#202 = CARTESIAN_POINT('', (3.251, 3.251, -72.));
#203 = CARTESIAN_POINT('', (-3.251, -3.251, -72.));
#204 = CARTESIAN_POINT('', (-3.251, 3.251, -72.));
#205 = ADVANCED_FACE('', (#206), #225, .T.);
#206 = FACE_OUTER_BOUND('', #207, .T.);
#207 = EDGE_LOOP('', (#208, #216, #217, #218));
#208 = ORIENTED_EDGE('', *, *, #209, .F.);
#209 = EDGE_CURVE('', #193, #210, #212, .T.);
#210 = VERTEX_POINT('', #211);
#211 = CARTESIAN_POINT('', (-2.4509625, 3.27292750684851E-15, -51.));
#212 = LINE('', #213, #214);
#213 = CARTESIAN_POINT('', (-2.4509625, 4.55880664595323E-15, -72.));
#214 = VECTOR('', #215, 21.);
#215 = DIRECTION('', (0., -1.28587913910472E-15, 21.));
#216 = ORIENTED_EDGE('', *, *, #192, .T.);
#217 = ORIENTED_EDGE('', *, *, #209, .T.);
#218 = ORIENTED_EDGE('', *, *, #219, .F.);
#219 = EDGE_CURVE('', #210, #210, #220, .T.);
#220 = CIRCLE('', #221, 2.4509625);
#221 = AXIS2_PLACEMENT_3D('', #222, #223, #224);
#222 = CARTESIAN_POINT('', (1.45716771982052E-16, 3.88578058618805E-15, -51.));
#223 = DIRECTION('', (2.89903552486054E-15, -9.43148031681677E-15, -1.));
#224 = DIRECTION('', (-1., -2.50045881705468E-16, -2.89903552486054E-15));
#225 = (
   BOUNDED_SURFACE ()
   B_SPLINE_SURFACE (2, 1, ((#226, #227), (#228, #229), (#230, #231), (#232, #233), (#234, #235), (#236, #237), (#238, #239), (#240, #241), (#242, #243)), .UNSPECIFIED., .T., .F., .U.)
   B_SPLINE_SURFACE_WITH_KNOTS ((3, 2, 2, 2, 3), (2, 2), (0., 3.84996289211203, 7.69992578422405, 11.5498886763361, 15.3998515684481), (0., 1.), .UNSPECIFIED.)
   GEOMETRIC_REPRESENTATION_ITEM ()
   RATIONAL_B_SPLINE_SURFACE (((1., 1.), (0.707106781186548, 0.707106781186548), (1., 1.), (0.707106781186548, 0.707106781186548), (1., 1.), (0.707106781186548, 0.707106781186548), (1., 1.), (0.707106781186548, 0.707106781186548), (1., 1.)))
   REPRESENTATION_ITEM ('')
   SURFACE ()
);
#226 = CARTESIAN_POINT('', (-2.4509625, 3.38394980931103E-15, -72.));
#227 = CARTESIAN_POINT('', (-2.4509625, 3.27292750684851E-15, -51.));
#228 = CARTESIAN_POINT('', (-2.4509625, 2.4509625, -72.));
#229 = CARTESIAN_POINT('', (-2.4509625, 2.4509625, -51.));
#230 = CARTESIAN_POINT('', (1.7350705570443E-15, 2.4509625, -72.));
#231 = CARTESIAN_POINT('', (1.7350705570443E-15, 2.4509625, -51.));
#232 = CARTESIAN_POINT('', (2.4509625, 2.4509625, -72.));
#233 = CARTESIAN_POINT('', (2.4509625, 2.4509625, -51.));
#234 = CARTESIAN_POINT('', (2.4509625, 2.48309976849322E-17, -72.));
#235 = CARTESIAN_POINT('', (2.4509625, -8.61913047775834E-17, -51.));
#236 = CARTESIAN_POINT('', (2.4509625, -2.4509625, -72.));
#237 = CARTESIAN_POINT('', (2.4509625, -2.4509625, -51.));
#238 = CARTESIAN_POINT('', (-1.32389191653627E-15, -2.4509625, -72.));
#239 = CARTESIAN_POINT('', (-1.32389191653627E-15, -2.4509625, -51.));
#240 = CARTESIAN_POINT('', (-2.4509625, -2.4509625, -72.));
#241 = CARTESIAN_POINT('', (-2.4509625, -2.4509625, -51.));
#242 = CARTESIAN_POINT('', (-2.4509625, 3.38394980931103E-15, -72.));
#243 = CARTESIAN_POINT('', (-2.4509625, 3.27292750684851E-15, -51.));
#244 = ADVANCED_FACE('', (#245, #256), #259, .T.);
#245 = FACE_OUTER_BOUND('', #246, .T.);
#246 = EDGE_LOOP('', (#247));
#247 = ORIENTED_EDGE('', *, *, #248, .F.);
#248 = EDGE_CURVE('', #249, #249, #251, .T.);
#249 = VERTEX_POINT('', #250);
#250 = CARTESIAN_POINT('', (-3.75, 3.35247061266588E-15, -51.));
#251 = CIRCLE('', #252, 3.75);
#252 = AXIS2_PLACEMENT_3D('', #253, #254, #255);
#253 = CARTESIAN_POINT('', (-1.16573417585641E-15, 4.21884749357559E-15, -51.));
#254 = DIRECTION('', (-1.48992732687591E-30, 6.44895725970659E-15, -1.));
#255 = DIRECTION('', (-1., -2.31033834909257E-16, 0.));
#256 = FACE_BOUND('', #257, .T.);
#257 = EDGE_LOOP('', (#258));
#258 = ORIENTED_EDGE('', *, *, #219, .T.);
#259 = B_SPLINE_SURFACE_WITH_KNOTS('', 1, 1, ((#260, #261), (#262, #263)), .UNSPECIFIED., .F., .F., .U., (2, 2), (2, 2), (2.08263094478902, 9.58463094478902), (2.08263094478902, 9.58463094478902), .UNSPECIFIED.);
#260 = CARTESIAN_POINT('', (3.751, -3.751, -51.));
#261 = CARTESIAN_POINT('', (-3.751, -3.751, -51.));
#262 = CARTESIAN_POINT('', (3.751, 3.751, -51.));
#263 = CARTESIAN_POINT('', (-3.751, 3.751, -51.));
#264 = ADVANCED_FACE('', (#265), #284, .T.);
#265 = FACE_OUTER_BOUND('', #266, .T.);
#266 = EDGE_LOOP('', (#267, #275, #276, #277));
#267 = ORIENTED_EDGE('', *, *, #268, .F.);
#268 = EDGE_CURVE('', #249, #269, #271, .T.);
#269 = VERTEX_POINT('', #270);
#270 = CARTESIAN_POINT('', (-3.75, 4.60773358179192E-15, -71.5));
#271 = LINE('', #272, #273);
#272 = CARTESIAN_POINT('', (-3.75, 3.35247061266588E-15, -51.));
#273 = VECTOR('', #274, 20.5);
#274 = DIRECTION('', (0., 1.25526296912604E-15, -20.5));
#275 = ORIENTED_EDGE('', *, *, #248, .T.);
#276 = ORIENTED_EDGE('', *, *, #268, .T.);
#277 = ORIENTED_EDGE('', *, *, #278, .F.);
#278 = EDGE_CURVE('', #269, #269, #279, .T.);
#279 = CIRCLE('', #280, 3.75);
#280 = AXIS2_PLACEMENT_3D('', #281, #282, #283);
#281 = CARTESIAN_POINT('', (-1.16573417585641E-15, 5.55111512312578E-15, -71.5));
#282 = DIRECTION('', (0., 0., -1.));
#283 = DIRECTION('', (-1., -2.51568411022363E-16, 0.));
#284 = (
   BOUNDED_SURFACE ()
   B_SPLINE_SURFACE (2, 1, ((#285, #286), (#287, #288), (#289, #290), (#291, #292), (#293, #294), (#295, #296), (#297, #298), (#299, #300), (#301, #302)), .UNSPECIFIED., .T., .F., .U.)
   B_SPLINE_SURFACE_WITH_KNOTS ((3, 2, 2, 2, 3), (2, 2), (0., 5.89048622548085, 11.7809724509617, 17.6714586764426, 23.5619449019234), (0., 1.), .UNSPECIFIED.)
   GEOMETRIC_REPRESENTATION_ITEM ()
   RATIONAL_B_SPLINE_SURFACE (((1., 1.), (0.707106781186548, 0.707106781186548), (1., 1.), (0.707106781186548, 0.707106781186548), (1., 1.), (0.707106781186548, 0.707106781186548), (1., 1.), (0.707106781186548, 0.707106781186548), (1., 1.)))
   REPRESENTATION_ITEM ('')
   SURFACE ()
);
#285 = CARTESIAN_POINT('', (-3.75, 3.35247061266588E-15, -51.));
#286 = CARTESIAN_POINT('', (-3.75, 4.68473824221607E-15, -71.5));
#287 = CARTESIAN_POINT('', (-3.75, 3.75, -51.));
#288 = CARTESIAN_POINT('', (-3.75, 3.75, -71.5));
#289 = CARTESIAN_POINT('', (2.94243809632416E-15, 3.75, -51.));
#290 = CARTESIAN_POINT('', (2.94243809632416E-15, 3.75, -71.5));
#291 = CARTESIAN_POINT('', (3.75, 3.75, -51.));
#292 = CARTESIAN_POINT('', (3.75, 3.75, -71.5));
#293 = CARTESIAN_POINT('', (3.75, -3.11527266791065E-15, -51.));
#294 = CARTESIAN_POINT('', (3.75, -1.78300503836047E-15, -71.5));
#295 = CARTESIAN_POINT('', (3.75, -3.75, -51.));
#296 = CARTESIAN_POINT('', (3.75, -3.75, -71.5));
#297 = CARTESIAN_POINT('', (-3.06606263457211E-15, -3.75, -51.));
#298 = CARTESIAN_POINT('', (-3.06606263457211E-15, -3.75, -71.5));
#299 = CARTESIAN_POINT('', (-3.75, -3.75, -51.));
#300 = CARTESIAN_POINT('', (-3.75, -3.75, -71.5));
#301 = CARTESIAN_POINT('', (-3.75, 3.35247061266588E-15, -51.));
#302 = CARTESIAN_POINT('', (-3.75, 4.68473824221607E-15, -71.5));
#303 = ADVANCED_FACE('', (#304), #315, .T.);
#304 = FACE_OUTER_BOUND('', #305, .T.);
#305 = EDGE_LOOP('', (#306, #312, #313, #314));
#306 = ORIENTED_EDGE('', *, *, #307, .F.);
#307 = EDGE_CURVE('', #269, #182, #308, .T.);
#308 = LINE('', #309, #310);
#309 = CARTESIAN_POINT('', (-3.75, 4.60773358179192E-15, -71.5));
#310 = VECTOR('', #311, 0.707106781186548);
#311 = DIRECTION('', (0.5, 0., -0.5));
#312 = ORIENTED_EDGE('', *, *, #278, .T.);
#313 = ORIENTED_EDGE('', *, *, #307, .T.);
#314 = ORIENTED_EDGE('', *, *, #181, .F.);
#315 = (
   BOUNDED_SURFACE ()
   B_SPLINE_SURFACE (2, 1, ((#316, #317), (#318, #319), (#320, #321), (#322, #323), (#324, #325), (#326, #327), (#328, #329), (#330, #331), (#332, #333)), .UNSPECIFIED., .T., .F., .U.)
   B_SPLINE_SURFACE_WITH_KNOTS ((3, 2, 2, 2, 3), (2, 2), (0., 0.25, 0.5, 0.75, 1.), (0., 1.), .UNSPECIFIED.)
   GEOMETRIC_REPRESENTATION_ITEM ()
   RATIONAL_B_SPLINE_SURFACE (((1., 1.), (0.707106781186548, 0.707106781186548), (1., 1.), (0.707106781186548, 0.707106781186548), (1., 1.), (0.707106781186548, 0.707106781186548), (1., 1.), (0.707106781186548, 0.707106781186548), (1., 1.)))
   REPRESENTATION_ITEM ('')
   SURFACE ()
);
#316 = CARTESIAN_POINT('', (-3.75, 4.60773358179192E-15, -71.5));
#317 = CARTESIAN_POINT('', (-3.25, 3.4419583353225E-15, -72.));
#318 = CARTESIAN_POINT('', (-3.75, 3.75, -71.5));
#319 = CARTESIAN_POINT('', (-3.25, 3.25, -72.));
#320 = CARTESIAN_POINT('', (3.24013370671101E-15, 3.75, -71.5));
#321 = CARTESIAN_POINT('', (2.93764189868914E-15, 3.25, -72.));
#322 = CARTESIAN_POINT('', (3.75, 3.75, -71.5));
#323 = CARTESIAN_POINT('', (3.25, 3.25, -72.));
#324 = CARTESIAN_POINT('', (3.75, 7.03564614639329E-17, -71.5));
#325 = CARTESIAN_POINT('', (3.25, -4.90435168961753E-16, -72.));
#326 = CARTESIAN_POINT('', (3.75, -3.75, -71.5));
#327 = CARTESIAN_POINT('', (3.25, -3.25, -72.));
#328 = CARTESIAN_POINT('', (-8.38000863936724E-16, -3.75, -71.5));
#329 = CARTESIAN_POINT('', (-5.96741395872226E-16, -3.25, -72.));
#330 = CARTESIAN_POINT('', (-3.75, -3.75, -71.5));
#331 = CARTESIAN_POINT('', (-3.25, -3.25, -72.));
#332 = CARTESIAN_POINT('', (-3.75, 4.60773358179192E-15, -71.5));
#333 = CARTESIAN_POINT('', (-3.25, 3.4419583353225E-15, -72.));
#334 = PRESENTATION_STYLE_ASSIGNMENT((#335));
#335 = SURFACE_STYLE_USAGE(.POSITIVE., #336);
#336 = SURFACE_SIDE_STYLE('', (#337));
#337 = SURFACE_STYLE_FILL_AREA(#338);
#338 = FILL_AREA_STYLE('', (#339));
#339 = FILL_AREA_STYLE_COLOUR('', #340);
#340 = COLOUR_RGB('', 0.8, 0.8, 0.8);
#341 = STYLED_ITEM('', (#334), #175);
#342 = TRIMMED_CURVE('cutting part line', #343, (#347), (#348), .T., .CARTESIAN.);
#343 = LINE('', #344, #345);
#344 = CARTESIAN_POINT('', (2.4509625, -3.57308384489403E-15, -51.));
#345 = VECTOR('', #346, 1.2990375);
#346 = DIRECTION('', (1.2990375, -2.38629317452108E-16, 0.));
#347 = CARTESIAN_POINT('', (2.4509625, -3.57308384489403E-15, -51.));
#348 = CARTESIAN_POINT('', (3.75, -3.81171316234614E-15, -51.));
#349 = TRIMMED_CURVE('cutting part line', #350, (#354), (#355), .T., .CARTESIAN.);
#350 = LINE('', #351, #352);
#351 = CARTESIAN_POINT('', (3.75, -3.81171316234614E-15, -51.));
#352 = VECTOR('', #353, 20.5);
#353 = DIRECTION('', (0., -1.25526296912604E-15, -20.5));
#354 = CARTESIAN_POINT('', (3.75, -3.81171316234614E-15, -51.));
#355 = CARTESIAN_POINT('', (3.75, -5.06697613147218E-15, -71.5));
#356 = TRIMMED_CURVE('cutting part line', #357, (#361), (#362), .T., .CARTESIAN.);
#357 = LINE('', #358, #359);
#358 = CARTESIAN_POINT('', (3.75, -5.06697613147218E-15, -71.5));
#359 = VECTOR('', #360, 0.707106781186548);
#360 = DIRECTION('', (-0.5, 6.12323399573676E-17, -0.5));
#361 = CARTESIAN_POINT('', (3.75, -5.06697613147218E-15, -71.5));
#362 = CARTESIAN_POINT('', (3.25, -5.00574379151481E-15, -72.));
#363 = TRIMMED_CURVE('cutting part line', #364, (#368), (#369), .T., .CARTESIAN.);
#364 = LINE('', #365, #366);
#365 = CARTESIAN_POINT('', (3.25, -5.00574379151481E-15, -72.));
#366 = VECTOR('', #367, 0.7990375);
#367 = DIRECTION('', (-0.7990375, 1.46780807516061E-16, 0.));
#368 = CARTESIAN_POINT('', (3.25, -5.00574379151481E-15, -72.));
#369 = CARTESIAN_POINT('', (2.4509625, -4.85896298399875E-15, -72.));
#370 = TRIMMED_CURVE('cutting part line', #371, (#375), (#376), .T., .CARTESIAN.);
#371 = LINE('', #372, #373);
#372 = CARTESIAN_POINT('', (2.4509625, -4.85896298399875E-15, -72.));
#373 = VECTOR('', #374, 21.);
#374 = DIRECTION('', (0., 1.28587913910472E-15, 21.));
#375 = CARTESIAN_POINT('', (2.4509625, -4.85896298399875E-15, -72.));
#376 = CARTESIAN_POINT('', (2.4509625, -3.57308384489403E-15, -51.));
#377 = COMPOSITE_CURVE('cutting part line', (#378, #379, #380, #381, #382), .U.);
#378 = COMPOSITE_CURVE_SEGMENT(.CONTINUOUS., .T., #342);
#379 = COMPOSITE_CURVE_SEGMENT(.CONTINUOUS., .T., #349);
#380 = COMPOSITE_CURVE_SEGMENT(.CONTINUOUS., .T., #356);
#381 = COMPOSITE_CURVE_SEGMENT(.CONTINUOUS., .T., #363);
#382 = COMPOSITE_CURVE_SEGMENT(.CONTINUOUS., .T., #370);
#383 = GEOMETRIC_SET('', (#377, #426));
#384 = PRESENTATION_STYLE_ASSIGNMENT((#385));
#385 = CURVE_STYLE('', #387, POSITIVE_LENGTH_MEASURE(1.E-6), #386);
#386 = COLOUR_RGB('', 0., 0., 1.);
#387 = DRAUGHTING_PRE_DEFINED_CURVE_FONT('continuous');
#388 = STYLED_ITEM('', (#384), #377);
#389 = PRESENTATION_STYLE_ASSIGNMENT((#390));
#390 = CURVE_STYLE('', #392, POSITIVE_LENGTH_MEASURE(1.E-6), #391);
#391 = COLOUR_RGB('', 0., 0., 1.);
#392 = DRAUGHTING_PRE_DEFINED_CURVE_FONT('continuous');
#393 = OVER_RIDING_STYLED_ITEM('', (#389), #342, #388);
#394 = PRESENTATION_STYLE_ASSIGNMENT((#395));
#395 = CURVE_STYLE('', #397, POSITIVE_LENGTH_MEASURE(1.E-6), #396);
#396 = COLOUR_RGB('', 0., 0., 1.);
#397 = DRAUGHTING_PRE_DEFINED_CURVE_FONT('continuous');
#398 = OVER_RIDING_STYLED_ITEM('', (#394), #349, #388);
#399 = PRESENTATION_STYLE_ASSIGNMENT((#400));
#400 = CURVE_STYLE('', #402, POSITIVE_LENGTH_MEASURE(1.E-6), #401);
#401 = COLOUR_RGB('', 0., 0., 1.);
#402 = DRAUGHTING_PRE_DEFINED_CURVE_FONT('continuous');
#403 = OVER_RIDING_STYLED_ITEM('', (#399), #356, #388);
#404 = PRESENTATION_STYLE_ASSIGNMENT((#405));
#405 = CURVE_STYLE('', #407, POSITIVE_LENGTH_MEASURE(1.E-6), #406);
#406 = COLOUR_RGB('', 0., 0., 1.);
#407 = DRAUGHTING_PRE_DEFINED_CURVE_FONT('continuous');
#408 = OVER_RIDING_STYLED_ITEM('', (#404), #363, #388);
#409 = PRESENTATION_STYLE_ASSIGNMENT((#410));
#410 = CURVE_STYLE('', #412, POSITIVE_LENGTH_MEASURE(1.E-6), #411);
#411 = COLOUR_RGB('', 0., 0., 1.);
#412 = DRAUGHTING_PRE_DEFINED_CURVE_FONT('continuous');
#413 = OVER_RIDING_STYLED_ITEM('', (#409), #370, #388);
#414 = AXIS2_PLACEMENT_3D('CIP', #415, #416, #417);
#415 = CARTESIAN_POINT('', (2.69956760879134E-31, 4.40872847693047E-15, -72.));
#416 = DIRECTION('', (-3.74939945665465E-33, -6.12323399573677E-17, 1.));
#417 = DIRECTION('', (1., -6.12323399573677E-17, 0.));
#418 = AXIS2_PLACEMENT_3D('MCS', #419, #420, #421);
#419 = CARTESIAN_POINT('', (1.34978380439567E-31, 2.20436423846524E-15, -36.));
#420 = DIRECTION('', (-3.74939945665465E-33, -6.12323399573677E-17, 1.));
#421 = DIRECTION('', (1., -6.12323399573677E-17, 0.));
#422 = AXIS2_PLACEMENT_3D('PCS', #423, #424, #425);
#423 = CARTESIAN_POINT('', (0., 0., 0.));
#424 = DIRECTION('', (0., 0., 1.));
#425 = DIRECTION('', (1., 0., 0.));
#426 = CARTESIAN_POINT('CRP', (3.75, 0., -72.));
#427 = (
   GEOMETRIC_REPRESENTATION_CONTEXT (3)
   GLOBAL_UNCERTAINTY_ASSIGNED_CONTEXT ((#429))
   GLOBAL_UNIT_ASSIGNED_CONTEXT ((#428, #430, #431))
   REPRESENTATION_CONTEXT ('', '3D')
);
#428 = (
   LENGTH_UNIT ()
   NAMED_UNIT (*)
   SI_UNIT (.MILLI., .METRE.)
);
#429 = UNCERTAINTY_MEASURE_WITH_UNIT(LENGTH_MEASURE(1.E-6), #428, 'DISTANCE_ACCURACY_VALUE', '');
#430 = (
   NAMED_UNIT (*)
   SI_UNIT ($, .STERADIAN.)
   SOLID_ANGLE_UNIT ()
);
#431 = (
   NAMED_UNIT (*)
   PLANE_ANGLE_UNIT ()
   SI_UNIT ($, .RADIAN.)
);
#432 = SHAPE_REPRESENTATION('', (), #427);
#433 = PRODUCT_DEFINITION_SHAPE('', '', #434);
#434 = PRODUCT_DEFINITION('', '', #437, #441);
#435 = APPLICATION_CONTEXT('configuration controlled 3D designs of mechanical parts and assemblies');
#436 = APPLICATION_PROTOCOL_DEFINITION('International Standard', 'automotive_design', 2002, #435);
#437 = PRODUCT_DEFINITION_FORMATION_WITH_SPECIFIED_SOURCE('', '', #438, .NOT_KNOWN.);
#438 = PRODUCT('NONE', 'R217.14C075150AK21N 1630', '', (#439));
#439 = PRODUCT_CONTEXT('', #435, 'mechanical');
#440 = PRODUCT_RELATED_PRODUCT_CATEGORY('detail', '', (#438));
#441 = PRODUCT_DEFINITION_CONTEXT('part definition', #435, 'design');
#442 = SHAPE_DEFINITION_REPRESENTATION(#433, #432);
#443 = CONSTRUCTIVE_GEOMETRY_REPRESENTATION('supplemental geometry', (#414, #418, #422), #427);
#444 = CONSTRUCTIVE_GEOMETRY_REPRESENTATION_RELATIONSHIP('', '', #432, #443);
#445 = SHAPE_REPRESENTATION_RELATIONSHIP('', '', #432, #446);
#446 = SHAPE_REPRESENTATION('', (#383), #427);
#447 = SHAPE_REPRESENTATION_RELATIONSHIP('', '', #432, #448);
#448 = ADVANCED_BREP_SHAPE_REPRESENTATION('', (#1, #175), #427);
ENDSEC;
END-ISO-10303-21;
