ISO-10303-21;
HEADER;
FILE_DESCRIPTION(('STEP'), '1');
FILE_NAME('C:\\Users\\ds2002\\OneDrive - Sandvik\\HomeShare\\Documents\\Batchrepair\\CorSRT2\\NEW_MILTH_SLD\\Output\\MOD000000000000000020084660300000.stp', '2019-01-04T08:50:48', (''), (''), 'Express v3.0.0.0', 'Express Tool', 'Unknown');
FILE_SCHEMA(('AUTOMOTIVE_DESIGN'));
ENDSEC;

DATA;
#1 = MANIFOLD_SOLID_BREP('NOCUT', #2);
#2 = CLOSED_SHELL('', (#3, #20, #67, #106, #145, #154, #174));
#3 = ADVANCED_FACE('', (#4), #15, .T.);
#4 = FACE_OUTER_BOUND('', #5, .T.);
#5 = EDGE_LOOP('', (#6));
#6 = ORIENTED_EDGE('', *, *, #7, .T.);
#7 = EDGE_CURVE('', #8, #8, #10, .T.);
#8 = VERTEX_POINT('', #9);
#9 = CARTESIAN_POINT('', (-3.133975, 4.04953803993205E-15, -63.));
#10 = CIRCLE('', #11, 3.133975);
#11 = AXIS2_PLACEMENT_3D('', #12, #13, #14);
#12 = CARTESIAN_POINT('', (-1.66533453693773E-16, 1.33226762955019E-15, -63.));
#13 = DIRECTION('', (-6.6905615521368E-30, -7.7165866747179E-15, -1.));
#14 = DIRECTION('', (-1., 8.67036402773431E-16, 0.));
#15 = B_SPLINE_SURFACE_WITH_KNOTS('', 1, 1, ((#16, #17), (#18, #19)), .UNSPECIFIED., .F., .F., .U., (2, 2), (2, 2), (0.143866477272727, 0.856133522727273), (0.143866477272727, 0.856133522727273), .UNSPECIFIED.);
#16 = CARTESIAN_POINT('', (3.133975, -3.133975, -63.));
#17 = CARTESIAN_POINT('', (3.133975, 3.133975, -63.));
#18 = CARTESIAN_POINT('', (-3.133975, -3.133975, -63.));
#19 = CARTESIAN_POINT('', (-3.133975, 3.133975, -63.));
#20 = ADVANCED_FACE('', (#21), #48, .T.);
#21 = FACE_OUTER_BOUND('', #22, .T.);
#22 = EDGE_LOOP('', (#23, #33, #40, #41));
#23 = ORIENTED_EDGE('', *, *, #24, .F.);
#24 = EDGE_CURVE('', #25, #27, #29, .T.);
#25 = VERTEX_POINT('', #26);
#26 = CARTESIAN_POINT('', (-4., 2.57175827820944E-15, -38.));
#27 = VERTEX_POINT('', #28);
#28 = CARTESIAN_POINT('', (-4., 3.12284933782575E-15, -47.));
#29 = LINE('', #30, #31);
#30 = CARTESIAN_POINT('', (-4., 2.57175827820944E-15, -38.));
#31 = VECTOR('', #32, 9.);
#32 = DIRECTION('', (0., 5.5109105961631E-16, -9.));
#33 = ORIENTED_EDGE('', *, *, #34, .T.);
#34 = EDGE_CURVE('', #25, #25, #35, .T.);
#35 = CIRCLE('', #36, 4.);
#36 = AXIS2_PLACEMENT_3D('', #37, #38, #39);
#37 = CARTESIAN_POINT('', (1.94289029309402E-16, 8.88178419700125E-16, -38.));
#38 = DIRECTION('', (0., 0., -1.));
#39 = DIRECTION('', (-1., 4.20894964627329E-16, 0.));
#40 = ORIENTED_EDGE('', *, *, #24, .T.);
#41 = ORIENTED_EDGE('', *, *, #42, .F.);
#42 = EDGE_CURVE('', #27, #27, #43, .T.);
#43 = CIRCLE('', #44, 4.);
#44 = AXIS2_PLACEMENT_3D('', #45, #46, #47);
#45 = CARTESIAN_POINT('', (1.19348975147204E-15, 0., -47.));
#46 = DIRECTION('', (0., 0., -1.));
#47 = DIRECTION('', (-1., 7.80712334456437E-16, 0.));
#48 = (
   BOUNDED_SURFACE ()
   B_SPLINE_SURFACE (2, 1, ((#49, #50), (#51, #52), (#53, #54), (#55, #56), (#57, #58), (#59, #60), (#61, #62), (#63, #64), (#65, #66)), .UNSPECIFIED., .T., .F., .U.)
   B_SPLINE_SURFACE_WITH_KNOTS ((3, 2, 2, 2, 3), (2, 2), (0., 6.28318530717957, 12.5663706143591, 18.8495559215387, 25.1327412287183), (0., 1.), .UNSPECIFIED.)
   GEOMETRIC_REPRESENTATION_ITEM ()
   RATIONAL_B_SPLINE_SURFACE (((1., 1.), (0.707106781186548, 0.707106781186548), (1., 1.), (0.707106781186548, 0.707106781186548), (1., 1.), (0.707106781186548, 0.707106781186548), (1., 1.), (0.707106781186548, 0.707106781186548), (1., 1.)))
   REPRESENTATION_ITEM ('')
   SURFACE ()
);
#49 = CARTESIAN_POINT('', (-4., 2.57175827820944E-15, -38.));
#50 = CARTESIAN_POINT('', (-4.00000000000001, 3.23789209298455E-15, -47.));
#51 = CARTESIAN_POINT('', (-4., 4., -38.));
#52 = CARTESIAN_POINT('', (-4.00000000000001, 4., -47.));
#53 = CARTESIAN_POINT('', (4.21420806024274E-15, 4., -38.));
#54 = CARTESIAN_POINT('', (-1.17730034943595E-14, 4., -47.));
#55 = CARTESIAN_POINT('', (4., 4., -38.));
#56 = CARTESIAN_POINT('', (3.99999999999999, 4., -47.));
#57 = CARTESIAN_POINT('', (4., -3.41416718810069E-15, -38.));
#58 = CARTESIAN_POINT('', (3.99999999999998, -2.74803337332558E-15, -47.));
#59 = CARTESIAN_POINT('', (4., -4., -38.));
#60 = CARTESIAN_POINT('', (3.99999999999998, -4., -47.));
#61 = CARTESIAN_POINT('', (-1.28185868640845E-15, -4., -38.));
#62 = CARTESIAN_POINT('', (-1.72690702410107E-14, -4., -47.));
#63 = CARTESIAN_POINT('', (-4., -4., -38.));
#64 = CARTESIAN_POINT('', (-4.00000000000002, -4., -47.));
#65 = CARTESIAN_POINT('', (-4., 2.57175827820944E-15, -38.));
#66 = CARTESIAN_POINT('', (-4.00000000000001, 3.23789209298455E-15, -47.));
#67 = ADVANCED_FACE('', (#68), #87, .T.);
#68 = FACE_OUTER_BOUND('', #69, .T.);
#69 = EDGE_LOOP('', (#70, #78, #85, #86));
#70 = ORIENTED_EDGE('', *, *, #71, .T.);
#71 = EDGE_CURVE('', #25, #72, #74, .T.);
#72 = VERTEX_POINT('', #73);
#73 = CARTESIAN_POINT('', (-4., 2.69422295812418E-16, -0.399999999999999));
#74 = LINE('', #75, #76);
#75 = CARTESIAN_POINT('', (-4., 2.57175827820944E-15, -38.));
#76 = VECTOR('', #77, 37.6);
#77 = DIRECTION('', (0., -2.30233598239702E-15, 37.6));
#78 = ORIENTED_EDGE('', *, *, #79, .T.);
#79 = EDGE_CURVE('', #72, #72, #80, .T.);
#80 = CIRCLE('', #81, 4.);
#81 = AXIS2_PLACEMENT_3D('', #82, #83, #84);
#82 = CARTESIAN_POINT('', (1.08246744900953E-15, -1.22124532708767E-15, -0.399999999999999));
#83 = DIRECTION('', (4.16333634234434E-17, 6.25420985093971E-18, -1.));
#84 = DIRECTION('', (-1., 3.72666905725022E-16, -4.16333634234434E-17));
#85 = ORIENTED_EDGE('', *, *, #71, .F.);
#86 = ORIENTED_EDGE('', *, *, #34, .F.);
#87 = (
   BOUNDED_SURFACE ()
   B_SPLINE_SURFACE (1, 2, ((#88, #89, #90, #91, #92, #93, #94, #95, #96), (#97, #98, #99, #100, #101, #102, #103, #104, #105)), .UNSPECIFIED., .F., .T., .U.)
   B_SPLINE_SURFACE_WITH_KNOTS ((2, 2), (3, 2, 2, 2, 3), (0., 1.), (0., 6.28318530717957, 12.5663706143591, 18.8495559215387, 25.1327412287183), .UNSPECIFIED.)
   GEOMETRIC_REPRESENTATION_ITEM ()
   RATIONAL_B_SPLINE_SURFACE (((1., 0.707106781186548, 1., 0.707106781186548, 1., 0.707106781186548, 1., 0.707106781186548, 1.), (1., 0.707106781186548, 1., 0.707106781186548, 1., 0.707106781186548, 1., 0.707106781186548, 1.)))
   REPRESENTATION_ITEM ('')
   SURFACE ()
);
#88 = CARTESIAN_POINT('', (-4., 8.24533808124995E-16, -38.));
#89 = CARTESIAN_POINT('', (-4., 4., -38.));
#90 = CARTESIAN_POINT('', (3.89362017680162E-15, 4., -38.));
#91 = CARTESIAN_POINT('', (4., 4., -38.));
#92 = CARTESIAN_POINT('', (4., -1.66694271801624E-15, -38.));
#93 = CARTESIAN_POINT('', (4., -4., -38.));
#94 = CARTESIAN_POINT('', (1.89200237031932E-15, -4., -38.));
#95 = CARTESIAN_POINT('', (-4., -4., -38.));
#96 = CARTESIAN_POINT('', (-4., 8.24533808124995E-16, -38.));
#97 = CARTESIAN_POINT('', (-4., 2.69422295812418E-16, -0.399999999999999));
#98 = CARTESIAN_POINT('', (-4., 4., -0.399999999999999));
#99 = CARTESIAN_POINT('', (2.32820571208015E-15, 4., -0.399999999999999));
#100 = CARTESIAN_POINT('', (4., 4., -0.399999999999999));
#101 = CARTESIAN_POINT('', (4., -2.22205423032882E-15, -0.399999999999999));
#102 = CARTESIAN_POINT('', (4., -4., -0.399999999999999));
#103 = CARTESIAN_POINT('', (3.2658790559785E-16, -4., -0.399999999999999));
#104 = CARTESIAN_POINT('', (-4., -4., -0.399999999999999));
#105 = CARTESIAN_POINT('', (-4., 2.69422295812418E-16, -0.399999999999999));
#106 = ADVANCED_FACE('', (#107), #126, .T.);
#107 = FACE_OUTER_BOUND('', #108, .T.);
#108 = EDGE_LOOP('', (#109, #117, #124, #125));
#109 = ORIENTED_EDGE('', *, *, #110, .T.);
#110 = EDGE_CURVE('', #72, #111, #113, .T.);
#111 = VERTEX_POINT('', #112);
#112 = CARTESIAN_POINT('', (-3.6, 2.20436423846524E-16, 0.));
#113 = LINE('', #114, #115);
#114 = CARTESIAN_POINT('', (-4., 2.69422295812418E-16, -0.399999999999999));
#115 = VECTOR('', #116, 0.565685424949237);
#116 = DIRECTION('', (0.4, -4.8985871965894E-17, 0.399999999999999));
#117 = ORIENTED_EDGE('', *, *, #118, .T.);
#118 = EDGE_CURVE('', #111, #111, #119, .T.);
#119 = CIRCLE('', #120, 3.6);
#120 = AXIS2_PLACEMENT_3D('', #121, #122, #123);
#121 = CARTESIAN_POINT('', (-4.16333634234434E-17, -3.33066907387547E-16, -1.84889274661175E-32));
#122 = DIRECTION('', (4.27871574431742E-33, 6.12323399573678E-17, -1.));
#123 = DIRECTION('', (-1., 1.53750925342797E-16, 5.13581318503263E-33));
#124 = ORIENTED_EDGE('', *, *, #110, .F.);
#125 = ORIENTED_EDGE('', *, *, #79, .F.);
#126 = (
   BOUNDED_SURFACE ()
   B_SPLINE_SURFACE (1, 2, ((#127, #128, #129, #130, #131, #132, #133, #134, #135), (#136, #137, #138, #139, #140, #141, #142, #143, #144)), .UNSPECIFIED., .F., .T., .U.)
   B_SPLINE_SURFACE_WITH_KNOTS ((2, 2), (3, 2, 2, 2, 3), (0., 1.), (0., 0.25, 0.5, 0.75, 1.), .UNSPECIFIED.)
   GEOMETRIC_REPRESENTATION_ITEM ()
   RATIONAL_B_SPLINE_SURFACE (((1., 0.707106781186548, 1., 0.707106781186548, 1., 0.707106781186548, 1., 0.707106781186548, 1.), (1., 0.707106781186548, 1., 0.707106781186548, 1., 0.707106781186548, 1., 0.707106781186548, 1.)))
   REPRESENTATION_ITEM ('')
   SURFACE ()
);
#127 = CARTESIAN_POINT('', (-4., -2.04953155772919E-15, -0.399999999999999));
#128 = CARTESIAN_POINT('', (-4., 4., -0.400000000000022));
#129 = CARTESIAN_POINT('', (3.28440978118275E-16, 4., -0.400000000000022));
#130 = CARTESIAN_POINT('', (4., 4., -0.400000000000022));
#131 = CARTESIAN_POINT('', (4., -2.78968024081262E-15, -0.399999999999999));
#132 = CARTESIAN_POINT('', (4., -4., -0.399999999999976));
#133 = CARTESIAN_POINT('', (7.81510146937783E-17, -4., -0.399999999999976));
#134 = CARTESIAN_POINT('', (-4., -4., -0.399999999999976));
#135 = CARTESIAN_POINT('', (-4., -2.04953155772919E-15, -0.399999999999999));
#136 = CARTESIAN_POINT('', (-3.6, 2.20436423846524E-16, 0.));
#137 = CARTESIAN_POINT('', (-3.6, 3.6, -2.09832151654155E-14));
#138 = CARTESIAN_POINT('', (2.91433543964104E-16, 3.6, -2.09832151654155E-14));
#139 = CARTESIAN_POINT('', (3.6, 3.6, -2.09832151654155E-14));
#140 = CARTESIAN_POINT('', (3.6, -4.45697390928571E-16, -2.60668058374687E-30));
#141 = CARTESIAN_POINT('', (3.6, -3.6, 2.09832151654155E-14));
#142 = CARTESIAN_POINT('', (6.61725768820564E-17, -3.6, 2.09832151654155E-14));
#143 = CARTESIAN_POINT('', (-3.6, -3.6, 2.09832151654155E-14));
#144 = CARTESIAN_POINT('', (-3.6, 2.20436423846524E-16, 0.));
#145 = ADVANCED_FACE('', (#146), #149, .T.);
#146 = FACE_OUTER_BOUND('', #147, .T.);
#147 = EDGE_LOOP('', (#148));
#148 = ORIENTED_EDGE('', *, *, #118, .F.);
#149 = B_SPLINE_SURFACE_WITH_KNOTS('', 1, 1, ((#150, #151), (#152, #153)), .UNSPECIFIED., .F., .F., .U., (2, 2), (2, 2), (0.0454545454545454, 0.954545454545455), (0.0454545454545454, 0.954545454545454), .UNSPECIFIED.);
#150 = CARTESIAN_POINT('', (3.6, -3.6, -2.20436423846524E-16));
#151 = CARTESIAN_POINT('', (-3.6, -3.6, -2.20436423846524E-16));
#152 = CARTESIAN_POINT('', (3.6, 3.6, 2.20436423846524E-16));
#153 = CARTESIAN_POINT('', (-3.6, 3.6, 2.20436423846524E-16));
#154 = ADVANCED_FACE('', (#155, #158), #169, .T.);
#155 = FACE_OUTER_BOUND('', #156, .T.);
#156 = EDGE_LOOP('', (#157));
#157 = ORIENTED_EDGE('', *, *, #42, .T.);
#158 = FACE_BOUND('', #159, .T.);
#159 = EDGE_LOOP('', (#160));
#160 = ORIENTED_EDGE('', *, *, #161, .F.);
#161 = EDGE_CURVE('', #162, #162, #164, .T.);
#162 = VERTEX_POINT('', #163);
#163 = CARTESIAN_POINT('', (-3.133975, 3.06982060061417E-15, -47.));
#164 = CIRCLE('', #165, 3.133975);
#165 = AXIS2_PLACEMENT_3D('', #166, #167, #168);
#166 = CARTESIAN_POINT('', (-1.38777878078145E-16, 3.33066907387547E-16, -47.));
#167 = DIRECTION('', (0., 0., -1.));
#168 = DIRECTION('', (-1., 8.73253198646008E-16, 0.));
#169 = B_SPLINE_SURFACE_WITH_KNOTS('', 1, 1, ((#170, #171), (#172, #173)), .UNSPECIFIED., .F., .F., .U., (2, 2), (2, 2), (0.0454545454545453, 0.954545454545454), (0.0454545454545452, 0.954545454545454), .UNSPECIFIED.);
#170 = CARTESIAN_POINT('', (4., -4., -47.));
#171 = CARTESIAN_POINT('', (4., 4., -47.));
#172 = CARTESIAN_POINT('', (-4., -4., -47.));
#173 = CARTESIAN_POINT('', (-4., 4., -47.));
#174 = ADVANCED_FACE('', (#175), #186, .T.);
#175 = FACE_OUTER_BOUND('', #176, .T.);
#176 = EDGE_LOOP('', (#177, #183, #184, #185));
#177 = ORIENTED_EDGE('', *, *, #178, .T.);
#178 = EDGE_CURVE('', #8, #162, #179, .T.);
#179 = LINE('', #180, #181);
#180 = CARTESIAN_POINT('', (-3.133975, 4.04953803993205E-15, -63.));
#181 = VECTOR('', #182, 16.);
#182 = DIRECTION('', (0., -9.7971743931788E-16, 16.));
#183 = ORIENTED_EDGE('', *, *, #161, .T.);
#184 = ORIENTED_EDGE('', *, *, #178, .F.);
#185 = ORIENTED_EDGE('', *, *, #7, .F.);
#186 = (
   BOUNDED_SURFACE ()
   B_SPLINE_SURFACE (1, 2, ((#187, #188, #189, #190, #191, #192, #193, #194, #195), (#196, #197, #198, #199, #200, #201, #202, #203, #204)), .UNSPECIFIED., .F., .T., .U.)
   B_SPLINE_SURFACE_WITH_KNOTS ((2, 2), (3, 2, 2, 2, 3), (0., 1.), (0., 4.92283641826703, 9.84567283653405, 14.7685092548011, 19.6913456730681), .UNSPECIFIED.)
   GEOMETRIC_REPRESENTATION_ITEM ()
   RATIONAL_B_SPLINE_SURFACE (((1., 0.707106781186548, 1., 0.707106781186548, 1., 0.707106781186548, 1., 0.707106781186548, 1.), (1., 0.707106781186548, 1., 0.707106781186548, 1., 0.707106781186548, 1., 0.707106781186548, 1.)))
   REPRESENTATION_ITEM ('')
   SURFACE ()
);
#187 = CARTESIAN_POINT('', (-3.133975, 4.06902132277681E-15, -63.));
#188 = CARTESIAN_POINT('', (-3.133975, 3.133975, -63.));
#189 = CARTESIAN_POINT('', (2.40607519253059E-15, 3.133975, -63.));
#190 = CARTESIAN_POINT('', (3.133975, 3.133975, -63.));
#191 = CARTESIAN_POINT('', (3.133975, -1.02068481844065E-15, -63.));
#192 = CARTESIAN_POINT('', (3.133975, -3.133975, -63.));
#193 = CARTESIAN_POINT('', (-2.29982970345109E-15, -3.133975, -63.));
#194 = CARTESIAN_POINT('', (-3.133975, -3.133975, -63.));
#195 = CARTESIAN_POINT('', (-3.133975, 4.06902132277681E-15, -63.));
#196 = CARTESIAN_POINT('', (-3.133975, 3.06982060061417E-15, -47.));
#197 = CARTESIAN_POINT('', (-3.133975, 3.133975, -47.));
#198 = CARTESIAN_POINT('', (2.40607519253059E-15, 3.133975, -47.));
#199 = CARTESIAN_POINT('', (3.133975, 3.133975, -47.));
#200 = CARTESIAN_POINT('', (3.133975, -2.01988554060329E-15, -47.));
#201 = CARTESIAN_POINT('', (3.133975, -3.133975, -47.));
#202 = CARTESIAN_POINT('', (-2.29982970345109E-15, -3.133975, -47.));
#203 = CARTESIAN_POINT('', (-3.133975, -3.133975, -47.));
#204 = CARTESIAN_POINT('', (-3.133975, 3.06982060061417E-15, -47.));
#205 = DRAUGHTING_MODEL('', (#213, #351, #390, #395, #400, #405, #410), #424);
#206 = PRESENTATION_STYLE_ASSIGNMENT((#207));
#207 = SURFACE_STYLE_USAGE(.POSITIVE., #208);
#208 = SURFACE_SIDE_STYLE('', (#209));
#209 = SURFACE_STYLE_FILL_AREA(#210);
#210 = FILL_AREA_STYLE('', (#211));
#211 = FILL_AREA_STYLE_COLOUR('', #212);
#212 = COLOUR_RGB('', 0.50196078431373, 0.50196078431373, 0.50196078431373);
#213 = STYLED_ITEM('', (#206), #1);
#214 = MANIFOLD_SOLID_BREP('CUT', #215);
#215 = CLOSED_SHELL('', (#216, #263, #288, #327));
#216 = ADVANCED_FACE('', (#217), #244, .T.);
#217 = FACE_OUTER_BOUND('', #218, .T.);
#218 = EDGE_LOOP('', (#219, #229, #236, #237));
#219 = ORIENTED_EDGE('', *, *, #220, .F.);
#220 = EDGE_CURVE('', #221, #223, #225, .T.);
#221 = VERTEX_POINT('', #222);
#222 = CARTESIAN_POINT('', (-4., 3.12284933782575E-15, -47.));
#223 = VERTEX_POINT('', #224);
#224 = CARTESIAN_POINT('', (-4., 4.10256677714363E-15, -63.));
#225 = LINE('', #226, #227);
#226 = CARTESIAN_POINT('', (-4., 3.12284933782575E-15, -47.));
#227 = VECTOR('', #228, 16.);
#228 = DIRECTION('', (0., 9.7971743931788E-16, -16.));
#229 = ORIENTED_EDGE('', *, *, #230, .T.);
#230 = EDGE_CURVE('', #221, #221, #231, .T.);
#231 = CIRCLE('', #232, 4.);
#232 = AXIS2_PLACEMENT_3D('', #233, #234, #235);
#233 = CARTESIAN_POINT('', (1.94289029309402E-16, 1.4432899320127E-15, -47.));
#234 = DIRECTION('', (0., 0., -1.));
#235 = DIRECTION('', (-1., 4.19889851453262E-16, 0.));
#236 = ORIENTED_EDGE('', *, *, #220, .T.);
#237 = ORIENTED_EDGE('', *, *, #238, .F.);
#238 = EDGE_CURVE('', #223, #223, #239, .T.);
#239 = CIRCLE('', #240, 4.);
#240 = AXIS2_PLACEMENT_3D('', #241, #242, #243);
#241 = CARTESIAN_POINT('', (1.16573417585641E-15, 9.99200722162641E-16, -63.));
#242 = DIRECTION('', (-1.77635683940025E-15, 5.77905114400124E-15, -1.));
#243 = DIRECTION('', (-1., 7.75841513745247E-16, 1.77635683940025E-15));
#244 = (
   BOUNDED_SURFACE ()
   B_SPLINE_SURFACE (2, 1, ((#245, #246), (#247, #248), (#249, #250), (#251, #252), (#253, #254), (#255, #256), (#257, #258), (#259, #260), (#261, #262)), .UNSPECIFIED., .T., .F., .U.)
   B_SPLINE_SURFACE_WITH_KNOTS ((3, 2, 2, 2, 3), (2, 2), (0., 6.28318530717958, 12.5663706143592, 18.8495559215387, 25.1327412287183), (0., 1.), .UNSPECIFIED.)
   GEOMETRIC_REPRESENTATION_ITEM ()
   RATIONAL_B_SPLINE_SURFACE (((1., 1.), (0.707106781186548, 0.707106781186548), (1., 1.), (0.707106781186548, 0.707106781186548), (1., 1.), (0.707106781186548, 0.707106781186548), (1., 1.), (0.707106781186548, 0.707106781186548), (1., 1.)))
   REPRESENTATION_ITEM ('')
   SURFACE ()
);
#245 = CARTESIAN_POINT('', (-4., 3.12284933782575E-15, -47.));
#246 = CARTESIAN_POINT('', (-4., 4.12205005998839E-15, -63.));
#247 = CARTESIAN_POINT('', (-4., 4., -47.));
#248 = CARTESIAN_POINT('', (-4., 4., -63.));
#249 = CARTESIAN_POINT('', (4.07140972946832E-15, 4., -47.));
#250 = CARTESIAN_POINT('', (4.07140972946832E-15, 4., -63.));
#251 = CARTESIAN_POINT('', (4., 4., -47.));
#252 = CARTESIAN_POINT('', (4., 4., -63.));
#253 = CARTESIAN_POINT('', (4., -2.63299061816681E-15, -47.));
#254 = CARTESIAN_POINT('', (4., -1.63378989600417E-15, -63.));
#255 = CARTESIAN_POINT('', (4., -4., -47.));
#256 = CARTESIAN_POINT('', (4., -4., -63.));
#257 = CARTESIAN_POINT('', (-1.19457150686529E-15, -4., -47.));
#258 = CARTESIAN_POINT('', (-1.19457150686529E-15, -4., -63.));
#259 = CARTESIAN_POINT('', (-4., -4., -47.));
#260 = CARTESIAN_POINT('', (-4., -4., -63.));
#261 = CARTESIAN_POINT('', (-4., 3.12284933782575E-15, -47.));
#262 = CARTESIAN_POINT('', (-4., 4.12205005998839E-15, -63.));
#263 = ADVANCED_FACE('', (#264), #283, .T.);
#264 = FACE_OUTER_BOUND('', #265, .T.);
#265 = EDGE_LOOP('', (#266, #274, #281, #282));
#266 = ORIENTED_EDGE('', *, *, #267, .F.);
#267 = EDGE_CURVE('', #268, #221, #270, .T.);
#268 = VERTEX_POINT('', #269);
#269 = CARTESIAN_POINT('', (-3.133975, 3.06982060061417E-15, -47.));
#270 = LINE('', #271, #272);
#271 = CARTESIAN_POINT('', (-3.133975, 3.06982060061417E-15, -47.));
#272 = VECTOR('', #273, 0.866025);
#273 = DIRECTION('', (-0.866025, 5.30287372115797E-17, 0.));
#274 = ORIENTED_EDGE('', *, *, #275, .T.);
#275 = EDGE_CURVE('', #268, #268, #276, .T.);
#276 = CIRCLE('', #277, 3.133975);
#277 = AXIS2_PLACEMENT_3D('', #278, #279, #280);
#278 = CARTESIAN_POINT('', (-1.38777878078145E-16, 3.33066907387547E-16, -47.));
#279 = DIRECTION('', (0., 0., -1.));
#280 = DIRECTION('', (-1., 8.73253198646008E-16, 0.));
#281 = ORIENTED_EDGE('', *, *, #267, .T.);
#282 = ORIENTED_EDGE('', *, *, #230, .F.);
#283 = B_SPLINE_SURFACE_WITH_KNOTS('', 1, 1, ((#284, #285), (#286, #287)), .UNSPECIFIED., .F., .F., .U., (2, 2), (2, 2), (0., 1.), (0., 1.), .UNSPECIFIED.);
#284 = CARTESIAN_POINT('', (4.4, -4.4, -47.));
#285 = CARTESIAN_POINT('', (-4.4, -4.4, -47.));
#286 = CARTESIAN_POINT('', (4.4, 4.4, -47.));
#287 = CARTESIAN_POINT('', (-4.4, 4.4, -47.));
#288 = ADVANCED_FACE('', (#289), #308, .T.);
#289 = FACE_OUTER_BOUND('', #290, .T.);
#290 = EDGE_LOOP('', (#291, #299, #306, #307));
#291 = ORIENTED_EDGE('', *, *, #292, .F.);
#292 = EDGE_CURVE('', #293, #268, #295, .T.);
#293 = VERTEX_POINT('', #294);
#294 = CARTESIAN_POINT('', (-3.133975, 4.04953803993205E-15, -63.));
#295 = LINE('', #296, #297);
#296 = CARTESIAN_POINT('', (-3.133975, 4.04953803993205E-15, -63.));
#297 = VECTOR('', #298, 16.);
#298 = DIRECTION('', (0., -9.7971743931788E-16, 16.));
#299 = ORIENTED_EDGE('', *, *, #300, .T.);
#300 = EDGE_CURVE('', #293, #293, #301, .T.);
#301 = CIRCLE('', #302, 3.133975);
#302 = AXIS2_PLACEMENT_3D('', #303, #304, #305);
#303 = CARTESIAN_POINT('', (-1.66533453693773E-16, 1.33226762955019E-15, -63.));
#304 = DIRECTION('', (-6.6905615521368E-30, -7.7165866747179E-15, -1.));
#305 = DIRECTION('', (-1., 8.67036402773431E-16, 0.));
#306 = ORIENTED_EDGE('', *, *, #292, .T.);
#307 = ORIENTED_EDGE('', *, *, #275, .F.);
#308 = (
   BOUNDED_SURFACE ()
   B_SPLINE_SURFACE (2, 1, ((#309, #310), (#311, #312), (#313, #314), (#315, #316), (#317, #318), (#319, #320), (#321, #322), (#323, #324), (#325, #326)), .UNSPECIFIED., .T., .F., .U.)
   B_SPLINE_SURFACE_WITH_KNOTS ((3, 2, 2, 2, 3), (2, 2), (0., 4.92283641826703, 9.84567283653405, 14.7685092548011, 19.6913456730681), (0., 1.), .UNSPECIFIED.)
   GEOMETRIC_REPRESENTATION_ITEM ()
   RATIONAL_B_SPLINE_SURFACE (((1., 1.), (0.707106781186548, 0.707106781186548), (1., 1.), (0.707106781186548, 0.707106781186548), (1., 1.), (0.707106781186548, 0.707106781186548), (1., 1.), (0.707106781186548, 0.707106781186548), (1., 1.)))
   REPRESENTATION_ITEM ('')
   SURFACE ()
);
#309 = CARTESIAN_POINT('', (-3.133975, 4.06902132277681E-15, -63.));
#310 = CARTESIAN_POINT('', (-3.133975, 3.06982060061417E-15, -47.));
#311 = CARTESIAN_POINT('', (-3.133975, 3.133975, -63.));
#312 = CARTESIAN_POINT('', (-3.133975, 3.133975, -47.));
#313 = CARTESIAN_POINT('', (2.40607519253059E-15, 3.133975, -63.));
#314 = CARTESIAN_POINT('', (2.40607519253059E-15, 3.133975, -47.));
#315 = CARTESIAN_POINT('', (3.133975, 3.133975, -63.));
#316 = CARTESIAN_POINT('', (3.133975, 3.133975, -47.));
#317 = CARTESIAN_POINT('', (3.133975, -1.02068481844065E-15, -63.));
#318 = CARTESIAN_POINT('', (3.133975, -2.01988554060329E-15, -47.));
#319 = CARTESIAN_POINT('', (3.133975, -3.133975, -63.));
#320 = CARTESIAN_POINT('', (3.133975, -3.133975, -47.));
#321 = CARTESIAN_POINT('', (-2.29982970345109E-15, -3.133975, -63.));
#322 = CARTESIAN_POINT('', (-2.29982970345109E-15, -3.133975, -47.));
#323 = CARTESIAN_POINT('', (-3.133975, -3.133975, -63.));
#324 = CARTESIAN_POINT('', (-3.133975, -3.133975, -47.));
#325 = CARTESIAN_POINT('', (-3.133975, 4.06902132277681E-15, -63.));
#326 = CARTESIAN_POINT('', (-3.133975, 3.06982060061417E-15, -47.));
#327 = ADVANCED_FACE('', (#328), #339, .T.);
#328 = FACE_OUTER_BOUND('', #329, .T.);
#329 = EDGE_LOOP('', (#330, #336, #337, #338));
#330 = ORIENTED_EDGE('', *, *, #331, .F.);
#331 = EDGE_CURVE('', #223, #293, #332, .T.);
#332 = LINE('', #333, #334);
#333 = CARTESIAN_POINT('', (-4., 4.10256677714363E-15, -63.));
#334 = VECTOR('', #335, 0.866025);
#335 = DIRECTION('', (0.866025, -5.30287372115797E-17, 0.));
#336 = ORIENTED_EDGE('', *, *, #238, .T.);
#337 = ORIENTED_EDGE('', *, *, #331, .T.);
#338 = ORIENTED_EDGE('', *, *, #300, .F.);
#339 = B_SPLINE_SURFACE_WITH_KNOTS('', 1, 1, ((#340, #341), (#342, #343)), .UNSPECIFIED., .F., .F., .U., (2, 2), (2, 2), (0., 1.), (0., 1.), .UNSPECIFIED.);
#340 = CARTESIAN_POINT('', (4.4, -4.4, -63.));
#341 = CARTESIAN_POINT('', (4.4, 4.4, -63.));
#342 = CARTESIAN_POINT('', (-4.4, -4.4, -63.));
#343 = CARTESIAN_POINT('', (-4.4, 4.4, -63.));
#344 = PRESENTATION_STYLE_ASSIGNMENT((#345));
#345 = SURFACE_STYLE_USAGE(.POSITIVE., #346);
#346 = SURFACE_SIDE_STYLE('', (#347));
#347 = SURFACE_STYLE_FILL_AREA(#348);
#348 = FILL_AREA_STYLE('', (#349));
#349 = FILL_AREA_STYLE_COLOUR('', #350);
#350 = COLOUR_RGB('', 0.8, 0.8, 0.8);
#351 = STYLED_ITEM('', (#344), #214);
#352 = TRIMMED_CURVE('cutting part line', #353, (#357), (#358), .T., .CARTESIAN.);
#353 = LINE('', #354, #355);
#354 = CARTESIAN_POINT('', (4., 0., -47.));
#355 = VECTOR('', #356, 0.866024999999999);
#356 = DIRECTION('', (-0.866024999999999, 0., 0.));
#357 = CARTESIAN_POINT('', (4., 0., -47.));
#358 = CARTESIAN_POINT('', (3.133975, 0., -47.));
#359 = TRIMMED_CURVE('cutting part line', #360, (#364), (#365), .T., .CARTESIAN.);
#360 = LINE('', #361, #362);
#361 = CARTESIAN_POINT('', (3.133975, 0., -47.));
#362 = VECTOR('', #363, 16.);
#363 = DIRECTION('', (0., 9.99048539052918E-16, -16.));
#364 = CARTESIAN_POINT('', (3.133975, 0., -47.));
#365 = CARTESIAN_POINT('', (3.133975, 9.99048539052918E-16, -63.));
#366 = TRIMMED_CURVE('cutting part line', #367, (#371), (#372), .T., .CARTESIAN.);
#367 = LINE('', #368, #369);
#368 = CARTESIAN_POINT('', (3.133975, 0., -63.));
#369 = VECTOR('', #370, 0.866024999999998);
#370 = DIRECTION('', (0.866024999999998, 0., 7.105427357601E-15));
#371 = CARTESIAN_POINT('', (3.133975, 0., -63.));
#372 = CARTESIAN_POINT('', (4., 0., -63.));
#373 = TRIMMED_CURVE('cutting part line', #374, (#378), (#379), .T., .CARTESIAN.);
#374 = LINE('', #375, #376);
#375 = CARTESIAN_POINT('', (4., 9.99048539052918E-16, -63.));
#376 = VECTOR('', #377, 16.);
#377 = DIRECTION('', (0., -9.99048539052918E-16, 16.));
#378 = CARTESIAN_POINT('', (4., 9.99048539052918E-16, -63.));
#379 = CARTESIAN_POINT('', (4., 0., -47.));
#380 = COMPOSITE_CURVE('cutting part line', (#381, #382, #383, #384), .U.);
#381 = COMPOSITE_CURVE_SEGMENT(.CONTINUOUS., .T., #352);
#382 = COMPOSITE_CURVE_SEGMENT(.CONTINUOUS., .T., #359);
#383 = COMPOSITE_CURVE_SEGMENT(.CONTINUOUS., .T., #366);
#384 = COMPOSITE_CURVE_SEGMENT(.CONTINUOUS., .T., #373);
#385 = GEOMETRIC_SET('', (#380, #423));
#386 = PRESENTATION_STYLE_ASSIGNMENT((#387));
#387 = CURVE_STYLE('', #389, POSITIVE_LENGTH_MEASURE(1.E-6), #388);
#388 = COLOUR_RGB('', 0., 0., 1.);
#389 = DRAUGHTING_PRE_DEFINED_CURVE_FONT('continuous');
#390 = STYLED_ITEM('', (#386), #380);
#391 = PRESENTATION_STYLE_ASSIGNMENT((#392));
#392 = CURVE_STYLE('', #394, POSITIVE_LENGTH_MEASURE(1.E-6), #393);
#393 = COLOUR_RGB('', 0., 0., 1.);
#394 = DRAUGHTING_PRE_DEFINED_CURVE_FONT('continuous');
#395 = OVER_RIDING_STYLED_ITEM('', (#391), #352, #390);
#396 = PRESENTATION_STYLE_ASSIGNMENT((#397));
#397 = CURVE_STYLE('', #399, POSITIVE_LENGTH_MEASURE(1.E-6), #398);
#398 = COLOUR_RGB('', 0., 0., 1.);
#399 = DRAUGHTING_PRE_DEFINED_CURVE_FONT('continuous');
#400 = OVER_RIDING_STYLED_ITEM('', (#396), #359, #390);
#401 = PRESENTATION_STYLE_ASSIGNMENT((#402));
#402 = CURVE_STYLE('', #404, POSITIVE_LENGTH_MEASURE(1.E-6), #403);
#403 = COLOUR_RGB('', 0., 0., 1.);
#404 = DRAUGHTING_PRE_DEFINED_CURVE_FONT('continuous');
#405 = OVER_RIDING_STYLED_ITEM('', (#401), #366, #390);
#406 = PRESENTATION_STYLE_ASSIGNMENT((#407));
#407 = CURVE_STYLE('', #409, POSITIVE_LENGTH_MEASURE(1.E-6), #408);
#408 = COLOUR_RGB('', 0., 0., 1.);
#409 = DRAUGHTING_PRE_DEFINED_CURVE_FONT('continuous');
#410 = OVER_RIDING_STYLED_ITEM('', (#406), #373, #390);
#411 = AXIS2_PLACEMENT_3D('MCS', #412, #413, #414);
#412 = CARTESIAN_POINT('', (0., 0., -36.));
#413 = DIRECTION('', (0., 0., 1.));
#414 = DIRECTION('', (1., 0., 0.));
#415 = AXIS2_PLACEMENT_3D('PCS', #416, #417, #418);
#416 = CARTESIAN_POINT('', (0., 0., 0.));
#417 = DIRECTION('', (0., 0., 1.));
#418 = DIRECTION('', (1., 0., 0.));
#419 = AXIS2_PLACEMENT_3D('CIP', #420, #421, #422);
#420 = CARTESIAN_POINT('', (0., 0., -63.));
#421 = DIRECTION('', (0., 0., 1.));
#422 = DIRECTION('', (1., 0., 0.));
#423 = CARTESIAN_POINT('CRP', (4., 0., -63.));
#424 = (
   GEOMETRIC_REPRESENTATION_CONTEXT (3)
   GLOBAL_UNCERTAINTY_ASSIGNED_CONTEXT ((#426))
   GLOBAL_UNIT_ASSIGNED_CONTEXT ((#425, #427, #428))
   REPRESENTATION_CONTEXT ('', '3D')
);
#425 = (
   LENGTH_UNIT ()
   NAMED_UNIT (*)
   SI_UNIT (.MILLI., .METRE.)
);
#426 = UNCERTAINTY_MEASURE_WITH_UNIT(LENGTH_MEASURE(1.E-6), #425, 'DISTANCE_ACCURACY_VALUE', '');
#427 = (
   NAMED_UNIT (*)
   SI_UNIT ($, .STERADIAN.)
   SOLID_ANGLE_UNIT ()
);
#428 = (
   NAMED_UNIT (*)
   PLANE_ANGLE_UNIT ()
   SI_UNIT ($, .RADIAN.)
);
#429 = SHAPE_REPRESENTATION('', (), #424);
#430 = PRODUCT_DEFINITION_SHAPE('', '', #431);
#431 = PRODUCT_DEFINITION('', '', #434, #438);
#432 = APPLICATION_CONTEXT('configuration controlled 3D designs of mechanical parts and assemblies');
#433 = APPLICATION_PROTOCOL_DEFINITION('International Standard', 'automotive_design', 2002, #432);
#434 = PRODUCT_DEFINITION_FORMATION_WITH_SPECIFIED_SOURCE('', '', #435, .NOT_KNOWN.);
#435 = PRODUCT('product-name', 'R217.14-080100AC16N 1630', '', (#436));
#436 = PRODUCT_CONTEXT('', #432, 'mechanical');
#437 = PRODUCT_RELATED_PRODUCT_CATEGORY('detail', '', (#435));
#438 = PRODUCT_DEFINITION_CONTEXT('part definition', #432, 'design');
#439 = SHAPE_DEFINITION_REPRESENTATION(#430, #429);
#440 = CONSTRUCTIVE_GEOMETRY_REPRESENTATION('supplemental geometry', (#411, #415, #419), #424);
#441 = CONSTRUCTIVE_GEOMETRY_REPRESENTATION_RELATIONSHIP('', '', #429, #440);
#442 = SHAPE_REPRESENTATION_RELATIONSHIP('', '', #429, #443);
#443 = SHAPE_REPRESENTATION('', (#385), #424);
#444 = SHAPE_REPRESENTATION_RELATIONSHIP('', '', #429, #445);
#445 = ADVANCED_BREP_SHAPE_REPRESENTATION('', (#1, #214), #424);
ENDSEC;
END-ISO-10303-21;
