ISO-10303-21;
HEADER;
FILE_DESCRIPTION(('STEP'), '1');
FILE_NAME('C:\\Users\\ds2002\\OneDrive - Sandvik\\HomeShare\\Documents\\Batchrepair\\CorSRT2\\NEW_MILTH_SLDAC\\Output\\MOD000000000000000020084659900000.stp', '2019-01-04T10:05:21', (''), (''), 'Express v3.0.0.0', 'Express Tool', 'Unknown');
FILE_SCHEMA(('AUTOMOTIVE_DESIGN'));
ENDSEC;

DATA;
#1 = MANIFOLD_SOLID_BREP('NOCUT', #2);
#2 = CLOSED_SHELL('', (#3, #20, #67, #106, #145, #154, #174));
#3 = ADVANCED_FACE('', (#4), #15, .T.);
#4 = FACE_OUTER_BOUND('', #5, .T.);
#5 = EDGE_LOOP('', (#6));
#6 = ORIENTED_EDGE('', *, *, #7, .T.);
#7 = EDGE_CURVE('', #8, #8, #10, .T.);
#8 = VERTEX_POINT('', #9);
#9 = CARTESIAN_POINT('', (-2.16746875, 4.54144766027744E-15, -72.));
#10 = CIRCLE('', #11, 2.16746875);
#11 = AXIS2_PLACEMENT_3D('', #12, #13, #14);
#12 = CARTESIAN_POINT('', (7.49400541621981E-16, 1.55431223447522E-15, -72.));
#13 = DIRECTION('', (0., 0., -1.));
#14 = DIRECTION('', (-1., 1.3781677017499E-15, 0.));
#15 = B_SPLINE_SURFACE_WITH_KNOTS('', 1, 1, ((#16, #17), (#18, #19)), .UNSPECIFIED., .F., .F., .U., (2, 2), (2, 2), (0.196857517482517, 0.803142482517483), (0.196857517482517, 0.803142482517483), .UNSPECIFIED.);
#16 = CARTESIAN_POINT('', (2.16746875, -2.16746875, -72.));
#17 = CARTESIAN_POINT('', (2.16746875, 2.16746875000001, -72.));
#18 = CARTESIAN_POINT('', (-2.16746875, -2.16746875, -72.));
#19 = CARTESIAN_POINT('', (-2.16746875, 2.16746875000001, -72.));
#20 = ADVANCED_FACE('', (#21), #48, .T.);
#21 = FACE_OUTER_BOUND('', #22, .T.);
#22 = EDGE_LOOP('', (#23, #33, #40, #41));
#23 = ORIENTED_EDGE('', *, *, #24, .F.);
#24 = EDGE_CURVE('', #25, #27, #29, .T.);
#25 = VERTEX_POINT('', #26);
#26 = CARTESIAN_POINT('', (-5., 3.49085570096953E-15, -52.01));
#27 = VERTEX_POINT('', #28);
#28 = CARTESIAN_POINT('', (-3.25, 3.49085570096953E-15, -53.76));
#29 = LINE('', #30, #31);
#30 = CARTESIAN_POINT('', (-5., 3.49085570096953E-15, -52.01));
#31 = VECTOR('', #32, 2.47487373415292);
#32 = DIRECTION('', (1.75, 0., -1.75));
#33 = ORIENTED_EDGE('', *, *, #34, .T.);
#34 = EDGE_CURVE('', #25, #25, #35, .T.);
#35 = CIRCLE('', #36, 5.);
#36 = AXIS2_PLACEMENT_3D('', #37, #38, #39);
#37 = CARTESIAN_POINT('', (-1.11022302462516E-16, -3.66373598126302E-15, -52.01));
#38 = DIRECTION('', (0., 0., -1.));
#39 = DIRECTION('', (-1., 1.43091833644651E-15, 0.));
#40 = ORIENTED_EDGE('', *, *, #24, .T.);
#41 = ORIENTED_EDGE('', *, *, #42, .F.);
#42 = EDGE_CURVE('', #27, #27, #43, .T.);
#43 = CIRCLE('', #44, 3.25);
#44 = AXIS2_PLACEMENT_3D('', #45, #46, #47);
#45 = CARTESIAN_POINT('', (1.80411241501588E-16, 1.22124532708767E-15, -53.76));
#46 = DIRECTION('', (0., 0., -1.));
#47 = DIRECTION('', (-1., 6.9834165350211E-16, 0.));
#48 = (
   BOUNDED_SURFACE ()
   B_SPLINE_SURFACE (2, 1, ((#49, #50), (#51, #52), (#53, #54), (#55, #56), (#57, #58), (#59, #60), (#61, #62), (#63, #64), (#65, #66)), .UNSPECIFIED., .T., .F., .U.)
   B_SPLINE_SURFACE_WITH_KNOTS ((3, 2, 2, 2, 3), (2, 2), (0., 0.25, 0.5, 0.75, 1.), (0., 1.), .UNSPECIFIED.)
   GEOMETRIC_REPRESENTATION_ITEM ()
   RATIONAL_B_SPLINE_SURFACE (((1., 1.), (0.707106781186548, 0.707106781186548), (1., 1.), (0.707106781186548, 0.707106781186548), (1., 1.), (0.707106781186548, 0.707106781186548), (1., 1.), (0.707106781186548, 0.707106781186548), (1., 1.)))
   REPRESENTATION_ITEM ('')
   SURFACE ()
);
#49 = CARTESIAN_POINT('', (-5., 3.49085570096953E-15, -52.01));
#50 = CARTESIAN_POINT('', (-3.25, 5.87172992053883E-15, -53.76));
#51 = CARTESIAN_POINT('', (-4.99999999999999, 5., -52.01));
#52 = CARTESIAN_POINT('', (-3.25, 3.25000000000001, -53.76));
#53 = CARTESIAN_POINT('', (6.73740767998319E-15, 5., -52.01));
#54 = CARTESIAN_POINT('', (4.3404571861272E-15, 3.25, -53.76));
#55 = CARTESIAN_POINT('', (5.00000000000001, 4.99999999999999, -52.01));
#56 = CARTESIAN_POINT('', (3.25, 3.25, -53.76));
#57 = CARTESIAN_POINT('', (5., -1.02060042639219E-14, -52.01));
#58 = CARTESIAN_POINT('', (3.25, -3.03122905664059E-15, -53.76));
#59 = CARTESIAN_POINT('', (4.99999999999999, -5.00000000000001, -52.01));
#60 = CARTESIAN_POINT('', (3.25, -3.25, -53.76));
#61 = CARTESIAN_POINT('', (-6.34712888533455E-15, -5., -52.01));
#62 = CARTESIAN_POINT('', (-4.16449158132933E-15, -3.25, -53.76));
#63 = CARTESIAN_POINT('', (-5.00000000000001, -5., -52.01));
#64 = CARTESIAN_POINT('', (-3.25, -3.24999999999999, -53.76));
#65 = CARTESIAN_POINT('', (-5., 3.49085570096953E-15, -52.01));
#66 = CARTESIAN_POINT('', (-3.25, 5.87172992053883E-15, -53.76));
#67 = ADVANCED_FACE('', (#68), #87, .T.);
#68 = FACE_OUTER_BOUND('', #69, .T.);
#69 = EDGE_LOOP('', (#70, #78, #85, #86));
#70 = ORIENTED_EDGE('', *, *, #71, .T.);
#71 = EDGE_CURVE('', #25, #72, #74, .T.);
#72 = VERTEX_POINT('', #73);
#73 = CARTESIAN_POINT('', (-5., 3.36777869765522E-16, -0.5));
#74 = LINE('', #75, #76);
#75 = CARTESIAN_POINT('', (-5., 3.49085570096953E-15, -52.01));
#76 = VECTOR('', #77, 51.51);
#77 = DIRECTION('', (0., -3.15407783120401E-15, 51.51));
#78 = ORIENTED_EDGE('', *, *, #79, .T.);
#79 = EDGE_CURVE('', #72, #72, #80, .T.);
#80 = CIRCLE('', #81, 5.);
#81 = AXIS2_PLACEMENT_3D('', #82, #83, #84);
#82 = CARTESIAN_POINT('', (8.88178419700125E-16, -1.99840144432528E-15, -0.5));
#83 = DIRECTION('', (0., 0., -1.));
#84 = DIRECTION('', (-1., 4.67035862818161E-16, 0.));
#85 = ORIENTED_EDGE('', *, *, #71, .F.);
#86 = ORIENTED_EDGE('', *, *, #34, .F.);
#87 = (
   BOUNDED_SURFACE ()
   B_SPLINE_SURFACE (1, 2, ((#88, #89, #90, #91, #92, #93, #94, #95, #96), (#97, #98, #99, #100, #101, #102, #103, #104, #105)), .UNSPECIFIED., .F., .T., .U.)
   B_SPLINE_SURFACE_WITH_KNOTS ((2, 2), (3, 2, 2, 2, 3), (0., 1.), (0., 7.85398163397448, 15.707963267949, 23.5619449019234, 31.4159265358979), .UNSPECIFIED.)
   GEOMETRIC_REPRESENTATION_ITEM ()
   RATIONAL_B_SPLINE_SURFACE (((1., 0.707106781186548, 1., 0.707106781186548, 1., 0.707106781186548, 1., 0.707106781186548, 1.), (1., 0.707106781186548, 1., 0.707106781186548, 1., 0.707106781186548, 1., 0.707106781186548, 1.)))
   REPRESENTATION_ITEM ('')
   SURFACE ()
);
#88 = CARTESIAN_POINT('', (-5., -4.40378247472088E-16, -52.01));
#89 = CARTESIAN_POINT('', (-5., 5., -52.01));
#90 = CARTESIAN_POINT('', (2.91719603400409E-15, 5., -52.01));
#91 = CARTESIAN_POINT('', (5., 5., -52.01));
#92 = CARTESIAN_POINT('', (5., -4.49841347608002E-15, -52.01));
#93 = CARTESIAN_POINT('', (5., -5., -52.01));
#94 = CARTESIAN_POINT('', (-5.28515795030164E-16, -5., -52.01));
#95 = CARTESIAN_POINT('', (-5., -5., -52.01));
#96 = CARTESIAN_POINT('', (-5., -4.40378247472088E-16, -52.01));
#97 = CARTESIAN_POINT('', (-5., 3.36777869765522E-16, -0.5));
#98 = CARTESIAN_POINT('', (-5., 5., -0.5));
#99 = CARTESIAN_POINT('', (2.91719603400409E-15, 5., -0.5));
#100 = CARTESIAN_POINT('', (5., 5., -0.5));
#101 = CARTESIAN_POINT('', (5., -3.72125735884241E-15, -0.5));
#102 = CARTESIAN_POINT('', (5., -5., -0.5));
#103 = CARTESIAN_POINT('', (-5.28515795030163E-16, -5., -0.5));
#104 = CARTESIAN_POINT('', (-5., -5., -0.5));
#105 = CARTESIAN_POINT('', (-5., 3.36777869765522E-16, -0.5));
#106 = ADVANCED_FACE('', (#107), #126, .T.);
#107 = FACE_OUTER_BOUND('', #108, .T.);
#108 = EDGE_LOOP('', (#109, #117, #124, #125));
#109 = ORIENTED_EDGE('', *, *, #110, .T.);
#110 = EDGE_CURVE('', #72, #111, #113, .T.);
#111 = VERTEX_POINT('', #112);
#112 = CARTESIAN_POINT('', (-4.5, 2.75545529808154E-16, 0.));
#113 = LINE('', #114, #115);
#114 = CARTESIAN_POINT('', (-5., 3.36777869765522E-16, -0.5));
#115 = VECTOR('', #116, 0.707106781186548);
#116 = DIRECTION('', (0.5, -6.1232339957368E-17, 0.5));
#117 = ORIENTED_EDGE('', *, *, #118, .T.);
#118 = EDGE_CURVE('', #111, #111, #119, .T.);
#119 = CIRCLE('', #120, 4.5);
#120 = AXIS2_PLACEMENT_3D('', #121, #122, #123);
#121 = CARTESIAN_POINT('', (2.28983498828939E-15, 0., -1.84889274661175E-32));
#122 = DIRECTION('', (-3.59251091371472E-34, 6.12323399573676E-17, -1.));
#123 = DIRECTION('', (-1., 6.12323399573675E-17, 4.1086505480261E-33));
#124 = ORIENTED_EDGE('', *, *, #110, .F.);
#125 = ORIENTED_EDGE('', *, *, #79, .F.);
#126 = (
   BOUNDED_SURFACE ()
   B_SPLINE_SURFACE (1, 2, ((#127, #128, #129, #130, #131, #132, #133, #134, #135), (#136, #137, #138, #139, #140, #141, #142, #143, #144)), .UNSPECIFIED., .F., .T., .U.)
   B_SPLINE_SURFACE_WITH_KNOTS ((2, 2), (3, 2, 2, 2, 3), (0., 1.), (0., 0.25, 0.5, 0.75, 1.), .UNSPECIFIED.)
   GEOMETRIC_REPRESENTATION_ITEM ()
   RATIONAL_B_SPLINE_SURFACE (((1., 0.707106781186548, 1., 0.707106781186548, 1., 0.707106781186548, 1., 0.707106781186548, 1.), (1., 0.707106781186548, 1., 0.707106781186548, 1., 0.707106781186548, 1., 0.707106781186548, 1.)))
   REPRESENTATION_ITEM ('')
   SURFACE ()
);
#127 = CARTESIAN_POINT('', (-5., -2.69144046670109E-15, -0.5));
#128 = CARTESIAN_POINT('', (-5., 5., -0.50000000000003));
#129 = CARTESIAN_POINT('', (2.28983498828938E-15, 5., -0.50000000000003));
#130 = CARTESIAN_POINT('', (5., 5., -0.50000000000003));
#131 = CARTESIAN_POINT('', (5., -2.69144046670108E-15, -0.5));
#132 = CARTESIAN_POINT('', (5., -5., -0.49999999999997));
#133 = CARTESIAN_POINT('', (2.90215838786306E-15, -5., -0.49999999999997));
#134 = CARTESIAN_POINT('', (-5., -5., -0.49999999999997));
#135 = CARTESIAN_POINT('', (-5., -2.69144046670109E-15, -0.5));
#136 = CARTESIAN_POINT('', (-4.5, 2.75545529808154E-16, -5.47382212626882E-48));
#137 = CARTESIAN_POINT('', (-4.5, 4.5, -2.69784194983913E-14));
#138 = CARTESIAN_POINT('', (2.28983498828938E-15, 4.5, -2.69784194983913E-14));
#139 = CARTESIAN_POINT('', (4.5, 4.5, -2.69784194983913E-14));
#140 = CARTESIAN_POINT('', (4.5, 2.75545529808155E-16, -3.34088136340818E-30));
#141 = CARTESIAN_POINT('', (4.5, -4.5, 2.69784194983913E-14));
#142 = CARTESIAN_POINT('', (2.8409260479057E-15, -4.5, 2.69784194983913E-14));
#143 = CARTESIAN_POINT('', (-4.5, -4.5, 2.69784194983913E-14));
#144 = CARTESIAN_POINT('', (-4.5, 2.75545529808154E-16, -5.47382212626882E-48));
#145 = ADVANCED_FACE('', (#146), #149, .T.);
#146 = FACE_OUTER_BOUND('', #147, .T.);
#147 = EDGE_LOOP('', (#148));
#148 = ORIENTED_EDGE('', *, *, #118, .F.);
#149 = B_SPLINE_SURFACE_WITH_KNOTS('', 1, 1, ((#150, #151), (#152, #153)), .UNSPECIFIED., .F., .F., .U., (2, 2), (2, 2), (0.0454545454545454, 0.954545454545454), (0.0454545454545454, 0.954545454545454), .UNSPECIFIED.);
#150 = CARTESIAN_POINT('', (4.5, -4.5, -2.75545529808155E-16));
#151 = CARTESIAN_POINT('', (-4.5, -4.5, -2.75545529808154E-16));
#152 = CARTESIAN_POINT('', (4.5, 4.5, 2.75545529808154E-16));
#153 = CARTESIAN_POINT('', (-4.5, 4.5, 2.75545529808155E-16));
#154 = ADVANCED_FACE('', (#155, #158), #169, .T.);
#155 = FACE_OUTER_BOUND('', #156, .T.);
#156 = EDGE_LOOP('', (#157));
#157 = ORIENTED_EDGE('', *, *, #42, .T.);
#158 = FACE_BOUND('', #159, .T.);
#159 = EDGE_LOOP('', (#160));
#160 = ORIENTED_EDGE('', *, *, #161, .F.);
#161 = EDGE_CURVE('', #162, #162, #164, .T.);
#162 = VERTEX_POINT('', #163);
#163 = CARTESIAN_POINT('', (-2.16746875, 3.42456977945506E-15, -53.76));
#164 = CIRCLE('', #165, 2.16746875);
#165 = AXIS2_PLACEMENT_3D('', #166, #167, #168);
#166 = CARTESIAN_POINT('', (-2.77555756156289E-16, 1.49880108324396E-15, -53.76));
#167 = DIRECTION('', (-9.91332170361223E-30, -1.11575263652125E-14, -1.));
#168 = DIRECTION('', (-1., 8.8848741012349E-16, 0.));
#169 = B_SPLINE_SURFACE_WITH_KNOTS('', 1, 1, ((#170, #171), (#172, #173)), .UNSPECIFIED., .F., .F., .U., (2, 2), (2, 2), (0.0454545454545452, 0.954545454545454), (0.0454545454545451, 0.954545454545455), .UNSPECIFIED.);
#170 = CARTESIAN_POINT('', (3.25, -3.25, -53.76));
#171 = CARTESIAN_POINT('', (3.25, 3.25, -53.76));
#172 = CARTESIAN_POINT('', (-3.25, -3.25, -53.76));
#173 = CARTESIAN_POINT('', (-3.25, 3.25, -53.76));
#174 = ADVANCED_FACE('', (#175), #186, .T.);
#175 = FACE_OUTER_BOUND('', #176, .T.);
#176 = EDGE_LOOP('', (#177, #183, #184, #185));
#177 = ORIENTED_EDGE('', *, *, #178, .T.);
#178 = EDGE_CURVE('', #8, #162, #179, .T.);
#179 = LINE('', #180, #181);
#180 = CARTESIAN_POINT('', (-2.16746875, 4.54144766027744E-15, -72.));
#181 = VECTOR('', #182, 18.24);
#182 = DIRECTION('', (0., -1.11687788082238E-15, 18.24));
#183 = ORIENTED_EDGE('', *, *, #161, .T.);
#184 = ORIENTED_EDGE('', *, *, #178, .F.);
#185 = ORIENTED_EDGE('', *, *, #7, .F.);
#186 = (
   BOUNDED_SURFACE ()
   B_SPLINE_SURFACE (1, 2, ((#187, #188, #189, #190, #191, #192, #193, #194, #195), (#196, #197, #198, #199, #200, #201, #202, #203, #204)), .UNSPECIFIED., .F., .T., .U.)
   B_SPLINE_SURFACE_WITH_KNOTS ((2, 2), (3, 2, 2, 2, 3), (0., 1.), (0., 3.40465195094273, 6.80930390188545, 10.2139558528282, 13.6186078037709), .UNSPECIFIED.)
   GEOMETRIC_REPRESENTATION_ITEM ()
   RATIONAL_B_SPLINE_SURFACE (((1., 0.707106781186548, 1., 0.707106781186548, 1., 0.707106781186548, 1., 0.707106781186548, 1.), (1., 0.707106781186548, 1., 0.707106781186548, 1., 0.707106781186548, 1., 0.707106781186548, 1.)))
   REPRESENTATION_ITEM ('')
   SURFACE ()
);
#187 = CARTESIAN_POINT('', (-2.16746875, 3.48008093068632E-15, -72.));
#188 = CARTESIAN_POINT('', (-2.16746875, 2.16746875, -72.));
#189 = CARTESIAN_POINT('', (1.51549375670784E-15, 2.16746875, -72.));
#190 = CARTESIAN_POINT('', (2.16746875, 2.16746875, -72.));
#191 = CARTESIAN_POINT('', (2.16746875, -1.06018095041938E-16, -72.));
#192 = CARTESIAN_POINT('', (2.16746875, -2.16746875, -72.));
#193 = CARTESIAN_POINT('', (-1.80516690232648E-15, -2.16746875, -72.));
#194 = CARTESIAN_POINT('', (-2.16746875, -2.16746875, -72.));
#195 = CARTESIAN_POINT('', (-2.16746875, 3.48008093068632E-15, -72.));
#196 = CARTESIAN_POINT('', (-2.16746875, 3.42456977945506E-15, -53.76));
#197 = CARTESIAN_POINT('', (-2.16746875, 2.16746875, -53.76));
#198 = CARTESIAN_POINT('', (1.51549375670784E-15, 2.16746875, -53.76));
#199 = CARTESIAN_POINT('', (2.16746875, 2.16746875, -53.76));
#200 = CARTESIAN_POINT('', (2.16746875, -1.61529246273197E-16, -53.76));
#201 = CARTESIAN_POINT('', (2.16746875, -2.16746875, -53.76));
#202 = CARTESIAN_POINT('', (-1.80516690232648E-15, -2.16746875, -53.76));
#203 = CARTESIAN_POINT('', (-2.16746875, -2.16746875, -53.76));
#204 = CARTESIAN_POINT('', (-2.16746875, 3.42456977945506E-15, -53.76));
#205 = DRAUGHTING_MODEL('', (#213, #351, #390, #395, #400, #405, #410), #424);
#206 = PRESENTATION_STYLE_ASSIGNMENT((#207));
#207 = SURFACE_STYLE_USAGE(.POSITIVE., #208);
#208 = SURFACE_SIDE_STYLE('', (#209));
#209 = SURFACE_STYLE_FILL_AREA(#210);
#210 = FILL_AREA_STYLE('', (#211));
#211 = FILL_AREA_STYLE_COLOUR('', #212);
#212 = COLOUR_RGB('', 0.50196078431373, 0.50196078431373, 0.50196078431373);
#213 = STYLED_ITEM('', (#206), #1);
#214 = MANIFOLD_SOLID_BREP('CUT', #215);
#215 = CLOSED_SHELL('', (#216, #263, #288, #327));
#216 = ADVANCED_FACE('', (#217), #244, .T.);
#217 = FACE_OUTER_BOUND('', #218, .T.);
#218 = EDGE_LOOP('', (#219, #229, #236, #237));
#219 = ORIENTED_EDGE('', *, *, #220, .F.);
#220 = EDGE_CURVE('', #221, #223, #225, .T.);
#221 = VERTEX_POINT('', #222);
#222 = CARTESIAN_POINT('', (-3.25, 3.49085570096953E-15, -53.76));
#223 = VERTEX_POINT('', #224);
#224 = CARTESIAN_POINT('', (-3.25, 4.60773358179192E-15, -72.));
#225 = LINE('', #226, #227);
#226 = CARTESIAN_POINT('', (-3.25, 3.49085570096953E-15, -53.76));
#227 = VECTOR('', #228, 18.24);
#228 = DIRECTION('', (0., 1.11687788082239E-15, -18.24));
#229 = ORIENTED_EDGE('', *, *, #230, .T.);
#230 = EDGE_CURVE('', #221, #221, #231, .T.);
#231 = CIRCLE('', #232, 3.25);
#232 = AXIS2_PLACEMENT_3D('', #233, #234, #235);
#233 = CARTESIAN_POINT('', (1.80411241501588E-16, 1.22124532708767E-15, -53.76));
#234 = DIRECTION('', (0., 0., -1.));
#235 = DIRECTION('', (-1., 6.9834165350211E-16, 0.));
#236 = ORIENTED_EDGE('', *, *, #220, .T.);
#237 = ORIENTED_EDGE('', *, *, #238, .F.);
#238 = EDGE_CURVE('', #223, #223, #239, .T.);
#239 = CIRCLE('', #240, 3.25);
#240 = AXIS2_PLACEMENT_3D('', #241, #242, #243);
#241 = CARTESIAN_POINT('', (-1.94289029309402E-16, 2.77555756156289E-16, -72.));
#242 = DIRECTION('', (0., 0., -1.));
#243 = DIRECTION('', (-1., 1.33236240788789E-15, 0.));
#244 = (
   BOUNDED_SURFACE ()
   B_SPLINE_SURFACE (2, 1, ((#245, #246), (#247, #248), (#249, #250), (#251, #252), (#253, #254), (#255, #256), (#257, #258), (#259, #260), (#261, #262)), .UNSPECIFIED., .T., .F., .U.)
   B_SPLINE_SURFACE_WITH_KNOTS ((3, 2, 2, 2, 3), (2, 2), (0., 5.10508806208342, 10.2101761241668, 15.3152641862503, 20.4203522483337), (0., 1.), .UNSPECIFIED.)
   GEOMETRIC_REPRESENTATION_ITEM ()
   RATIONAL_B_SPLINE_SURFACE (((1., 1.), (0.707106781186548, 0.707106781186548), (1., 1.), (0.707106781186548, 0.707106781186548), (1., 1.), (0.707106781186548, 0.707106781186548), (1., 1.), (0.707106781186548, 0.707106781186548), (1., 1.)))
   REPRESENTATION_ITEM ('')
   SURFACE ()
);
#245 = CARTESIAN_POINT('', (-3.25, 3.49085570096953E-15, -53.76));
#246 = CARTESIAN_POINT('', (-3.25, 3.32432224727576E-15, -72.));
#247 = CARTESIAN_POINT('', (-3.25, 3.25, -53.76));
#248 = CARTESIAN_POINT('', (-3.25, 3.25, -72.));
#249 = CARTESIAN_POINT('', (2.55632784229392E-15, 3.25, -53.76));
#250 = CARTESIAN_POINT('', (2.55632784229392E-15, 3.25, -72.));
#251 = CARTESIAN_POINT('', (3.25, 3.25, -53.76));
#252 = CARTESIAN_POINT('', (3.25, 3.25, -72.));
#253 = CARTESIAN_POINT('', (3.25, -2.20466707154652E-15, -53.76));
#254 = CARTESIAN_POINT('', (3.25, -2.37120052524029E-15, -72.));
#255 = CARTESIAN_POINT('', (3.25, -3.25, -53.76));
#256 = CARTESIAN_POINT('', (3.25, -3.25, -72.));
#257 = CARTESIAN_POINT('', (-2.74118472049924E-15, -3.25, -53.76));
#258 = CARTESIAN_POINT('', (-2.74118472049924E-15, -3.25, -72.));
#259 = CARTESIAN_POINT('', (-3.25, -3.25, -53.76));
#260 = CARTESIAN_POINT('', (-3.25, -3.25, -72.));
#261 = CARTESIAN_POINT('', (-3.25, 3.49085570096953E-15, -53.76));
#262 = CARTESIAN_POINT('', (-3.25, 3.32432224727576E-15, -72.));
#263 = ADVANCED_FACE('', (#264), #283, .T.);
#264 = FACE_OUTER_BOUND('', #265, .T.);
#265 = EDGE_LOOP('', (#266, #274, #281, #282));
#266 = ORIENTED_EDGE('', *, *, #267, .F.);
#267 = EDGE_CURVE('', #268, #221, #270, .T.);
#268 = VERTEX_POINT('', #269);
#269 = CARTESIAN_POINT('', (-2.16746875, 3.42456977945506E-15, -53.76));
#270 = LINE('', #271, #272);
#271 = CARTESIAN_POINT('', (-2.16746875, 3.42456977945506E-15, -53.76));
#272 = VECTOR('', #273, 1.08253125);
#273 = DIRECTION('', (-1.08253125, 6.62859215144698E-17, 0.));
#274 = ORIENTED_EDGE('', *, *, #275, .T.);
#275 = EDGE_CURVE('', #268, #268, #276, .T.);
#276 = CIRCLE('', #277, 2.16746875);
#277 = AXIS2_PLACEMENT_3D('', #278, #279, #280);
#278 = CARTESIAN_POINT('', (-2.77555756156289E-16, 1.49880108324396E-15, -53.76));
#279 = DIRECTION('', (-9.91332170361223E-30, -1.11575263652125E-14, -1.));
#280 = DIRECTION('', (-1., 8.8848741012349E-16, 0.));
#281 = ORIENTED_EDGE('', *, *, #267, .T.);
#282 = ORIENTED_EDGE('', *, *, #230, .F.);
#283 = B_SPLINE_SURFACE_WITH_KNOTS('', 1, 1, ((#284, #285), (#286, #287)), .UNSPECIFIED., .F., .F., .U., (2, 2), (2, 2), (0., 1.), (0., 1.), .UNSPECIFIED.);
#284 = CARTESIAN_POINT('', (3.575, -3.575, -53.76));
#285 = CARTESIAN_POINT('', (-3.575, -3.575, -53.76));
#286 = CARTESIAN_POINT('', (3.575, 3.575, -53.76));
#287 = CARTESIAN_POINT('', (-3.575, 3.575, -53.76));
#288 = ADVANCED_FACE('', (#289), #308, .T.);
#289 = FACE_OUTER_BOUND('', #290, .T.);
#290 = EDGE_LOOP('', (#291, #299, #306, #307));
#291 = ORIENTED_EDGE('', *, *, #292, .F.);
#292 = EDGE_CURVE('', #293, #268, #295, .T.);
#293 = VERTEX_POINT('', #294);
#294 = CARTESIAN_POINT('', (-2.16746875, 4.54144766027744E-15, -72.));
#295 = LINE('', #296, #297);
#296 = CARTESIAN_POINT('', (-2.16746875, 4.54144766027744E-15, -72.));
#297 = VECTOR('', #298, 18.24);
#298 = DIRECTION('', (0., -1.11687788082238E-15, 18.24));
#299 = ORIENTED_EDGE('', *, *, #300, .T.);
#300 = EDGE_CURVE('', #293, #293, #301, .T.);
#301 = CIRCLE('', #302, 2.16746875);
#302 = AXIS2_PLACEMENT_3D('', #303, #304, #305);
#303 = CARTESIAN_POINT('', (7.49400541621981E-16, 1.55431223447522E-15, -72.));
#304 = DIRECTION('', (0., 0., -1.));
#305 = DIRECTION('', (-1., 1.3781677017499E-15, 0.));
#306 = ORIENTED_EDGE('', *, *, #292, .T.);
#307 = ORIENTED_EDGE('', *, *, #275, .F.);
#308 = (
   BOUNDED_SURFACE ()
   B_SPLINE_SURFACE (2, 1, ((#309, #310), (#311, #312), (#313, #314), (#315, #316), (#317, #318), (#319, #320), (#321, #322), (#323, #324), (#325, #326)), .UNSPECIFIED., .T., .F., .U.)
   B_SPLINE_SURFACE_WITH_KNOTS ((3, 2, 2, 2, 3), (2, 2), (0., 3.40465195094273, 6.80930390188545, 10.2139558528282, 13.6186078037709), (0., 1.), .UNSPECIFIED.)
   GEOMETRIC_REPRESENTATION_ITEM ()
   RATIONAL_B_SPLINE_SURFACE (((1., 1.), (0.707106781186548, 0.707106781186548), (1., 1.), (0.707106781186548, 0.707106781186548), (1., 1.), (0.707106781186548, 0.707106781186548), (1., 1.), (0.707106781186548, 0.707106781186548), (1., 1.)))
   REPRESENTATION_ITEM ('')
   SURFACE ()
);
#309 = CARTESIAN_POINT('', (-2.16746875, 3.48008093068632E-15, -72.));
#310 = CARTESIAN_POINT('', (-2.16746875, 3.42456977945506E-15, -53.76));
#311 = CARTESIAN_POINT('', (-2.16746875, 2.16746875, -72.));
#312 = CARTESIAN_POINT('', (-2.16746875, 2.16746875, -53.76));
#313 = CARTESIAN_POINT('', (1.51549375670784E-15, 2.16746875, -72.));
#314 = CARTESIAN_POINT('', (1.51549375670784E-15, 2.16746875, -53.76));
#315 = CARTESIAN_POINT('', (2.16746875, 2.16746875, -72.));
#316 = CARTESIAN_POINT('', (2.16746875, 2.16746875, -53.76));
#317 = CARTESIAN_POINT('', (2.16746875, -1.06018095041938E-16, -72.));
#318 = CARTESIAN_POINT('', (2.16746875, -1.61529246273197E-16, -53.76));
#319 = CARTESIAN_POINT('', (2.16746875, -2.16746875, -72.));
#320 = CARTESIAN_POINT('', (2.16746875, -2.16746875, -53.76));
#321 = CARTESIAN_POINT('', (-1.80516690232648E-15, -2.16746875, -72.));
#322 = CARTESIAN_POINT('', (-1.80516690232648E-15, -2.16746875, -53.76));
#323 = CARTESIAN_POINT('', (-2.16746875, -2.16746875, -72.));
#324 = CARTESIAN_POINT('', (-2.16746875, -2.16746875, -53.76));
#325 = CARTESIAN_POINT('', (-2.16746875, 3.48008093068632E-15, -72.));
#326 = CARTESIAN_POINT('', (-2.16746875, 3.42456977945506E-15, -53.76));
#327 = ADVANCED_FACE('', (#328), #339, .T.);
#328 = FACE_OUTER_BOUND('', #329, .T.);
#329 = EDGE_LOOP('', (#330, #336, #337, #338));
#330 = ORIENTED_EDGE('', *, *, #331, .F.);
#331 = EDGE_CURVE('', #223, #293, #332, .T.);
#332 = LINE('', #333, #334);
#333 = CARTESIAN_POINT('', (-3.25, 4.60773358179192E-15, -72.));
#334 = VECTOR('', #335, 1.08253125);
#335 = DIRECTION('', (1.08253125, -6.62859215144801E-17, 0.));
#336 = ORIENTED_EDGE('', *, *, #238, .T.);
#337 = ORIENTED_EDGE('', *, *, #331, .T.);
#338 = ORIENTED_EDGE('', *, *, #300, .F.);
#339 = B_SPLINE_SURFACE_WITH_KNOTS('', 1, 1, ((#340, #341), (#342, #343)), .UNSPECIFIED., .F., .F., .U., (2, 2), (2, 2), (0., 1.), (0., 1.), .UNSPECIFIED.);
#340 = CARTESIAN_POINT('', (3.575, -3.575, -72.));
#341 = CARTESIAN_POINT('', (3.575, 3.575, -72.));
#342 = CARTESIAN_POINT('', (-3.575, -3.575, -72.));
#343 = CARTESIAN_POINT('', (-3.575, 3.575, -72.));
#344 = PRESENTATION_STYLE_ASSIGNMENT((#345));
#345 = SURFACE_STYLE_USAGE(.POSITIVE., #346);
#346 = SURFACE_SIDE_STYLE('', (#347));
#347 = SURFACE_STYLE_FILL_AREA(#348);
#348 = FILL_AREA_STYLE('', (#349));
#349 = FILL_AREA_STYLE_COLOUR('', #350);
#350 = COLOUR_RGB('', 0.8, 0.8, 0.8);
#351 = STYLED_ITEM('', (#344), #214);
#352 = TRIMMED_CURVE('cutting part line', #353, (#357), (#358), .T., .CARTESIAN.);
#353 = LINE('', #354, #355);
#354 = CARTESIAN_POINT('', (3.25, 0., -53.76));
#355 = VECTOR('', #356, 1.08253125);
#356 = DIRECTION('', (-1.08253125, 0., 0.));
#357 = CARTESIAN_POINT('', (3.25, 0., -53.76));
#358 = CARTESIAN_POINT('', (2.16746875, 0., -53.76));
#359 = TRIMMED_CURVE('cutting part line', #360, (#364), (#365), .T., .CARTESIAN.);
#360 = LINE('', #361, #362);
#361 = CARTESIAN_POINT('', (2.16746875, 0., -53.76));
#362 = VECTOR('', #363, 18.24);
#363 = DIRECTION('', (0., 5.55026966140519E-17, -18.24));
#364 = CARTESIAN_POINT('', (2.16746875, 0., -53.76));
#365 = CARTESIAN_POINT('', (2.16746875, 5.55026966140519E-17, -72.));
#366 = TRIMMED_CURVE('cutting part line', #367, (#371), (#372), .T., .CARTESIAN.);
#367 = LINE('', #368, #369);
#368 = CARTESIAN_POINT('', (2.16746875, 0., -72.));
#369 = VECTOR('', #370, 1.08253125);
#370 = DIRECTION('', (1.08253125, 0., 0.));
#371 = CARTESIAN_POINT('', (2.16746875, 0., -72.));
#372 = CARTESIAN_POINT('', (3.25, 0., -72.));
#373 = TRIMMED_CURVE('cutting part line', #374, (#378), (#379), .T., .CARTESIAN.);
#374 = LINE('', #375, #376);
#375 = CARTESIAN_POINT('', (3.25, -1.66508089842153E-16, -72.));
#376 = VECTOR('', #377, 18.24);
#377 = DIRECTION('', (0., 1.66508089842153E-16, 18.24));
#378 = CARTESIAN_POINT('', (3.25, -1.66508089842153E-16, -72.));
#379 = CARTESIAN_POINT('', (3.25, 0., -53.76));
#380 = COMPOSITE_CURVE('cutting part line', (#381, #382, #383, #384), .U.);
#381 = COMPOSITE_CURVE_SEGMENT(.CONTINUOUS., .T., #352);
#382 = COMPOSITE_CURVE_SEGMENT(.CONTINUOUS., .T., #359);
#383 = COMPOSITE_CURVE_SEGMENT(.CONTINUOUS., .T., #366);
#384 = COMPOSITE_CURVE_SEGMENT(.CONTINUOUS., .T., #373);
#385 = GEOMETRIC_SET('', (#380, #423));
#386 = PRESENTATION_STYLE_ASSIGNMENT((#387));
#387 = CURVE_STYLE('', #389, POSITIVE_LENGTH_MEASURE(1.E-6), #388);
#388 = COLOUR_RGB('', 0., 0., 1.);
#389 = DRAUGHTING_PRE_DEFINED_CURVE_FONT('continuous');
#390 = STYLED_ITEM('', (#386), #380);
#391 = PRESENTATION_STYLE_ASSIGNMENT((#392));
#392 = CURVE_STYLE('', #394, POSITIVE_LENGTH_MEASURE(1.E-6), #393);
#393 = COLOUR_RGB('', 0., 0., 1.);
#394 = DRAUGHTING_PRE_DEFINED_CURVE_FONT('continuous');
#395 = OVER_RIDING_STYLED_ITEM('', (#391), #352, #390);
#396 = PRESENTATION_STYLE_ASSIGNMENT((#397));
#397 = CURVE_STYLE('', #399, POSITIVE_LENGTH_MEASURE(1.E-6), #398);
#398 = COLOUR_RGB('', 0., 0., 1.);
#399 = DRAUGHTING_PRE_DEFINED_CURVE_FONT('continuous');
#400 = OVER_RIDING_STYLED_ITEM('', (#396), #359, #390);
#401 = PRESENTATION_STYLE_ASSIGNMENT((#402));
#402 = CURVE_STYLE('', #404, POSITIVE_LENGTH_MEASURE(1.E-6), #403);
#403 = COLOUR_RGB('', 0., 0., 1.);
#404 = DRAUGHTING_PRE_DEFINED_CURVE_FONT('continuous');
#405 = OVER_RIDING_STYLED_ITEM('', (#401), #366, #390);
#406 = PRESENTATION_STYLE_ASSIGNMENT((#407));
#407 = CURVE_STYLE('', #409, POSITIVE_LENGTH_MEASURE(1.E-6), #408);
#408 = COLOUR_RGB('', 0., 0., 1.);
#409 = DRAUGHTING_PRE_DEFINED_CURVE_FONT('continuous');
#410 = OVER_RIDING_STYLED_ITEM('', (#406), #373, #390);
#411 = AXIS2_PLACEMENT_3D('MCS', #412, #413, #414);
#412 = CARTESIAN_POINT('', (0., 0., -40.));
#413 = DIRECTION('', (0., 0., 1.));
#414 = DIRECTION('', (1., 0., 0.));
#415 = AXIS2_PLACEMENT_3D('PCS', #416, #417, #418);
#416 = CARTESIAN_POINT('', (0., 0., 0.));
#417 = DIRECTION('', (0., 0., 1.));
#418 = DIRECTION('', (1., 0., 0.));
#419 = AXIS2_PLACEMENT_3D('CIP', #420, #421, #422);
#420 = CARTESIAN_POINT('', (0., 0., -72.));
#421 = DIRECTION('', (0., 0., 1.));
#422 = DIRECTION('', (1., 0., 0.));
#423 = CARTESIAN_POINT('CRP', (3.25, 0., -72.));
#424 = (
   GEOMETRIC_REPRESENTATION_CONTEXT (3)
   GLOBAL_UNCERTAINTY_ASSIGNED_CONTEXT ((#426))
   GLOBAL_UNIT_ASSIGNED_CONTEXT ((#425, #427, #428))
   REPRESENTATION_CONTEXT ('', '3D')
);
#425 = (
   LENGTH_UNIT ()
   NAMED_UNIT (*)
   SI_UNIT (.MILLI., .METRE.)
);
#426 = UNCERTAINTY_MEASURE_WITH_UNIT(LENGTH_MEASURE(1.E-6), #425, 'DISTANCE_ACCURACY_VALUE', '');
#427 = (
   NAMED_UNIT (*)
   SI_UNIT ($, .STERADIAN.)
   SOLID_ANGLE_UNIT ()
);
#428 = (
   NAMED_UNIT (*)
   PLANE_ANGLE_UNIT ()
   SI_UNIT ($, .RADIAN.)
);
#429 = SHAPE_REPRESENTATION('', (), #424);
#430 = PRODUCT_DEFINITION_SHAPE('', '', #431);
#431 = PRODUCT_DEFINITION('', '', #434, #438);
#432 = APPLICATION_CONTEXT('configuration controlled 3D designs of mechanical parts and assemblies');
#433 = APPLICATION_PROTOCOL_DEFINITION('International Standard', 'automotive_design', 2002, #432);
#434 = PRODUCT_DEFINITION_FORMATION_WITH_SPECIFIED_SOURCE('', '', #435, .NOT_KNOWN.);
#435 = PRODUCT('product-name', 'R217.13C065125CC17K 1630', '', (#436));
#436 = PRODUCT_CONTEXT('', #432, 'mechanical');
#437 = PRODUCT_RELATED_PRODUCT_CATEGORY('detail', '', (#435));
#438 = PRODUCT_DEFINITION_CONTEXT('part definition', #432, 'design');
#439 = SHAPE_DEFINITION_REPRESENTATION(#430, #429);
#440 = CONSTRUCTIVE_GEOMETRY_REPRESENTATION('supplemental geometry', (#411, #415, #419), #424);
#441 = CONSTRUCTIVE_GEOMETRY_REPRESENTATION_RELATIONSHIP('', '', #429, #440);
#442 = SHAPE_REPRESENTATION_RELATIONSHIP('', '', #429, #443);
#443 = SHAPE_REPRESENTATION('', (#385), #424);
#444 = SHAPE_REPRESENTATION_RELATIONSHIP('', '', #429, #445);
#445 = ADVANCED_BREP_SHAPE_REPRESENTATION('', (#1, #214), #424);
ENDSEC;
END-ISO-10303-21;
