ISO-10303-21;
HEADER;
FILE_DESCRIPTION(('STEP'), '1');
FILE_NAME('C:\\Users\\ds2002\\OneDrive - Sandvik\\HomeShare\\Documents\\Batchrepair\\CorSRT2\\NEW_MILTH_SLD\\Output\\MOD000000000000000020084659400000.stp', '2019-01-04T08:50:45', (''), (''), 'Express v3.0.0.0', 'Express Tool', 'Unknown');
FILE_SCHEMA(('AUTOMOTIVE_DESIGN'));
ENDSEC;

DATA;
#1 = MANIFOLD_SOLID_BREP('NOCUT', #2);
#2 = CLOSED_SHELL('', (#3, #20, #67, #106, #145, #154, #174));
#3 = ADVANCED_FACE('', (#4), #15, .T.);
#4 = FACE_OUTER_BOUND('', #5, .T.);
#5 = EDGE_LOOP('', (#6));
#6 = ORIENTED_EDGE('', *, *, #7, .T.);
#7 = EDGE_CURVE('', #8, #8, #10, .T.);
#8 = VERTEX_POINT('', #9);
#9 = CARTESIAN_POINT('', (-2.35048125, 3.63416884453338E-15, -57.));
#10 = CIRCLE('', #11, 2.35048125);
#11 = AXIS2_PLACEMENT_3D('', #12, #13, #14);
#12 = CARTESIAN_POINT('', (2.84494650060196E-16, 8.88178419700125E-16, -57.));
#13 = DIRECTION('', (1.20200480199088E-29, 1.02887822329573E-14, -1.));
#14 = DIRECTION('', (-1., 1.16826731752625E-15, 0.));
#15 = B_SPLINE_SURFACE_WITH_KNOTS('', 1, 1, ((#16, #17), (#18, #19)), .UNSPECIFIED., .F., .F., .U., (2, 2), (2, 2), (0.143866477272727, 0.856133522727273), (0.143866477272727, 0.856133522727273), .UNSPECIFIED.);
#16 = CARTESIAN_POINT('', (2.35048125, -2.35048125, -57.));
#17 = CARTESIAN_POINT('', (2.35048125, 2.35048125, -57.));
#18 = CARTESIAN_POINT('', (-2.35048125, -2.35048125, -57.));
#19 = CARTESIAN_POINT('', (-2.35048125, 2.35048125, -57.));
#20 = ADVANCED_FACE('', (#21), #48, .T.);
#21 = FACE_OUTER_BOUND('', #22, .T.);
#22 = EDGE_LOOP('', (#23, #33, #40, #41));
#23 = ORIENTED_EDGE('', *, *, #24, .F.);
#24 = EDGE_CURVE('', #25, #27, #29, .T.);
#25 = VERTEX_POINT('', #26);
#26 = CARTESIAN_POINT('', (-3., 2.48603300226913E-15, -37.6));
#27 = VERTEX_POINT('', #28);
#28 = CARTESIAN_POINT('', (-3., 2.93915231795365E-15, -45.));
#29 = LINE('', #30, #31);
#30 = CARTESIAN_POINT('', (-3., 2.48603300226913E-15, -37.6));
#31 = VECTOR('', #32, 7.4);
#32 = DIRECTION('', (0., 4.5311931568452E-16, -7.4));
#33 = ORIENTED_EDGE('', *, *, #34, .T.);
#34 = EDGE_CURVE('', #25, #25, #35, .T.);
#35 = CIRCLE('', #36, 3.);
#36 = AXIS2_PLACEMENT_3D('', #37, #38, #39);
#37 = CARTESIAN_POINT('', (6.66133814775094E-16, 2.1094237467878E-15, -37.6));
#38 = DIRECTION('', (0., 0., -1.));
#39 = DIRECTION('', (-1., 1.25536418493778E-16, 0.));
#40 = ORIENTED_EDGE('', *, *, #24, .T.);
#41 = ORIENTED_EDGE('', *, *, #42, .F.);
#42 = EDGE_CURVE('', #27, #27, #43, .T.);
#43 = CIRCLE('', #44, 3.);
#44 = AXIS2_PLACEMENT_3D('', #45, #46, #47);
#45 = CARTESIAN_POINT('', (3.7470027081099E-16, 5.55111512312578E-16, -45.));
#46 = DIRECTION('', (0., 0., -1.));
#47 = DIRECTION('', (-1., 7.94680268547024E-16, 0.));
#48 = (
   BOUNDED_SURFACE ()
   B_SPLINE_SURFACE (2, 1, ((#49, #50), (#51, #52), (#53, #54), (#55, #56), (#57, #58), (#59, #60), (#61, #62), (#63, #64), (#65, #66)), .UNSPECIFIED., .T., .F., .U.)
   B_SPLINE_SURFACE_WITH_KNOTS ((3, 2, 2, 2, 3), (2, 2), (0., 4.7123889803847, 9.4247779607694, 14.1371669411541, 18.8495559215388), (0., 1.), .UNSPECIFIED.)
   GEOMETRIC_REPRESENTATION_ITEM ()
   RATIONAL_B_SPLINE_SURFACE (((1., 1.), (0.707106781186548, 0.707106781186548), (1., 1.), (0.707106781186548, 0.707106781186548), (1., 1.), (0.707106781186548, 0.707106781186548), (1., 1.), (0.707106781186548, 0.707106781186548), (1., 1.)))
   REPRESENTATION_ITEM ('')
   SURFACE ()
);
#49 = CARTESIAN_POINT('', (-3., 2.48603300226913E-15, -37.6));
#50 = CARTESIAN_POINT('', (-3., 2.87461106088794E-15, -45.));
#51 = CARTESIAN_POINT('', (-3., 3., -37.6));
#52 = CARTESIAN_POINT('', (-3., 3., -45.));
#53 = CARTESIAN_POINT('', (2.05253580185637E-15, 3., -37.6));
#54 = CARTESIAN_POINT('', (2.05253580185637E-15, 3., -45.));
#55 = CARTESIAN_POINT('', (3., 3., -37.6));
#56 = CARTESIAN_POINT('', (3., 3., -45.));
#57 = CARTESIAN_POINT('', (3., -1.78557205513738E-15, -37.6));
#58 = CARTESIAN_POINT('', (3., -1.39699399651857E-15, -45.));
#59 = CARTESIAN_POINT('', (3., -3., -37.6));
#60 = CARTESIAN_POINT('', (3., -3., -45.));
#61 = CARTESIAN_POINT('', (-1.85167521580593E-15, -3., -37.6));
#62 = CARTESIAN_POINT('', (-1.85167521580593E-15, -3., -45.));
#63 = CARTESIAN_POINT('', (-3., -3., -37.6));
#64 = CARTESIAN_POINT('', (-3., -3., -45.));
#65 = CARTESIAN_POINT('', (-3., 2.48603300226913E-15, -37.6));
#66 = CARTESIAN_POINT('', (-3., 2.87461106088794E-15, -45.));
#67 = ADVANCED_FACE('', (#68), #87, .T.);
#68 = FACE_OUTER_BOUND('', #69, .T.);
#69 = EDGE_LOOP('', (#70, #78, #85, #86));
#70 = ORIENTED_EDGE('', *, *, #71, .T.);
#71 = EDGE_CURVE('', #25, #72, #74, .T.);
#72 = VERTEX_POINT('', #73);
#73 = CARTESIAN_POINT('', (-3., 2.02066721859313E-16, -0.299999999999997));
#74 = LINE('', #75, #76);
#75 = CARTESIAN_POINT('', (-3., 2.48603300226913E-15, -37.6));
#76 = VECTOR('', #77, 37.3);
#77 = DIRECTION('', (0., -2.28396628040982E-15, 37.3));
#78 = ORIENTED_EDGE('', *, *, #79, .T.);
#79 = EDGE_CURVE('', #72, #72, #80, .T.);
#80 = CIRCLE('', #81, 3.);
#81 = AXIS2_PLACEMENT_3D('', #82, #83, #84);
#82 = CARTESIAN_POINT('', (1.346145417358E-15, -1.88737914186277E-15, -0.299999999999997));
#83 = DIRECTION('', (-1.85037170770859E-17, 6.01984494166833E-17, -1.));
#84 = DIRECTION('', (-1., 6.96481954574026E-16, 1.85037170770859E-17));
#85 = ORIENTED_EDGE('', *, *, #71, .F.);
#86 = ORIENTED_EDGE('', *, *, #34, .F.);
#87 = (
   BOUNDED_SURFACE ()
   B_SPLINE_SURFACE (1, 2, ((#88, #89, #90, #91, #92, #93, #94, #95, #96), (#97, #98, #99, #100, #101, #102, #103, #104, #105)), .UNSPECIFIED., .F., .T., .U.)
   B_SPLINE_SURFACE_WITH_KNOTS ((2, 2), (3, 2, 2, 2, 3), (0., 1.), (0., 4.7123889803847, 9.4247779607694, 14.1371669411541, 18.8495559215388), .UNSPECIFIED.)
   GEOMETRIC_REPRESENTATION_ITEM ()
   RATIONAL_B_SPLINE_SURFACE (((1., 0.707106781186548, 1., 0.707106781186548, 1., 0.707106781186548, 1., 0.707106781186548, 1.), (1., 0.707106781186548, 1., 0.707106781186548, 1., 0.707106781186548, 1., 0.707106781186548, 1.)))
   REPRESENTATION_ITEM ('')
   SURFACE ()
);
#88 = CARTESIAN_POINT('', (-3., 2.25597931741585E-15, -37.6));
#89 = CARTESIAN_POINT('', (-3., 3., -37.6));
#90 = CARTESIAN_POINT('', (2.56170561423267E-15, 3., -37.6));
#91 = CARTESIAN_POINT('', (3., 3., -37.6));
#92 = CARTESIAN_POINT('', (3., -1.5555183702841E-15, -37.6));
#93 = CARTESIAN_POINT('', (3., -3., -37.6));
#94 = CARTESIAN_POINT('', (-8.82398033723071E-16, -3., -37.6));
#95 = CARTESIAN_POINT('', (-3., -3., -37.6));
#96 = CARTESIAN_POINT('', (-3., 2.25597931741585E-15, -37.6));
#97 = CARTESIAN_POINT('', (-3., 2.02066721859312E-16, -0.299999999999997));
#98 = CARTESIAN_POINT('', (-3., 3., -0.299999999999997));
#99 = CARTESIAN_POINT('', (3.25189426120798E-15, 3., -0.299999999999997));
#100 = CARTESIAN_POINT('', (3., 3., -0.299999999999997));
#101 = CARTESIAN_POINT('', (3., -3.60943096584064E-15, -0.299999999999997));
#102 = CARTESIAN_POINT('', (3., -3., -0.299999999999997));
#103 = CARTESIAN_POINT('', (-1.92209386747767E-16, -3., -0.299999999999997));
#104 = CARTESIAN_POINT('', (-3., -3., -0.299999999999997));
#105 = CARTESIAN_POINT('', (-3., 2.02066721859312E-16, -0.299999999999997));
#106 = ADVANCED_FACE('', (#107), #126, .T.);
#107 = FACE_OUTER_BOUND('', #108, .T.);
#108 = EDGE_LOOP('', (#109, #117, #124, #125));
#109 = ORIENTED_EDGE('', *, *, #110, .T.);
#110 = EDGE_CURVE('', #72, #111, #113, .T.);
#111 = VERTEX_POINT('', #112);
#112 = CARTESIAN_POINT('', (-2.7, 1.65327317884893E-16, 0.));
#113 = LINE('', #114, #115);
#114 = CARTESIAN_POINT('', (-3., 2.02066721859313E-16, -0.299999999999997));
#115 = VECTOR('', #116, 0.424264068711926);
#116 = DIRECTION('', (0.3, -3.673940397442E-17, 0.299999999999997));
#117 = ORIENTED_EDGE('', *, *, #118, .T.);
#118 = EDGE_CURVE('', #111, #111, #119, .T.);
#119 = CIRCLE('', #120, 2.7);
#120 = AXIS2_PLACEMENT_3D('', #121, #122, #123);
#121 = CARTESIAN_POINT('', (9.22872889219661E-16, -1.27675647831893E-15, -8.0118685686509E-32));
#122 = DIRECTION('', (3.03091835913145E-33, 6.12323399573678E-17, -1.));
#123 = DIRECTION('', (-1., 5.34105109705119E-16, 2.96735872912996E-32));
#124 = ORIENTED_EDGE('', *, *, #110, .F.);
#125 = ORIENTED_EDGE('', *, *, #79, .F.);
#126 = (
   BOUNDED_SURFACE ()
   B_SPLINE_SURFACE (1, 2, ((#127, #128, #129, #130, #131, #132, #133, #134, #135), (#136, #137, #138, #139, #140, #141, #142, #143, #144)), .UNSPECIFIED., .F., .T., .U.)
   B_SPLINE_SURFACE_WITH_KNOTS ((2, 2), (3, 2, 2, 2, 3), (0., 1.), (0., 0.25, 0.5, 0.75, 1.), .UNSPECIFIED.)
   GEOMETRIC_REPRESENTATION_ITEM ()
   RATIONAL_B_SPLINE_SURFACE (((1., 0.707106781186548, 1., 0.707106781186548, 1., 0.707106781186548, 1., 0.707106781186548, 1.), (1., 0.707106781186548, 1., 0.707106781186548, 1., 0.707106781186548, 1., 0.707106781186548, 1.)))
   REPRESENTATION_ITEM ('')
   SURFACE ()
);
#127 = CARTESIAN_POINT('', (-3., 1.49129302665284E-15, -0.299999999999997));
#128 = CARTESIAN_POINT('', (-3., 3., -0.299999999999985));
#129 = CARTESIAN_POINT('', (2.34149119846292E-15, 3., -0.299999999999985));
#130 = CARTESIAN_POINT('', (3., 3., -0.299999999999985));
#131 = CARTESIAN_POINT('', (3., -1.34594359183367E-15, -0.299999999999997));
#132 = CARTESIAN_POINT('', (3., -3., -0.300000000000009));
#133 = CARTESIAN_POINT('', (-1.28351380279387E-16, -3., -0.300000000000009));
#134 = CARTESIAN_POINT('', (-3., -3., -0.300000000000009));
#135 = CARTESIAN_POINT('', (-3., 1.49129302665284E-15, -0.299999999999997));
#136 = CARTESIAN_POINT('', (-2.7, 1.65327317884893E-16, -2.18952885050753E-47));
#137 = CARTESIAN_POINT('', (-2.7, 2.7, 1.04916075827078E-14));
#138 = CARTESIAN_POINT('', (2.19962936753859E-15, 2.7, 1.04916075827078E-14));
#139 = CARTESIAN_POINT('', (2.7, 2.7, 1.04916075827078E-14));
#140 = CARTESIAN_POINT('', (2.7, -2.38818563875297E-15, 1.12461399303431E-30));
#141 = CARTESIAN_POINT('', (2.7, -2.7, -1.04916075827078E-14));
#142 = CARTESIAN_POINT('', (-2.32289533294833E-17, -2.7, -1.04916075827078E-14));
#143 = CARTESIAN_POINT('', (-2.7, -2.7, -1.04916075827078E-14));
#144 = CARTESIAN_POINT('', (-2.7, 1.65327317884893E-16, -2.18952885050753E-47));
#145 = ADVANCED_FACE('', (#146), #149, .T.);
#146 = FACE_OUTER_BOUND('', #147, .T.);
#147 = EDGE_LOOP('', (#148));
#148 = ORIENTED_EDGE('', *, *, #118, .F.);
#149 = B_SPLINE_SURFACE_WITH_KNOTS('', 1, 1, ((#150, #151), (#152, #153)), .UNSPECIFIED., .F., .F., .U., (2, 2), (2, 2), (0.0454545454545454, 0.954545454545454), (0.0454545454545454, 0.954545454545454), .UNSPECIFIED.);
#150 = CARTESIAN_POINT('', (2.7, -2.7, -1.65327317884893E-16));
#151 = CARTESIAN_POINT('', (-2.7, -2.7, -1.65327317884893E-16));
#152 = CARTESIAN_POINT('', (2.7, 2.7, 1.65327317884893E-16));
#153 = CARTESIAN_POINT('', (-2.7, 2.7, 1.65327317884893E-16));
#154 = ADVANCED_FACE('', (#155, #158), #169, .T.);
#155 = FACE_OUTER_BOUND('', #156, .T.);
#156 = EDGE_LOOP('', (#157));
#157 = ORIENTED_EDGE('', *, *, #42, .T.);
#158 = FACE_BOUND('', #159, .T.);
#159 = EDGE_LOOP('', (#160));
#160 = ORIENTED_EDGE('', *, *, #161, .F.);
#161 = EDGE_CURVE('', #162, #162, #164, .T.);
#162 = VERTEX_POINT('', #163);
#163 = CARTESIAN_POINT('', (-2.35048125, 2.89938076504496E-15, -45.));
#164 = CIRCLE('', #165, 2.35048125);
#165 = AXIS2_PLACEMENT_3D('', #166, #167, #168);
#166 = CARTESIAN_POINT('', (1.59594559789866E-16, 1.27675647831893E-15, -45.));
#167 = DIRECTION('', (7.10272755080764E-30, 1.02887822329573E-14, -1.));
#168 = DIRECTION('', (-1., 6.90337047668868E-16, 0.));
#169 = B_SPLINE_SURFACE_WITH_KNOTS('', 1, 1, ((#170, #171), (#172, #173)), .UNSPECIFIED., .F., .F., .U., (2, 2), (2, 2), (0.0454545454545453, 0.954545454545454), (0.0454545454545451, 0.954545454545455), .UNSPECIFIED.);
#170 = CARTESIAN_POINT('', (3., -3., -45.));
#171 = CARTESIAN_POINT('', (3., 3., -45.));
#172 = CARTESIAN_POINT('', (-3., -3., -45.));
#173 = CARTESIAN_POINT('', (-3., 3., -45.));
#174 = ADVANCED_FACE('', (#175), #186, .T.);
#175 = FACE_OUTER_BOUND('', #176, .T.);
#176 = EDGE_LOOP('', (#177, #183, #184, #185));
#177 = ORIENTED_EDGE('', *, *, #178, .T.);
#178 = EDGE_CURVE('', #8, #162, #179, .T.);
#179 = LINE('', #180, #181);
#180 = CARTESIAN_POINT('', (-2.35048125, 3.63416884453338E-15, -57.));
#181 = VECTOR('', #182, 12.);
#182 = DIRECTION('', (0., -7.3478807948842E-16, 12.));
#183 = ORIENTED_EDGE('', *, *, #161, .T.);
#184 = ORIENTED_EDGE('', *, *, #178, .F.);
#185 = ORIENTED_EDGE('', *, *, #7, .F.);
#186 = (
   BOUNDED_SURFACE ()
   B_SPLINE_SURFACE (1, 2, ((#187, #188, #189, #190, #191, #192, #193, #194, #195), (#196, #197, #198, #199, #200, #201, #202, #203, #204)), .UNSPECIFIED., .F., .T., .U.)
   B_SPLINE_SURFACE_WITH_KNOTS ((2, 2), (3, 2, 2, 2, 3), (0., 1.), (0., 3.69212731370027, 7.38425462740055, 11.0763819411008, 14.7685092548011), .UNSPECIFIED.)
   GEOMETRIC_REPRESENTATION_ITEM ()
   RATIONAL_B_SPLINE_SURFACE (((1., 0.707106781186548, 1., 0.707106781186548, 1., 0.707106781186548, 1., 0.707106781186548, 1.), (1., 0.707106781186548, 1., 0.707106781186548, 1., 0.707106781186548, 1., 0.707106781186548, 1.)))
   REPRESENTATION_ITEM ('')
   SURFACE ()
);
#187 = CARTESIAN_POINT('', (-2.35048125, 2.51080270642616E-15, -57.));
#188 = CARTESIAN_POINT('', (-2.35048125, 2.35048125, -57.));
#189 = CARTESIAN_POINT('', (1.63829337955248E-15, 2.35048125, -57.));
#190 = CARTESIAN_POINT('', (2.35048125, 2.35048125, -57.));
#191 = CARTESIAN_POINT('', (2.35048125, -4.46594933099068E-16, -57.));
#192 = CARTESIAN_POINT('', (2.35048125, -2.35048125, -57.));
#193 = CARTESIAN_POINT('', (-1.03125332604591E-15, -2.35048125, -57.));
#194 = CARTESIAN_POINT('', (-2.35048125, -2.35048125, -57.));
#195 = CARTESIAN_POINT('', (-2.35048125, 2.51080270642616E-15, -57.));
#196 = CARTESIAN_POINT('', (-2.35048125, 2.89938076504496E-15, -45.));
#197 = CARTESIAN_POINT('', (-2.35048125, 2.35048125, -45.));
#198 = CARTESIAN_POINT('', (1.63829337955248E-15, 2.35048125, -45.));
#199 = CARTESIAN_POINT('', (2.35048125, 2.35048125, -45.));
#200 = CARTESIAN_POINT('', (2.35048125, -5.8016874480263E-17, -45.));
#201 = CARTESIAN_POINT('', (2.35048125, -2.35048125, -45.));
#202 = CARTESIAN_POINT('', (-1.03125332604591E-15, -2.35048125, -45.));
#203 = CARTESIAN_POINT('', (-2.35048125, -2.35048125, -45.));
#204 = CARTESIAN_POINT('', (-2.35048125, 2.89938076504496E-15, -45.));
#205 = DRAUGHTING_MODEL('', (#213, #351, #390, #395, #400, #405, #410), #424);
#206 = PRESENTATION_STYLE_ASSIGNMENT((#207));
#207 = SURFACE_STYLE_USAGE(.POSITIVE., #208);
#208 = SURFACE_SIDE_STYLE('', (#209));
#209 = SURFACE_STYLE_FILL_AREA(#210);
#210 = FILL_AREA_STYLE('', (#211));
#211 = FILL_AREA_STYLE_COLOUR('', #212);
#212 = COLOUR_RGB('', 0.50196078431373, 0.50196078431373, 0.50196078431373);
#213 = STYLED_ITEM('', (#206), #1);
#214 = MANIFOLD_SOLID_BREP('CUT', #215);
#215 = CLOSED_SHELL('', (#216, #263, #288, #327));
#216 = ADVANCED_FACE('', (#217), #244, .T.);
#217 = FACE_OUTER_BOUND('', #218, .T.);
#218 = EDGE_LOOP('', (#219, #229, #236, #237));
#219 = ORIENTED_EDGE('', *, *, #220, .F.);
#220 = EDGE_CURVE('', #221, #223, #225, .T.);
#221 = VERTEX_POINT('', #222);
#222 = CARTESIAN_POINT('', (-3., 2.93915231795365E-15, -45.));
#223 = VERTEX_POINT('', #224);
#224 = CARTESIAN_POINT('', (-3., 3.67394039744206E-15, -57.));
#225 = LINE('', #226, #227);
#226 = CARTESIAN_POINT('', (-3., 2.93915231795365E-15, -45.));
#227 = VECTOR('', #228, 12.);
#228 = DIRECTION('', (0., 7.3478807948841E-16, -12.));
#229 = ORIENTED_EDGE('', *, *, #230, .T.);
#230 = EDGE_CURVE('', #221, #221, #231, .T.);
#231 = CIRCLE('', #232, 3.);
#232 = AXIS2_PLACEMENT_3D('', #233, #234, #235);
#233 = CARTESIAN_POINT('', (2.08166817117217E-16, 2.55351295663786E-15, -45.));
#234 = DIRECTION('', (0., 0., -1.));
#235 = DIRECTION('', (-1., 1.2854645377193E-16, 0.));
#236 = ORIENTED_EDGE('', *, *, #220, .T.);
#237 = ORIENTED_EDGE('', *, *, #238, .F.);
#238 = EDGE_CURVE('', #223, #223, #239, .T.);
#239 = CIRCLE('', #240, 3.);
#240 = AXIS2_PLACEMENT_3D('', #241, #242, #243);
#241 = CARTESIAN_POINT('', (-3.60822483003176E-16, -5.55111512312578E-17, -57.));
#242 = DIRECTION('', (-1.00212806831421E-29, -8.06119657463333E-15, -1.));
#243 = DIRECTION('', (-1., 1.24315051622444E-15, 0.));
#244 = (
   BOUNDED_SURFACE ()
   B_SPLINE_SURFACE (2, 1, ((#245, #246), (#247, #248), (#249, #250), (#251, #252), (#253, #254), (#255, #256), (#257, #258), (#259, #260), (#261, #262)), .UNSPECIFIED., .T., .F., .U.)
   B_SPLINE_SURFACE_WITH_KNOTS ((3, 2, 2, 2, 3), (2, 2), (0., 4.7123889803847, 9.4247779607694, 14.1371669411541, 18.8495559215388), (0., 1.), .UNSPECIFIED.)
   GEOMETRIC_REPRESENTATION_ITEM ()
   RATIONAL_B_SPLINE_SURFACE (((1., 1.), (0.707106781186548, 0.707106781186548), (1., 1.), (0.707106781186548, 0.707106781186548), (1., 1.), (0.707106781186548, 0.707106781186548), (1., 1.), (0.707106781186548, 0.707106781186548), (1., 1.)))
   REPRESENTATION_ITEM ('')
   SURFACE ()
);
#245 = CARTESIAN_POINT('', (-3., 2.93915231795365E-15, -45.));
#246 = CARTESIAN_POINT('', (-3., 2.32852965440981E-15, -57.));
#247 = CARTESIAN_POINT('', (-3., 3., -45.));
#248 = CARTESIAN_POINT('', (-3., 3., -57.));
#249 = CARTESIAN_POINT('', (2.57504405657996E-15, 3., -45.));
#250 = CARTESIAN_POINT('', (2.57504405657996E-15, 3., -57.));
#251 = CARTESIAN_POINT('', (3., 3., -45.));
#252 = CARTESIAN_POINT('', (3., 3., -57.));
#253 = CARTESIAN_POINT('', (3., -1.46153525358429E-15, -45.));
#254 = CARTESIAN_POINT('', (3., -2.07215791712812E-15, -57.));
#255 = CARTESIAN_POINT('', (3., -3., -45.));
#256 = CARTESIAN_POINT('', (3., -3., -57.));
#257 = CARTESIAN_POINT('', (-1.45824947521377E-15, -3., -45.));
#258 = CARTESIAN_POINT('', (-1.45824947521377E-15, -3., -57.));
#259 = CARTESIAN_POINT('', (-3., -3., -45.));
#260 = CARTESIAN_POINT('', (-3., -3., -57.));
#261 = CARTESIAN_POINT('', (-3., 2.93915231795365E-15, -45.));
#262 = CARTESIAN_POINT('', (-3., 2.32852965440981E-15, -57.));
#263 = ADVANCED_FACE('', (#264), #283, .T.);
#264 = FACE_OUTER_BOUND('', #265, .T.);
#265 = EDGE_LOOP('', (#266, #274, #281, #282));
#266 = ORIENTED_EDGE('', *, *, #267, .F.);
#267 = EDGE_CURVE('', #268, #221, #270, .T.);
#268 = VERTEX_POINT('', #269);
#269 = CARTESIAN_POINT('', (-2.35048125, 2.89938076504496E-15, -45.));
#270 = LINE('', #271, #272);
#271 = CARTESIAN_POINT('', (-2.35048125, 2.89938076504496E-15, -45.));
#272 = VECTOR('', #273, 0.64951875);
#273 = DIRECTION('', (-0.64951875, 3.97715529086899E-17, 0.));
#274 = ORIENTED_EDGE('', *, *, #275, .T.);
#275 = EDGE_CURVE('', #268, #268, #276, .T.);
#276 = CIRCLE('', #277, 2.35048125);
#277 = AXIS2_PLACEMENT_3D('', #278, #279, #280);
#278 = CARTESIAN_POINT('', (1.59594559789866E-16, 1.27675647831893E-15, -45.));
#279 = DIRECTION('', (7.10272755080764E-30, 1.02887822329573E-14, -1.));
#280 = DIRECTION('', (-1., 6.90337047668868E-16, 0.));
#281 = ORIENTED_EDGE('', *, *, #267, .T.);
#282 = ORIENTED_EDGE('', *, *, #230, .F.);
#283 = B_SPLINE_SURFACE_WITH_KNOTS('', 1, 1, ((#284, #285), (#286, #287)), .UNSPECIFIED., .F., .F., .U., (2, 2), (2, 2), (0., 1.), (0., 1.), .UNSPECIFIED.);
#284 = CARTESIAN_POINT('', (3.3, -3.3, -45.));
#285 = CARTESIAN_POINT('', (-3.3, -3.3, -45.));
#286 = CARTESIAN_POINT('', (3.3, 3.3, -45.));
#287 = CARTESIAN_POINT('', (-3.3, 3.3, -45.));
#288 = ADVANCED_FACE('', (#289), #308, .T.);
#289 = FACE_OUTER_BOUND('', #290, .T.);
#290 = EDGE_LOOP('', (#291, #299, #306, #307));
#291 = ORIENTED_EDGE('', *, *, #292, .F.);
#292 = EDGE_CURVE('', #293, #268, #295, .T.);
#293 = VERTEX_POINT('', #294);
#294 = CARTESIAN_POINT('', (-2.35048125, 3.63416884453338E-15, -57.));
#295 = LINE('', #296, #297);
#296 = CARTESIAN_POINT('', (-2.35048125, 3.63416884453338E-15, -57.));
#297 = VECTOR('', #298, 12.);
#298 = DIRECTION('', (0., -7.3478807948842E-16, 12.));
#299 = ORIENTED_EDGE('', *, *, #300, .T.);
#300 = EDGE_CURVE('', #293, #293, #301, .T.);
#301 = CIRCLE('', #302, 2.35048125);
#302 = AXIS2_PLACEMENT_3D('', #303, #304, #305);
#303 = CARTESIAN_POINT('', (2.84494650060196E-16, 8.88178419700125E-16, -57.));
#304 = DIRECTION('', (1.20200480199088E-29, 1.02887822329573E-14, -1.));
#305 = DIRECTION('', (-1., 1.16826731752625E-15, 0.));
#306 = ORIENTED_EDGE('', *, *, #292, .T.);
#307 = ORIENTED_EDGE('', *, *, #275, .F.);
#308 = (
   BOUNDED_SURFACE ()
   B_SPLINE_SURFACE (2, 1, ((#309, #310), (#311, #312), (#313, #314), (#315, #316), (#317, #318), (#319, #320), (#321, #322), (#323, #324), (#325, #326)), .UNSPECIFIED., .T., .F., .U.)
   B_SPLINE_SURFACE_WITH_KNOTS ((3, 2, 2, 2, 3), (2, 2), (0., 3.69212731370027, 7.38425462740055, 11.0763819411008, 14.7685092548011), (0., 1.), .UNSPECIFIED.)
   GEOMETRIC_REPRESENTATION_ITEM ()
   RATIONAL_B_SPLINE_SURFACE (((1., 1.), (0.707106781186548, 0.707106781186548), (1., 1.), (0.707106781186548, 0.707106781186548), (1., 1.), (0.707106781186548, 0.707106781186548), (1., 1.), (0.707106781186548, 0.707106781186548), (1., 1.)))
   REPRESENTATION_ITEM ('')
   SURFACE ()
);
#309 = CARTESIAN_POINT('', (-2.35048125, 2.51080270642616E-15, -57.));
#310 = CARTESIAN_POINT('', (-2.35048125, 2.89938076504496E-15, -45.));
#311 = CARTESIAN_POINT('', (-2.35048125, 2.35048125, -57.));
#312 = CARTESIAN_POINT('', (-2.35048125, 2.35048125, -45.));
#313 = CARTESIAN_POINT('', (1.63829337955248E-15, 2.35048125, -57.));
#314 = CARTESIAN_POINT('', (1.63829337955248E-15, 2.35048125, -45.));
#315 = CARTESIAN_POINT('', (2.35048125, 2.35048125, -57.));
#316 = CARTESIAN_POINT('', (2.35048125, 2.35048125, -45.));
#317 = CARTESIAN_POINT('', (2.35048125, -4.46594933099068E-16, -57.));
#318 = CARTESIAN_POINT('', (2.35048125, -5.8016874480263E-17, -45.));
#319 = CARTESIAN_POINT('', (2.35048125, -2.35048125, -57.));
#320 = CARTESIAN_POINT('', (2.35048125, -2.35048125, -45.));
#321 = CARTESIAN_POINT('', (-1.03125332604591E-15, -2.35048125, -57.));
#322 = CARTESIAN_POINT('', (-1.03125332604591E-15, -2.35048125, -45.));
#323 = CARTESIAN_POINT('', (-2.35048125, -2.35048125, -57.));
#324 = CARTESIAN_POINT('', (-2.35048125, -2.35048125, -45.));
#325 = CARTESIAN_POINT('', (-2.35048125, 2.51080270642616E-15, -57.));
#326 = CARTESIAN_POINT('', (-2.35048125, 2.89938076504496E-15, -45.));
#327 = ADVANCED_FACE('', (#328), #339, .T.);
#328 = FACE_OUTER_BOUND('', #329, .T.);
#329 = EDGE_LOOP('', (#330, #336, #337, #338));
#330 = ORIENTED_EDGE('', *, *, #331, .F.);
#331 = EDGE_CURVE('', #223, #293, #332, .T.);
#332 = LINE('', #333, #334);
#333 = CARTESIAN_POINT('', (-3., 3.67394039744206E-15, -57.));
#334 = VECTOR('', #335, 0.64951875);
#335 = DIRECTION('', (0.64951875, -3.977155290868E-17, 0.));
#336 = ORIENTED_EDGE('', *, *, #238, .T.);
#337 = ORIENTED_EDGE('', *, *, #331, .T.);
#338 = ORIENTED_EDGE('', *, *, #300, .F.);
#339 = B_SPLINE_SURFACE_WITH_KNOTS('', 1, 1, ((#340, #341), (#342, #343)), .UNSPECIFIED., .F., .F., .U., (2, 2), (2, 2), (0., 1.), (0., 1.), .UNSPECIFIED.);
#340 = CARTESIAN_POINT('', (3.3, -3.3, -57.));
#341 = CARTESIAN_POINT('', (3.3, 3.3, -57.));
#342 = CARTESIAN_POINT('', (-3.3, -3.3, -57.));
#343 = CARTESIAN_POINT('', (-3.3, 3.3, -57.));
#344 = PRESENTATION_STYLE_ASSIGNMENT((#345));
#345 = SURFACE_STYLE_USAGE(.POSITIVE., #346);
#346 = SURFACE_SIDE_STYLE('', (#347));
#347 = SURFACE_STYLE_FILL_AREA(#348);
#348 = FILL_AREA_STYLE('', (#349));
#349 = FILL_AREA_STYLE_COLOUR('', #350);
#350 = COLOUR_RGB('', 0.8, 0.8, 0.8);
#351 = STYLED_ITEM('', (#344), #214);
#352 = TRIMMED_CURVE('cutting part line', #353, (#357), (#358), .T., .CARTESIAN.);
#353 = LINE('', #354, #355);
#354 = CARTESIAN_POINT('', (3., 0., -45.));
#355 = VECTOR('', #356, 0.64951875);
#356 = DIRECTION('', (-0.64951875, 0., 0.));
#357 = CARTESIAN_POINT('', (3., 0., -45.));
#358 = CARTESIAN_POINT('', (2.35048125, 0., -45.));
#359 = TRIMMED_CURVE('cutting part line', #360, (#364), (#365), .T., .CARTESIAN.);
#360 = LINE('', #361, #362);
#361 = CARTESIAN_POINT('', (2.35048125, 0., -45.));
#362 = VECTOR('', #363, 12.);
#363 = DIRECTION('', (0., -3.88518876298357E-16, -12.));
#364 = CARTESIAN_POINT('', (2.35048125, 0., -45.));
#365 = CARTESIAN_POINT('', (2.35048125, -3.88518876298357E-16, -57.));
#366 = TRIMMED_CURVE('cutting part line', #367, (#371), (#372), .T., .CARTESIAN.);
#367 = LINE('', #368, #369);
#368 = CARTESIAN_POINT('', (2.35048125, 0., -57.));
#369 = VECTOR('', #370, 0.64951875);
#370 = DIRECTION('', (0.64951875, 0., 7.105427357601E-15));
#371 = CARTESIAN_POINT('', (2.35048125, 0., -57.));
#372 = CARTESIAN_POINT('', (3., 0., -57.));
#373 = TRIMMED_CURVE('cutting part line', #374, (#378), (#379), .T., .CARTESIAN.);
#374 = LINE('', #375, #376);
#375 = CARTESIAN_POINT('', (3., -6.10529662754562E-16, -57.));
#376 = VECTOR('', #377, 12.);
#377 = DIRECTION('', (0., 6.10529662754562E-16, 12.));
#378 = CARTESIAN_POINT('', (3., -6.10529662754562E-16, -57.));
#379 = CARTESIAN_POINT('', (3., 0., -45.));
#380 = COMPOSITE_CURVE('cutting part line', (#381, #382, #383, #384), .U.);
#381 = COMPOSITE_CURVE_SEGMENT(.CONTINUOUS., .T., #352);
#382 = COMPOSITE_CURVE_SEGMENT(.CONTINUOUS., .T., #359);
#383 = COMPOSITE_CURVE_SEGMENT(.CONTINUOUS., .T., #366);
#384 = COMPOSITE_CURVE_SEGMENT(.CONTINUOUS., .T., #373);
#385 = GEOMETRIC_SET('', (#380, #423));
#386 = PRESENTATION_STYLE_ASSIGNMENT((#387));
#387 = CURVE_STYLE('', #389, POSITIVE_LENGTH_MEASURE(1.E-6), #388);
#388 = COLOUR_RGB('', 0., 0., 1.);
#389 = DRAUGHTING_PRE_DEFINED_CURVE_FONT('continuous');
#390 = STYLED_ITEM('', (#386), #380);
#391 = PRESENTATION_STYLE_ASSIGNMENT((#392));
#392 = CURVE_STYLE('', #394, POSITIVE_LENGTH_MEASURE(1.E-6), #393);
#393 = COLOUR_RGB('', 0., 0., 1.);
#394 = DRAUGHTING_PRE_DEFINED_CURVE_FONT('continuous');
#395 = OVER_RIDING_STYLED_ITEM('', (#391), #352, #390);
#396 = PRESENTATION_STYLE_ASSIGNMENT((#397));
#397 = CURVE_STYLE('', #399, POSITIVE_LENGTH_MEASURE(1.E-6), #398);
#398 = COLOUR_RGB('', 0., 0., 1.);
#399 = DRAUGHTING_PRE_DEFINED_CURVE_FONT('continuous');
#400 = OVER_RIDING_STYLED_ITEM('', (#396), #359, #390);
#401 = PRESENTATION_STYLE_ASSIGNMENT((#402));
#402 = CURVE_STYLE('', #404, POSITIVE_LENGTH_MEASURE(1.E-6), #403);
#403 = COLOUR_RGB('', 0., 0., 1.);
#404 = DRAUGHTING_PRE_DEFINED_CURVE_FONT('continuous');
#405 = OVER_RIDING_STYLED_ITEM('', (#401), #366, #390);
#406 = PRESENTATION_STYLE_ASSIGNMENT((#407));
#407 = CURVE_STYLE('', #409, POSITIVE_LENGTH_MEASURE(1.E-6), #408);
#408 = COLOUR_RGB('', 0., 0., 1.);
#409 = DRAUGHTING_PRE_DEFINED_CURVE_FONT('continuous');
#410 = OVER_RIDING_STYLED_ITEM('', (#406), #373, #390);
#411 = AXIS2_PLACEMENT_3D('MCS', #412, #413, #414);
#412 = CARTESIAN_POINT('', (0., 0., -36.));
#413 = DIRECTION('', (0., 0., 1.));
#414 = DIRECTION('', (1., 0., 0.));
#415 = AXIS2_PLACEMENT_3D('PCS', #416, #417, #418);
#416 = CARTESIAN_POINT('', (0., 0., 0.));
#417 = DIRECTION('', (0., 0., 1.));
#418 = DIRECTION('', (1., 0., 0.));
#419 = AXIS2_PLACEMENT_3D('CIP', #420, #421, #422);
#420 = CARTESIAN_POINT('', (0., 0., -57.));
#421 = DIRECTION('', (0., 0., 1.));
#422 = DIRECTION('', (1., 0., 0.));
#423 = CARTESIAN_POINT('CRP', (3., 0., -57.));
#424 = (
   GEOMETRIC_REPRESENTATION_CONTEXT (3)
   GLOBAL_UNCERTAINTY_ASSIGNED_CONTEXT ((#426))
   GLOBAL_UNIT_ASSIGNED_CONTEXT ((#425, #427, #428))
   REPRESENTATION_CONTEXT ('', '3D')
);
#425 = (
   LENGTH_UNIT ()
   NAMED_UNIT (*)
   SI_UNIT (.MILLI., .METRE.)
);
#426 = UNCERTAINTY_MEASURE_WITH_UNIT(LENGTH_MEASURE(1.E-6), #425, 'DISTANCE_ACCURACY_VALUE', '');
#427 = (
   NAMED_UNIT (*)
   SI_UNIT ($, .STERADIAN.)
   SOLID_ANGLE_UNIT ()
);
#428 = (
   NAMED_UNIT (*)
   PLANE_ANGLE_UNIT ()
   SI_UNIT ($, .RADIAN.)
);
#429 = SHAPE_REPRESENTATION('', (), #424);
#430 = PRODUCT_DEFINITION_SHAPE('', '', #431);
#431 = PRODUCT_DEFINITION('', '', #434, #438);
#432 = APPLICATION_CONTEXT('configuration controlled 3D designs of mechanical parts and assemblies');
#433 = APPLICATION_PROTOCOL_DEFINITION('International Standard', 'automotive_design', 2002, #432);
#434 = PRODUCT_DEFINITION_FORMATION_WITH_SPECIFIED_SOURCE('', '', #435, .NOT_KNOWN.);
#435 = PRODUCT('product-name', 'R217.13-060075AC12N 1630', '', (#436));
#436 = PRODUCT_CONTEXT('', #432, 'mechanical');
#437 = PRODUCT_RELATED_PRODUCT_CATEGORY('detail', '', (#435));
#438 = PRODUCT_DEFINITION_CONTEXT('part definition', #432, 'design');
#439 = SHAPE_DEFINITION_REPRESENTATION(#430, #429);
#440 = CONSTRUCTIVE_GEOMETRY_REPRESENTATION('supplemental geometry', (#411, #415, #419), #424);
#441 = CONSTRUCTIVE_GEOMETRY_REPRESENTATION_RELATIONSHIP('', '', #429, #440);
#442 = SHAPE_REPRESENTATION_RELATIONSHIP('', '', #429, #443);
#443 = SHAPE_REPRESENTATION('', (#385), #424);
#444 = SHAPE_REPRESENTATION_RELATIONSHIP('', '', #429, #445);
#445 = ADVANCED_BREP_SHAPE_REPRESENTATION('', (#1, #214), #424);
ENDSEC;
END-ISO-10303-21;
