ISO-10303-21;
HEADER;
FILE_DESCRIPTION(('STEP'), '1');
FILE_NAME('C:\\Users\\ds2002\\OneDrive - Sandvik\\HomeShare\\Documents\\Batchrepair\\CorSRT2\\NEW_MILBN_SLD\\Output2\\MOD000000000000000020084655300000.stp', '2018-11-23T12:38:48', (''), (''), 'Express v3.0.0.0', 'Express Tool', 'Unknown');
FILE_SCHEMA(('AUTOMOTIVE_DESIGN'));
ENDSEC;

DATA;
#1 = MANIFOLD_SOLID_BREP('NOCUT', #2);
#2 = CLOSED_SHELL('', (#3, #50, #89, #128, #175, #184, #215));
#3 = ADVANCED_FACE('', (#4), #31, .T.);
#4 = FACE_OUTER_BOUND('', #5, .T.);
#5 = EDGE_LOOP('', (#6, #16, #23, #24));
#6 = ORIENTED_EDGE('', *, *, #7, .F.);
#7 = EDGE_CURVE('', #8, #10, #12, .T.);
#8 = VERTEX_POINT('', #9);
#9 = CARTESIAN_POINT('', (-4.9, 5.60153445929999E-15, -86.58));
#10 = VERTEX_POINT('', #11);
#11 = CARTESIAN_POINT('', (-6., 5.69460761603519E-15, -87.));
#12 = LINE('', #13, #14);
#13 = CARTESIAN_POINT('', (-4.9, 5.60153445929999E-15, -86.58));
#14 = VECTOR('', #15, 1.1774548823628);
#15 = DIRECTION('', (-1.1, 9.30731567351997E-17, -0.420000000000002));
#16 = ORIENTED_EDGE('', *, *, #17, .T.);
#17 = EDGE_CURVE('', #8, #8, #18, .T.);
#18 = CIRCLE('', #19, 4.9);
#19 = AXIS2_PLACEMENT_3D('', #20, #21, #22);
#20 = CARTESIAN_POINT('', (-2.77555756156289E-16, 1.77635683940025E-15, -86.58));
#21 = DIRECTION('', (0., 0., -1.));
#22 = DIRECTION('', (-1., 7.8064849385709E-16, 0.));
#23 = ORIENTED_EDGE('', *, *, #7, .T.);
#24 = ORIENTED_EDGE('', *, *, #25, .F.);
#25 = EDGE_CURVE('', #10, #10, #26, .T.);
#26 = CIRCLE('', #27, 6.);
#27 = AXIS2_PLACEMENT_3D('', #28, #29, #30);
#28 = CARTESIAN_POINT('', (-1.11022302462516E-15, 4.32986979603811E-15, -87.));
#29 = DIRECTION('', (0., 0., -1.));
#30 = DIRECTION('', (-1., -1.74730564966235E-17, 0.));
#31 = (
   BOUNDED_SURFACE ()
   B_SPLINE_SURFACE (2, 1, ((#32, #33), (#34, #35), (#36, #37), (#38, #39), (#40, #41), (#42, #43), (#44, #45), (#46, #47), (#48, #49)), .UNSPECIFIED., .T., .F., .U.)
   B_SPLINE_SURFACE_WITH_KNOTS ((3, 2, 2, 2, 3), (2, 2), (0., 0.25, 0.5, 0.75, 1.), (0., 1.), .UNSPECIFIED.)
   GEOMETRIC_REPRESENTATION_ITEM ()
   RATIONAL_B_SPLINE_SURFACE (((1., 1.), (0.707106781186548, 0.707106781186548), (1., 1.), (0.707106781186548, 0.707106781186548), (1., 1.), (0.707106781186548, 0.707106781186548), (1., 1.), (0.707106781186548, 0.707106781186548), (1., 1.)))
   REPRESENTATION_ITEM ('')
   SURFACE ()
);
#32 = CARTESIAN_POINT('', (-4.9, 5.60153445929999E-15, -86.58));
#33 = CARTESIAN_POINT('', (-6., 1.14109361878611E-14, -87.));
#34 = CARTESIAN_POINT('', (-4.9, 4.90000000000001, -86.5799999999999));
#35 = CARTESIAN_POINT('', (-6., 6.00000000000001, -86.9999999999999));
#36 = CARTESIAN_POINT('', (4.69087332996505E-15, 4.9, -86.5799999999999));
#37 = CARTESIAN_POINT('', (5.88100508360991E-15, 6., -86.9999999999999));
#38 = CARTESIAN_POINT('', (4.90000000000001, 4.9, -86.5799999999999));
#39 = CARTESIAN_POINT('', (6.00000000000001, 6., -86.9999999999999));
#40 = CARTESIAN_POINT('', (4.9, -5.00145752771779E-15, -86.58));
#41 = CARTESIAN_POINT('', (6., -1.57231930644639E-15, -87.));
#42 = CARTESIAN_POINT('', (4.9, -4.90000000000001, -86.5800000000001));
#43 = CARTESIAN_POINT('', (5.99999999999999, -6., -87.0000000000001));
#44 = CARTESIAN_POINT('', (-5.31204172547052E-15, -4.9, -86.5800000000001));
#45 = CARTESIAN_POINT('', (-6.36746233120916E-15, -6., -87.0000000000001));
#46 = CARTESIAN_POINT('', (-4.90000000000001, -4.9, -86.5800000000001));
#47 = CARTESIAN_POINT('', (-6.00000000000001, -5.99999999999999, -87.0000000000001));
#48 = CARTESIAN_POINT('', (-4.9, 5.60153445929999E-15, -86.58));
#49 = CARTESIAN_POINT('', (-6., 1.14109361878611E-14, -87.));
#50 = ADVANCED_FACE('', (#51), #70, .T.);
#51 = FACE_OUTER_BOUND('', #52, .T.);
#52 = EDGE_LOOP('', (#53, #61, #68, #69));
#53 = ORIENTED_EDGE('', *, *, #54, .F.);
#54 = EDGE_CURVE('', #55, #8, #57, .T.);
#55 = VERTEX_POINT('', #56);
#56 = CARTESIAN_POINT('', (-4.9, 3.66781716344632E-15, -55.));
#57 = LINE('', #58, #59);
#58 = CARTESIAN_POINT('', (-4.9, 3.66781716344632E-15, -55.));
#59 = VECTOR('', #60, 31.58);
#60 = DIRECTION('', (0., 1.93371729585367E-15, -31.58));
#61 = ORIENTED_EDGE('', *, *, #62, .T.);
#62 = EDGE_CURVE('', #55, #55, #63, .T.);
#63 = CIRCLE('', #64, 4.9);
#64 = AXIS2_PLACEMENT_3D('', #65, #66, #67);
#65 = CARTESIAN_POINT('', (-2.91433543964104E-16, 4.44089209850063E-16, -55.));
#66 = DIRECTION('', (3.24703516081795E-30, 4.93542647426527E-15, -1.));
#67 = DIRECTION('', (-1., 6.57903663999236E-16, 0.));
#68 = ORIENTED_EDGE('', *, *, #54, .T.);
#69 = ORIENTED_EDGE('', *, *, #17, .F.);
#70 = (
   BOUNDED_SURFACE ()
   B_SPLINE_SURFACE (2, 1, ((#71, #72), (#73, #74), (#75, #76), (#77, #78), (#79, #80), (#81, #82), (#83, #84), (#85, #86), (#87, #88)), .UNSPECIFIED., .T., .F., .U.)
   B_SPLINE_SURFACE_WITH_KNOTS ((3, 2, 2, 2, 3), (2, 2), (0., 7.696902001295, 15.39380400259, 23.090706003885, 30.78760800518), (0., 1.), .UNSPECIFIED.)
   GEOMETRIC_REPRESENTATION_ITEM ()
   RATIONAL_B_SPLINE_SURFACE (((1., 1.), (0.707106781186548, 0.707106781186548), (1., 1.), (0.707106781186548, 0.707106781186548), (1., 1.), (0.707106781186548, 0.707106781186548), (1., 1.), (0.707106781186548, 0.707106781186548), (1., 1.)))
   REPRESENTATION_ITEM ('')
   SURFACE ()
);
#71 = CARTESIAN_POINT('', (-4.9, 3.66781716344632E-15, -55.));
#72 = CARTESIAN_POINT('', (-4.9, 7.22053084224682E-15, -86.58));
#73 = CARTESIAN_POINT('', (-4.9, 4.9, -55.));
#74 = CARTESIAN_POINT('', (-4.9, 4.90000000000001, -86.58));
#75 = CARTESIAN_POINT('', (3.49267878792555E-15, 4.9, -55.));
#76 = CARTESIAN_POINT('', (3.49267878792555E-15, 4.9, -86.58));
#77 = CARTESIAN_POINT('', (4.9, 4.9, -55.));
#78 = CARTESIAN_POINT('', (4.9, 4.9, -86.58));
#79 = CARTESIAN_POINT('', (4.9, -2.62365102201405E-15, -55.));
#80 = CARTESIAN_POINT('', (4.9, 9.29062656786449E-16, -86.58));
#81 = CARTESIAN_POINT('', (4.9, -4.9, -55.));
#82 = CARTESIAN_POINT('', (4.9, -4.9, -86.58));
#83 = CARTESIAN_POINT('', (-2.19871246595262E-15, -4.9, -55.));
#84 = CARTESIAN_POINT('', (-2.19871246595262E-15, -4.9, -86.58));
#85 = CARTESIAN_POINT('', (-4.9, -4.9, -55.));
#86 = CARTESIAN_POINT('', (-4.9, -4.89999999999999, -86.58));
#87 = CARTESIAN_POINT('', (-4.9, 3.66781716344632E-15, -55.));
#88 = CARTESIAN_POINT('', (-4.9, 7.22053084224682E-15, -86.58));
#89 = ADVANCED_FACE('', (#90), #109, .T.);
#90 = FACE_OUTER_BOUND('', #91, .T.);
#91 = EDGE_LOOP('', (#92, #100, #107, #108));
#92 = ORIENTED_EDGE('', *, *, #93, .F.);
#93 = EDGE_CURVE('', #94, #55, #96, .T.);
#94 = VERTEX_POINT('', #95);
#95 = CARTESIAN_POINT('', (-6., 3.30654635769785E-15, -48.));
#96 = LINE('', #97, #98);
#97 = CARTESIAN_POINT('', (-6., 3.30654635769785E-15, -48.));
#98 = VECTOR('', #99, 7.08590149522275);
#99 = DIRECTION('', (1.1, 3.6127080574847E-16, -7.));
#100 = ORIENTED_EDGE('', *, *, #101, .T.);
#101 = EDGE_CURVE('', #94, #94, #102, .T.);
#102 = CIRCLE('', #103, 6.);
#103 = AXIS2_PLACEMENT_3D('', #104, #105, #106);
#104 = CARTESIAN_POINT('', (-1.33226762955019E-15, 3.33066907387547E-16, -48.));
#105 = DIRECTION('', (0., 0., -1.));
#106 = DIRECTION('', (-1., 4.95579908385051E-16, 0.));
#107 = ORIENTED_EDGE('', *, *, #93, .T.);
#108 = ORIENTED_EDGE('', *, *, #62, .F.);
#109 = (
   BOUNDED_SURFACE ()
   B_SPLINE_SURFACE (2, 1, ((#110, #111), (#112, #113), (#114, #115), (#116, #117), (#118, #119), (#120, #121), (#122, #123), (#124, #125), (#126, #127)), .UNSPECIFIED., .T., .F., .U.)
   B_SPLINE_SURFACE_WITH_KNOTS ((3, 2, 2, 2, 3), (2, 2), (0., 0.25, 0.5, 0.75, 1.), (0., 1.), .UNSPECIFIED.)
   GEOMETRIC_REPRESENTATION_ITEM ()
   RATIONAL_B_SPLINE_SURFACE (((1., 1.), (0.707106781186548, 0.707106781186548), (1., 1.), (0.707106781186548, 0.707106781186548), (1., 1.), (0.707106781186548, 0.707106781186548), (1., 1.), (0.707106781186548, 0.707106781186548), (1., 1.)))
   REPRESENTATION_ITEM ('')
   SURFACE ()
);
#110 = CARTESIAN_POINT('', (-6., 3.30654635769785E-15, -48.));
#111 = CARTESIAN_POINT('', (-4.9, 1.50315569723245E-15, -55.));
#112 = CARTESIAN_POINT('', (-6., 6., -48.));
#113 = CARTESIAN_POINT('', (-4.9, 4.9, -55.));
#114 = CARTESIAN_POINT('', (9.40750873628363E-16, 6., -48.));
#115 = CARTESIAN_POINT('', (8.70050324053802E-16, 4.9, -55.));
#116 = CARTESIAN_POINT('', (6., 6., -48.));
#117 = CARTESIAN_POINT('', (4.9, 4.9, -55.));
#118 = CARTESIAN_POINT('', (6., 2.53526763506628E-15, -48.));
#119 = CARTESIAN_POINT('', (4.9, 8.73278073750003E-16, -55.));
#120 = CARTESIAN_POINT('', (6., -6., -48.));
#121 = CARTESIAN_POINT('', (4.9, -4.9, -55.));
#122 = CARTESIAN_POINT('', (9.04260230485206E-16, -6., -48.));
#123 = CARTESIAN_POINT('', (8.40249632153557E-16, -4.9, -55.));
#124 = CARTESIAN_POINT('', (-6., -6., -48.));
#125 = CARTESIAN_POINT('', (-4.9, -4.9, -55.));
#126 = CARTESIAN_POINT('', (-6., 3.30654635769785E-15, -48.));
#127 = CARTESIAN_POINT('', (-4.9, 1.50315569723245E-15, -55.));
#128 = ADVANCED_FACE('', (#129), #156, .T.);
#129 = FACE_OUTER_BOUND('', #130, .T.);
#130 = EDGE_LOOP('', (#131, #141, #148, #149));
#131 = ORIENTED_EDGE('', *, *, #132, .T.);
#132 = EDGE_CURVE('', #133, #135, #137, .T.);
#133 = VERTEX_POINT('', #134);
#134 = CARTESIAN_POINT('', (-6., 4.04133443718627E-16, -0.600000000000001));
#135 = VERTEX_POINT('', #136);
#136 = CARTESIAN_POINT('', (-5.4, 3.30654635769785E-16, 0.));
#137 = LINE('', #138, #139);
#138 = CARTESIAN_POINT('', (-6., 4.04133443718627E-16, -0.600000000000001));
#139 = VECTOR('', #140, 0.848528137423857);
#140 = DIRECTION('', (0.6, -7.3478807948842E-17, 0.600000000000001));
#141 = ORIENTED_EDGE('', *, *, #142, .T.);
#142 = EDGE_CURVE('', #135, #135, #143, .T.);
#143 = CIRCLE('', #144, 5.4);
#144 = AXIS2_PLACEMENT_3D('', #145, #146, #147);
#145 = CARTESIAN_POINT('', (6.93889390390723E-16, -1.11022302462516E-16, 1.23259516440783E-32));
#146 = DIRECTION('', (7.29090075504589E-33, 6.12323399573677E-17, -1.));
#147 = DIRECTION('', (-1., -1.63137334230896E-16, -1.72801814644108E-32));
#148 = ORIENTED_EDGE('', *, *, #132, .F.);
#149 = ORIENTED_EDGE('', *, *, #150, .F.);
#150 = EDGE_CURVE('', #133, #133, #151, .T.);
#151 = CIRCLE('', #152, 6.);
#152 = AXIS2_PLACEMENT_3D('', #153, #154, #155);
#153 = CARTESIAN_POINT('', (-1.22124532708767E-15, -2.1094237467878E-15, -0.600000000000001));
#154 = DIRECTION('', (-1.85037170770859E-17, 1.2317654765601E-16, -1.));
#155 = DIRECTION('', (-1., 1.73996838588266E-16, 1.85037170770859E-17));
#156 = (
   BOUNDED_SURFACE ()
   B_SPLINE_SURFACE (1, 2, ((#157, #158, #159, #160, #161, #162, #163, #164, #165), (#166, #167, #168, #169, #170, #171, #172, #173, #174)), .UNSPECIFIED., .F., .T., .U.)
   B_SPLINE_SURFACE_WITH_KNOTS ((2, 2), (3, 2, 2, 2, 3), (0., 1.), (0., 0.25, 0.5, 0.75, 1.), .UNSPECIFIED.)
   GEOMETRIC_REPRESENTATION_ITEM ()
   RATIONAL_B_SPLINE_SURFACE (((1., 0.707106781186548, 1., 0.707106781186548, 1., 0.707106781186548, 1., 0.707106781186548, 1.), (1., 0.707106781186548, 1., 0.707106781186548, 1., 0.707106781186548, 1., 0.707106781186548, 1.)))
   REPRESENTATION_ITEM ('')
   SURFACE ()
);
#157 = CARTESIAN_POINT('', (-6., 2.98258605330568E-15, -0.600000000000001));
#158 = CARTESIAN_POINT('', (-6., 6., -0.599999999999978));
#159 = CARTESIAN_POINT('', (4.68298239692583E-15, 6., -0.599999999999978));
#160 = CARTESIAN_POINT('', (6., 6., -0.599999999999978));
#161 = CARTESIAN_POINT('', (6., -2.69188718366733E-15, -0.600000000000001));
#162 = CARTESIAN_POINT('', (6., -6., -0.600000000000024));
#163 = CARTESIAN_POINT('', (-2.56702760558774E-16, -6., -0.600000000000024));
#164 = CARTESIAN_POINT('', (-6., -6., -0.600000000000024));
#165 = CARTESIAN_POINT('', (-6., 2.98258605330568E-15, -0.600000000000001));
#166 = CARTESIAN_POINT('', (-5.4, 3.30654635769784E-16, -6.56858655152258E-47));
#167 = CARTESIAN_POINT('', (-5.4, 5.4, 2.09832151654154E-14));
#168 = CARTESIAN_POINT('', (4.39925873507718E-15, 5.4, 2.09832151654154E-14));
#169 = CARTESIAN_POINT('', (5.4, 5.4, 2.09832151654154E-14));
#170 = CARTESIAN_POINT('', (5.4, -4.77637127750593E-15, 2.27387988935674E-30));
#171 = CARTESIAN_POINT('', (5.4, -5.40000000000001, -2.09832151654154E-14));
#172 = CARTESIAN_POINT('', (-4.64579066589654E-17, -5.4, -2.09832151654154E-14));
#173 = CARTESIAN_POINT('', (-5.4, -5.4, -2.09832151654154E-14));
#174 = CARTESIAN_POINT('', (-5.4, 3.30654635769784E-16, -6.56858655152258E-47));
#175 = ADVANCED_FACE('', (#176), #179, .T.);
#176 = FACE_OUTER_BOUND('', #177, .T.);
#177 = EDGE_LOOP('', (#178));
#178 = ORIENTED_EDGE('', *, *, #142, .F.);
#179 = B_SPLINE_SURFACE_WITH_KNOTS('', 1, 1, ((#180, #181), (#182, #183)), .UNSPECIFIED., .F., .F., .U., (2, 2), (2, 2), (3.00042856049618, 13.8004285604962), (3.00042856049619, 13.8004285604962), .UNSPECIFIED.);
#180 = CARTESIAN_POINT('', (5.4, -5.4, -7.43608199337083E-15));
#181 = CARTESIAN_POINT('', (-5.4, -5.4, -7.43608199337083E-15));
#182 = CARTESIAN_POINT('', (5.4, 5.4, 7.43608199337074E-15));
#183 = CARTESIAN_POINT('', (-5.4, 5.4, 7.43608199337074E-15));
#184 = ADVANCED_FACE('', (#185), #196, .T.);
#185 = FACE_OUTER_BOUND('', #186, .T.);
#186 = EDGE_LOOP('', (#187, #193, #194, #195));
#187 = ORIENTED_EDGE('', *, *, #188, .T.);
#188 = EDGE_CURVE('', #94, #133, #189, .T.);
#189 = LINE('', #190, #191);
#190 = CARTESIAN_POINT('', (-6., 3.30654635769785E-15, -48.));
#191 = VECTOR('', #192, 47.4);
#192 = DIRECTION('', (0., -2.90241291397922E-15, 47.4));
#193 = ORIENTED_EDGE('', *, *, #150, .T.);
#194 = ORIENTED_EDGE('', *, *, #188, .F.);
#195 = ORIENTED_EDGE('', *, *, #101, .F.);
#196 = (
   BOUNDED_SURFACE ()
   B_SPLINE_SURFACE (1, 2, ((#197, #198, #199, #200, #201, #202, #203, #204, #205), (#206, #207, #208, #209, #210, #211, #212, #213, #214)), .UNSPECIFIED., .F., .T., .U.)
   B_SPLINE_SURFACE_WITH_KNOTS ((2, 2), (3, 2, 2, 2, 3), (0., 1.), (0., 9.42477796076937, 18.8495559215388, 28.2743338823081, 37.6991118430775), .UNSPECIFIED.)
   GEOMETRIC_REPRESENTATION_ITEM ()
   RATIONAL_B_SPLINE_SURFACE (((1., 0.707106781186548, 1., 0.707106781186548, 1., 0.707106781186548, 1., 0.707106781186548, 1.), (1., 0.707106781186548, 1., 0.707106781186548, 1., 0.707106781186548, 1., 0.707106781186548, 1.)))
   REPRESENTATION_ITEM ('')
   SURFACE ()
);
#197 = CARTESIAN_POINT('', (-6., 4.04133443718627E-16, -48.));
#198 = CARTESIAN_POINT('', (-6., 6., -48.));
#199 = CARTESIAN_POINT('', (1.18582023446146E-15, 6., -48.));
#200 = CARTESIAN_POINT('', (6., 6., -48.));
#201 = CARTESIAN_POINT('', (6., -7.79568388855371E-16, -48.));
#202 = CARTESIAN_POINT('', (6., -6., -48.));
#203 = CARTESIAN_POINT('', (7.36906481375872E-16, -6., -48.));
#204 = CARTESIAN_POINT('', (-6., -6., -48.));
#205 = CARTESIAN_POINT('', (-6., 4.04133443718627E-16, -48.));
#206 = CARTESIAN_POINT('', (-6., 4.04133443718627E-16, -0.600000000000001));
#207 = CARTESIAN_POINT('', (-6., 6., -0.600000000000001));
#208 = CARTESIAN_POINT('', (2.06289642391533E-15, 6., -0.600000000000001));
#209 = CARTESIAN_POINT('', (6., 6., -0.600000000000001));
#210 = CARTESIAN_POINT('', (6., -7.79568388855371E-16, -0.600000000000001));
#211 = CARTESIAN_POINT('', (6., -6., -0.600000000000001));
#212 = CARTESIAN_POINT('', (1.61398267082975E-15, -6., -0.600000000000001));
#213 = CARTESIAN_POINT('', (-6., -6., -0.600000000000001));
#214 = CARTESIAN_POINT('', (-6., 4.04133443718627E-16, -0.600000000000001));
#215 = ADVANCED_FACE('', (#216), #219, .T.);
#216 = FACE_OUTER_BOUND('', #217, .T.);
#217 = EDGE_LOOP('', (#218));
#218 = ORIENTED_EDGE('', *, *, #25, .T.);
#219 = B_SPLINE_SURFACE_WITH_KNOTS('', 1, 1, ((#220, #221), (#222, #223)), .UNSPECIFIED., .F., .F., .U., (2, 2), (2, 2), (99.869783975827, 111.869783975827), (90.9897811622268, 102.989781162227), .UNSPECIFIED.);
#220 = CARTESIAN_POINT('', (-6., 6.00000000000001, -87.));
#221 = CARTESIAN_POINT('', (-6., -6., -87.));
#222 = CARTESIAN_POINT('', (6., 6.00000000000001, -87.));
#223 = CARTESIAN_POINT('', (6., -6., -87.));
#224 = DRAUGHTING_MODEL('', (#232, #340, #380, #385, #390, #395, #400), #414);
#225 = PRESENTATION_STYLE_ASSIGNMENT((#226));
#226 = SURFACE_STYLE_USAGE(.POSITIVE., #227);
#227 = SURFACE_SIDE_STYLE('', (#228));
#228 = SURFACE_STYLE_FILL_AREA(#229);
#229 = FILL_AREA_STYLE('', (#230));
#230 = FILL_AREA_STYLE_COLOUR('', #231);
#231 = COLOUR_RGB('', 0.50196078431373, 0.50196078431373, 0.50196078431373);
#232 = STYLED_ITEM('', (#225), #1);
#233 = MANIFOLD_SOLID_BREP('CUT', #234);
#234 = CLOSED_SHELL('', (#235, #252, #291));
#235 = ADVANCED_FACE('', (#236), #247, .T.);
#236 = FACE_OUTER_BOUND('', #237, .T.);
#237 = EDGE_LOOP('', (#238));
#238 = ORIENTED_EDGE('', *, *, #239, .F.);
#239 = EDGE_CURVE('', #240, #240, #242, .T.);
#240 = VERTEX_POINT('', #241);
#241 = CARTESIAN_POINT('', (-6., 5.69460761603519E-15, -87.));
#242 = CIRCLE('', #243, 6.);
#243 = AXIS2_PLACEMENT_3D('', #244, #245, #246);
#244 = CARTESIAN_POINT('', (-7.7715611723761E-16, 1.22124532708767E-15, -87.));
#245 = DIRECTION('', (0., 0., -1.));
#246 = DIRECTION('', (-1., 7.45560381491253E-16, 0.));
#247 = B_SPLINE_SURFACE_WITH_KNOTS('', 1, 1, ((#248, #249), (#250, #251)), .UNSPECIFIED., .F., .F., .U., (2, 2), (2, 2), (90.9897811622267, 102.989781162227), (99.869783975827, 111.869783975827), .UNSPECIFIED.);
#248 = CARTESIAN_POINT('', (-6., 6.00000000000001, -87.));
#249 = CARTESIAN_POINT('', (6., 6.00000000000001, -87.));
#250 = CARTESIAN_POINT('', (-6., -6., -87.));
#251 = CARTESIAN_POINT('', (6., -6., -87.));
#252 = ADVANCED_FACE('', (#253), #272, .T.);
#253 = FACE_OUTER_BOUND('', #254, .T.);
#254 = EDGE_LOOP('', (#255, #263, #264, #265));
#255 = ORIENTED_EDGE('', *, *, #256, .F.);
#256 = EDGE_CURVE('', #240, #257, #259, .T.);
#257 = VERTEX_POINT('', #258);
#258 = CARTESIAN_POINT('', (-6., 6.12323399573677E-15, -94.));
#259 = LINE('', #260, #261);
#260 = CARTESIAN_POINT('', (-6., 5.69460761603519E-15, -87.));
#261 = VECTOR('', #262, 7.);
#262 = DIRECTION('', (0., 4.2862637970158E-16, -7.));
#263 = ORIENTED_EDGE('', *, *, #239, .T.);
#264 = ORIENTED_EDGE('', *, *, #256, .T.);
#265 = ORIENTED_EDGE('', *, *, #266, .F.);
#266 = EDGE_CURVE('', #257, #257, #267, .T.);
#267 = CIRCLE('', #268, 6.);
#268 = AXIS2_PLACEMENT_3D('', #269, #270, #271);
#269 = CARTESIAN_POINT('', (4.71844785465692E-16, -7.7715611723761E-16, -94.));
#270 = DIRECTION('', (0., 0., -1.));
#271 = DIRECTION('', (-1., 1.15006501882906E-15, 0.));
#272 = (
   BOUNDED_SURFACE ()
   B_SPLINE_SURFACE (2, 1, ((#273, #274), (#275, #276), (#277, #278), (#279, #280), (#281, #282), (#283, #284), (#285, #286), (#287, #288), (#289, #290)), .UNSPECIFIED., .T., .F., .U.)
   B_SPLINE_SURFACE_WITH_KNOTS ((3, 2, 2, 2, 3), (2, 2), (0., 9.42477796076938, 18.8495559215388, 28.2743338823081, 37.6991118430775), (0., 1.), .UNSPECIFIED.)
   GEOMETRIC_REPRESENTATION_ITEM ()
   RATIONAL_B_SPLINE_SURFACE (((1., 1.), (0.707106781186548, 0.707106781186548), (1., 1.), (0.707106781186548, 0.707106781186548), (1., 1.), (0.707106781186548, 0.707106781186548), (1., 1.), (0.707106781186548, 0.707106781186548), (1., 1.)))
   REPRESENTATION_ITEM ('')
   SURFACE ()
);
#273 = CARTESIAN_POINT('', (-6., 5.69460761603519E-15, -87.));
#274 = CARTESIAN_POINT('', (-6., 1.14269321507205E-15, -94.));
#275 = CARTESIAN_POINT('', (-6., 6.00000000000001, -87.));
#276 = CARTESIAN_POINT('', (-6., 6., -94.));
#277 = CARTESIAN_POINT('', (1.49694414133419E-15, 6.00000000000001, -87.));
#278 = CARTESIAN_POINT('', (1.49694414133419E-15, 6., -94.));
#279 = CARTESIAN_POINT('', (6., 6.00000000000001, -87.));
#280 = CARTESIAN_POINT('', (6., 6., -94.));
#281 = CARTESIAN_POINT('', (6., 5.69832149985473E-15, -87.));
#282 = CARTESIAN_POINT('', (6., 1.14640709889158E-15, -94.));
#283 = CARTESIAN_POINT('', (6., -6., -87.));
#284 = CARTESIAN_POINT('', (6., -6., -94.));
#285 = CARTESIAN_POINT('', (2.23544610464214E-15, -6., -87.));
#286 = CARTESIAN_POINT('', (2.23544610464214E-15, -6., -94.));
#287 = CARTESIAN_POINT('', (-6., -6., -87.));
#288 = CARTESIAN_POINT('', (-6., -6., -94.));
#289 = CARTESIAN_POINT('', (-6., 5.69460761603519E-15, -87.));
#290 = CARTESIAN_POINT('', (-6., 1.14269321507205E-15, -94.));
#291 = ADVANCED_FACE('', (#292), #305, .T.);
#292 = FACE_OUTER_BOUND('', #293, .T.);
#293 = EDGE_LOOP('', (#294, #303, #304));
#294 = ORIENTED_EDGE('', *, *, #295, .F.);
#295 = EDGE_CURVE('', #257, #296, #298, .T.);
#296 = VERTEX_POINT('', #297);
#297 = CARTESIAN_POINT('', (1.10218211923262E-15, 6.12323399573677E-15, -100.));
#298 = CIRCLE('', #299, 6.00000000000003);
#299 = AXIS2_PLACEMENT_3D('', #300, #301, #302);
#300 = CARTESIAN_POINT('', (2.39808173319034E-14, 5.75583995599256E-15, -94.));
#301 = DIRECTION('', (-6.12323399573675E-17, -1., -6.12323399573673E-17));
#302 = DIRECTION('', (-1., 6.12323399573678E-17, -4.73695157173399E-15));
#303 = ORIENTED_EDGE('', *, *, #266, .T.);
#304 = ORIENTED_EDGE('', *, *, #295, .T.);
#305 = (
   BOUNDED_SURFACE ()
   B_SPLINE_SURFACE (2, 2, ((#306, #307, #308), (#309, #310, #311), (#312, #313, #314), (#315, #316, #317), (#318, #319, #320), (#321, #322, #323), (#324, #325, #326), (#327, #328, #329), (#330, #331, #332)), .UNSPECIFIED., .T., .F., .U.)
   B_SPLINE_SURFACE_WITH_KNOTS ((3, 2, 2, 2, 3), (3, 3), (0., 0.25, 0.5, 0.75, 1.), (0., 1.), .UNSPECIFIED.)
   GEOMETRIC_REPRESENTATION_ITEM ()
   RATIONAL_B_SPLINE_SURFACE (((1., 0.707106781186548, 1.), (0.707106781186548, 0.5, 0.707106781186548), (1., 0.707106781186548, 1.), (0.707106781186548, 0.5, 0.707106781186548), (1., 0.707106781186548, 1.), (0.707106781186548, 0.5, 0.707106781186548), (1., 0.707106781186548, 1.), (0.707106781186548, 0.5, 0.707106781186548), (1., 0.707106781186548, 1.)))
   REPRESENTATION_ITEM ('')
   SURFACE ()
);
#306 = CARTESIAN_POINT('', (-6., 6.12323399573677E-15, -94.));
#307 = CARTESIAN_POINT('', (-6., 6.49062803548097E-15, -100.));
#308 = CARTESIAN_POINT('', (1.10218211923262E-15, 6.12323399573677E-15, -100.));
#309 = CARTESIAN_POINT('', (-6., 5.99999999999997, -94.));
#310 = CARTESIAN_POINT('', (-6., 5.99999999999997, -100.));
#311 = CARTESIAN_POINT('', (1.10218211923262E-15, 6.12323399573677E-15, -100.));
#312 = CARTESIAN_POINT('', (-3.73034936274053E-14, 5.99999999999997, -94.));
#313 = CARTESIAN_POINT('', (-3.69360995876611E-14, 5.99999999999997, -100.));
#314 = CARTESIAN_POINT('', (1.10218211923262E-15, 6.12323399573677E-15, -100.));
#315 = CARTESIAN_POINT('', (5.99999999999993, 5.99999999999997, -94.));
#316 = CARTESIAN_POINT('', (5.99999999999993, 5.99999999999997, -100.));
#317 = CARTESIAN_POINT('', (1.10218211923262E-15, 6.12323399573677E-15, -100.));
#318 = CARTESIAN_POINT('', (5.99999999999993, 6.12323399573679E-15, -94.));
#319 = CARTESIAN_POINT('', (5.99999999999993, 5.75583995599259E-15, -100.));
#320 = CARTESIAN_POINT('', (1.10218211923262E-15, 6.12323399573677E-15, -100.));
#321 = CARTESIAN_POINT('', (5.99999999999993, -5.99999999999996, -94.));
#322 = CARTESIAN_POINT('', (5.99999999999993, -5.99999999999996, -100.));
#323 = CARTESIAN_POINT('', (1.10218211923262E-15, 6.12323399573677E-15, -100.));
#324 = CARTESIAN_POINT('', (-3.65687055479168E-14, -5.99999999999996, -94.));
#325 = CARTESIAN_POINT('', (-3.6936099587661E-14, -5.99999999999996, -100.));
#326 = CARTESIAN_POINT('', (1.10218211923262E-15, 6.12323399573677E-15, -100.));
#327 = CARTESIAN_POINT('', (-6., -5.99999999999996, -94.));
#328 = CARTESIAN_POINT('', (-6., -5.99999999999996, -100.));
#329 = CARTESIAN_POINT('', (1.10218211923262E-15, 6.12323399573677E-15, -100.));
#330 = CARTESIAN_POINT('', (-6., 6.12323399573677E-15, -94.));
#331 = CARTESIAN_POINT('', (-6., 6.49062803548097E-15, -100.));
#332 = CARTESIAN_POINT('', (1.10218211923262E-15, 6.12323399573677E-15, -100.));
#333 = PRESENTATION_STYLE_ASSIGNMENT((#334));
#334 = SURFACE_STYLE_USAGE(.POSITIVE., #335);
#335 = SURFACE_SIDE_STYLE('', (#336));
#336 = SURFACE_STYLE_FILL_AREA(#337);
#337 = FILL_AREA_STYLE('', (#338));
#338 = FILL_AREA_STYLE_COLOUR('', #339);
#339 = COLOUR_RGB('', 0.8, 0.8, 0.8);
#340 = STYLED_ITEM('', (#333), #233);
#341 = TRIMMED_CURVE('cutting part line', #342, (#346), (#347), .T., .CARTESIAN.);
#342 = LINE('', #343, #344);
#343 = CARTESIAN_POINT('', (-9.78593258186863E-31, -5.32721357629099E-15, -87.));
#344 = VECTOR('', #345, 6.);
#345 = DIRECTION('', (6., -1.10218211923261E-15, 0.));
#346 = CARTESIAN_POINT('', (-9.78593258186863E-31, -5.32721357629099E-15, -87.));
#347 = CARTESIAN_POINT('', (6., -6.4293956955236E-15, -87.));
#348 = TRIMMED_CURVE('cutting part line', #349, (#353), (#354), .T., .CARTESIAN.);
#349 = LINE('', #350, #351);
#350 = CARTESIAN_POINT('', (6., -6.4293956955236E-15, -87.));
#351 = VECTOR('', #352, 7.);
#352 = DIRECTION('', (0., -4.2862637970158E-16, -7.));
#353 = CARTESIAN_POINT('', (6., -6.4293956955236E-15, -87.));
#354 = CARTESIAN_POINT('', (6., -6.85802207522518E-15, -94.));
#355 = TRIMMED_CURVE('cutting part line', #356, (#361), (#362), .T., .CARTESIAN.);
#356 = CIRCLE('', #357, 6.00000000000002);
#357 = AXIS2_PLACEMENT_3D('', #358, #359, #360);
#358 = CARTESIAN_POINT('', (-2.66453525910038E-14, -5.75583995599256E-15, -94.));
#359 = DIRECTION('', (1.83697019872103E-16, 1., -6.12323399573675E-17));
#360 = DIRECTION('', (1., -1.83697019872103E-16, -2.36847578586699E-15));
#361 = CARTESIAN_POINT('', (6., -6.85802207522518E-15, -94.));
#362 = CARTESIAN_POINT('', (-1.85305200950594E-15, -6.12323399573677E-15, -100.));
#363 = TRIMMED_CURVE('cutting part line', #364, (#368), (#369), .T., .CARTESIAN.);
#364 = LINE('', #365, #366);
#365 = CARTESIAN_POINT('', (-1.12481983699639E-30, -6.12323399573677E-15, -100.));
#366 = VECTOR('', #367, 13.);
#367 = DIRECTION('', (1.46226578809531E-31, 7.9602041944578E-16, 13.));
#368 = CARTESIAN_POINT('', (-1.12481983699639E-30, -6.12323399573677E-15, -100.));
#369 = CARTESIAN_POINT('', (-9.78593258186863E-31, -5.32721357629099E-15, -87.));
#370 = COMPOSITE_CURVE('cutting part line', (#371, #372, #373, #374), .U.);
#371 = COMPOSITE_CURVE_SEGMENT(.CONTINUOUS., .T., #341);
#372 = COMPOSITE_CURVE_SEGMENT(.CONTINUOUS., .T., #348);
#373 = COMPOSITE_CURVE_SEGMENT(.CONTINUOUS., .T., #355);
#374 = COMPOSITE_CURVE_SEGMENT(.CONTINUOUS., .T., #363);
#375 = GEOMETRIC_SET('', (#370, #413));
#376 = PRESENTATION_STYLE_ASSIGNMENT((#377));
#377 = CURVE_STYLE('', #379, POSITIVE_LENGTH_MEASURE(1.E-6), #378);
#378 = COLOUR_RGB('', 0., 0., 1.);
#379 = DRAUGHTING_PRE_DEFINED_CURVE_FONT('continuous');
#380 = STYLED_ITEM('', (#376), #370);
#381 = PRESENTATION_STYLE_ASSIGNMENT((#382));
#382 = CURVE_STYLE('', #384, POSITIVE_LENGTH_MEASURE(1.E-6), #383);
#383 = COLOUR_RGB('', 0., 0., 1.);
#384 = DRAUGHTING_PRE_DEFINED_CURVE_FONT('continuous');
#385 = OVER_RIDING_STYLED_ITEM('', (#381), #341, #380);
#386 = PRESENTATION_STYLE_ASSIGNMENT((#387));
#387 = CURVE_STYLE('', #389, POSITIVE_LENGTH_MEASURE(1.E-6), #388);
#388 = COLOUR_RGB('', 0., 0., 1.);
#389 = DRAUGHTING_PRE_DEFINED_CURVE_FONT('continuous');
#390 = OVER_RIDING_STYLED_ITEM('', (#386), #348, #380);
#391 = PRESENTATION_STYLE_ASSIGNMENT((#392));
#392 = CURVE_STYLE('', #394, POSITIVE_LENGTH_MEASURE(1.E-6), #393);
#393 = COLOUR_RGB('', 0., 0., 1.);
#394 = DRAUGHTING_PRE_DEFINED_CURVE_FONT('continuous');
#395 = OVER_RIDING_STYLED_ITEM('', (#391), #355, #380);
#396 = PRESENTATION_STYLE_ASSIGNMENT((#397));
#397 = CURVE_STYLE('', #399, POSITIVE_LENGTH_MEASURE(1.E-6), #398);
#398 = COLOUR_RGB('', 0., 0., 1.);
#399 = DRAUGHTING_PRE_DEFINED_CURVE_FONT('continuous');
#400 = OVER_RIDING_STYLED_ITEM('', (#396), #363, #380);
#401 = AXIS2_PLACEMENT_3D('CIP', #402, #403, #404);
#402 = CARTESIAN_POINT('', (3.74939945665464E-31, 6.12323399573677E-15, -100.));
#403 = DIRECTION('', (-3.74939945665465E-33, -6.12323399573677E-17, 1.));
#404 = DIRECTION('', (1., -6.12323399573677E-17, 0.));
#405 = AXIS2_PLACEMENT_3D('MCS', #406, #407, #408);
#406 = CARTESIAN_POINT('', (1.68722975549459E-31, 2.75545529808154E-15, -45.));
#407 = DIRECTION('', (-3.74939945665465E-33, -6.12323399573677E-17, 1.));
#408 = DIRECTION('', (1., -6.12323399573677E-17, 0.));
#409 = AXIS2_PLACEMENT_3D('PCS', #410, #411, #412);
#410 = CARTESIAN_POINT('', (0., 0., 0.));
#411 = DIRECTION('', (0., 0., 1.));
#412 = DIRECTION('', (1., 0., 0.));
#413 = CARTESIAN_POINT('CRP', (6., 0., -100.));
#414 = (
   GEOMETRIC_REPRESENTATION_CONTEXT (3)
   GLOBAL_UNCERTAINTY_ASSIGNED_CONTEXT ((#416))
   GLOBAL_UNIT_ASSIGNED_CONTEXT ((#415, #417, #418))
   REPRESENTATION_CONTEXT ('', '3D')
);
#415 = (
   LENGTH_UNIT ()
   NAMED_UNIT (*)
   SI_UNIT (.MILLI., .METRE.)
);
#416 = UNCERTAINTY_MEASURE_WITH_UNIT(LENGTH_MEASURE(1.E-6), #415, 'DISTANCE_ACCURACY_VALUE', '');
#417 = (
   NAMED_UNIT (*)
   SI_UNIT ($, .STERADIAN.)
   SOLID_ANGLE_UNIT ()
);
#418 = (
   NAMED_UNIT (*)
   PLANE_ANGLE_UNIT ()
   SI_UNIT ($, .RADIAN.)
);
#419 = SHAPE_REPRESENTATION('', (), #414);
#420 = PRODUCT_DEFINITION_SHAPE('', '', #421);
#421 = PRODUCT_DEFINITION('', '', #424, #428);
#422 = APPLICATION_CONTEXT('configuration controlled 3D designs of mechanical parts and assemblies');
#423 = APPLICATION_PROTOCOL_DEFINITION('International Standard', 'automotive_design', 2002, #422);
#424 = PRODUCT_DEFINITION_FORMATION_WITH_SPECIFIED_SOURCE('', '', #425, .NOT_KNOWN.);
#425 = PRODUCT('EmptyName', 'EmptyName', '', (#426));
#426 = PRODUCT_CONTEXT('', #422, 'mechanical');
#427 = PRODUCT_RELATED_PRODUCT_CATEGORY('detail', '', (#425));
#428 = PRODUCT_DEFINITION_CONTEXT('part definition', #422, 'design');
#429 = SHAPE_DEFINITION_REPRESENTATION(#420, #419);
#430 = CONSTRUCTIVE_GEOMETRY_REPRESENTATION('supplemental geometry', (#401, #405, #409), #414);
#431 = CONSTRUCTIVE_GEOMETRY_REPRESENTATION_RELATIONSHIP('', '', #419, #430);
#432 = SHAPE_REPRESENTATION_RELATIONSHIP('', '', #419, #433);
#433 = SHAPE_REPRESENTATION('', (#375), #414);
#434 = SHAPE_REPRESENTATION_RELATIONSHIP('', '', #419, #435);
#435 = ADVANCED_BREP_SHAPE_REPRESENTATION('', (#1, #233), #414);
ENDSEC;
END-ISO-10303-21;
