ISO-10303-21;
HEADER;
FILE_DESCRIPTION(('STEP'), '1');
FILE_NAME('C:\\Users\\ds2002\\OneDrive - Sandvik\\HomeShare\\Documents\\Batchrepair\\CorSRT2\\NEW_MILBN_SLD\\Output2\\MOD000000000000000020084655100000.stp', '2018-11-23T12:38:45', (''), (''), 'Express v3.0.0.0', 'Express Tool', 'Unknown');
FILE_SCHEMA(('AUTOMOTIVE_DESIGN'));
ENDSEC;

DATA;
#1 = MANIFOLD_SOLID_BREP('NOCUT', #2);
#2 = CLOSED_SHELL('', (#3, #50, #89, #128, #175, #184, #215));
#3 = ADVANCED_FACE('', (#4), #31, .T.);
#4 = FACE_OUTER_BOUND('', #5, .T.);
#5 = EDGE_LOOP('', (#6, #16, #23, #24));
#6 = ORIENTED_EDGE('', *, *, #7, .F.);
#7 = EDGE_CURVE('', #8, #10, #12, .T.);
#8 = VERTEX_POINT('', #9);
#9 = CARTESIAN_POINT('', (-3.25, 5.67195165025097E-15, -89.38));
#10 = VERTEX_POINT('', #11);
#11 = CARTESIAN_POINT('', (-4., 5.74359348800109E-15, -89.8));
#12 = LINE('', #13, #14);
#13 = CARTESIAN_POINT('', (-3.25, 5.67195165025097E-15, -89.38));
#14 = VECTOR('', #15, 0.859592926913665);
#15 = DIRECTION('', (-0.75, 7.164183775012E-17, -0.420000000000002));
#16 = ORIENTED_EDGE('', *, *, #17, .T.);
#17 = EDGE_CURVE('', #8, #8, #18, .T.);
#18 = CIRCLE('', #19, 3.25);
#19 = AXIS2_PLACEMENT_3D('', #20, #21, #22);
#20 = CARTESIAN_POINT('', (1.65145674912992E-15, 2.88657986402541E-15, -89.38));
#21 = DIRECTION('', (4.3725706816006E-15, -1.42253566621576E-14, -1.));
#22 = DIRECTION('', (-1., 8.57037472684788E-16, -4.37257068160061E-15));
#23 = ORIENTED_EDGE('', *, *, #7, .T.);
#24 = ORIENTED_EDGE('', *, *, #25, .F.);
#25 = EDGE_CURVE('', #10, #10, #26, .T.);
#26 = CIRCLE('', #27, 4.);
#27 = AXIS2_PLACEMENT_3D('', #28, #29, #30);
#28 = CARTESIAN_POINT('', (-9.71445146547012E-17, 3.44169137633799E-15, -89.8));
#29 = DIRECTION('', (6.95853203162989E-30, 1.20917948619499E-14, -1.));
#30 = DIRECTION('', (-1., 5.75475527915776E-16, 0.));
#31 = (
   BOUNDED_SURFACE ()
   B_SPLINE_SURFACE (2, 1, ((#32, #33), (#34, #35), (#36, #37), (#38, #39), (#40, #41), (#42, #43), (#44, #45), (#46, #47), (#48, #49)), .UNSPECIFIED., .T., .F., .U.)
   B_SPLINE_SURFACE_WITH_KNOTS ((3, 2, 2, 2, 3), (2, 2), (0., 0.25, 0.5, 0.75, 1.), (0., 1.), .UNSPECIFIED.)
   GEOMETRIC_REPRESENTATION_ITEM ()
   RATIONAL_B_SPLINE_SURFACE (((1., 1.), (0.707106781186548, 0.707106781186548), (1., 1.), (0.707106781186548, 0.707106781186548), (1., 1.), (0.707106781186548, 0.707106781186548), (1., 1.), (0.707106781186548, 0.707106781186548), (1., 1.)))
   REPRESENTATION_ITEM ('')
   SURFACE ()
);
#32 = CARTESIAN_POINT('', (-3.25, 5.67195165025097E-15, -89.38));
#33 = CARTESIAN_POINT('', (-4., 4.94830141676437E-15, -89.8));
#34 = CARTESIAN_POINT('', (-3.25, 3.25000000000001, -89.38));
#35 = CARTESIAN_POINT('', (-4., 4., -89.8));
#36 = CARTESIAN_POINT('', (2.01737738124373E-15, 3.25, -89.38));
#37 = CARTESIAN_POINT('', (2.19149246372048E-15, 4., -89.8));
#38 = CARTESIAN_POINT('', (3.25, 3.25, -89.38));
#39 = CARTESIAN_POINT('', (4., 4., -89.8));
#40 = CARTESIAN_POINT('', (3.25, 4.16295426878575E-15, -89.38));
#41 = CARTESIAN_POINT('', (4., 3.09107387034564E-15, -89.8));
#42 = CARTESIAN_POINT('', (3.25, -3.25, -89.38));
#43 = CARTESIAN_POINT('', (4., -4., -89.8));
#44 = CARTESIAN_POINT('', (9.06390209501396E-16, -3.25, -89.38));
#45 = CARTESIAN_POINT('', (8.24123636960691E-16, -4., -89.8));
#46 = CARTESIAN_POINT('', (-3.25, -3.24999999999999, -89.38));
#47 = CARTESIAN_POINT('', (-4., -4., -89.8));
#48 = CARTESIAN_POINT('', (-3.25, 5.67195165025097E-15, -89.38));
#49 = CARTESIAN_POINT('', (-4., 4.94830141676437E-15, -89.8));
#50 = ADVANCED_FACE('', (#51), #70, .T.);
#51 = FACE_OUTER_BOUND('', #52, .T.);
#52 = EDGE_LOOP('', (#53, #61, #68, #69));
#53 = ORIENTED_EDGE('', *, *, #54, .F.);
#54 = EDGE_CURVE('', #55, #8, #57, .T.);
#55 = VERTEX_POINT('', #56);
#56 = CARTESIAN_POINT('', (-3.25, 4.74244472969813E-15, -74.2));
#57 = LINE('', #58, #59);
#58 = CARTESIAN_POINT('', (-3.25, 4.74244472969813E-15, -74.2));
#59 = VECTOR('', #60, 15.18);
#60 = DIRECTION('', (0., 9.29506920552839E-16, -15.18));
#61 = ORIENTED_EDGE('', *, *, #62, .T.);
#62 = EDGE_CURVE('', #55, #55, #63, .T.);
#63 = CIRCLE('', #64, 3.25);
#64 = AXIS2_PLACEMENT_3D('', #65, #66, #67);
#65 = CARTESIAN_POINT('', (5.41233724504764E-16, 4.44089209850063E-16, -74.2));
#66 = DIRECTION('', (0., 0., -1.));
#67 = DIRECTION('', (-1., 1.32257092918402E-15, 0.));
#68 = ORIENTED_EDGE('', *, *, #54, .T.);
#69 = ORIENTED_EDGE('', *, *, #17, .F.);
#70 = (
   BOUNDED_SURFACE ()
   B_SPLINE_SURFACE (2, 1, ((#71, #72), (#73, #74), (#75, #76), (#77, #78), (#79, #80), (#81, #82), (#83, #84), (#85, #86), (#87, #88)), .UNSPECIFIED., .T., .F., .U.)
   B_SPLINE_SURFACE_WITH_KNOTS ((3, 2, 2, 2, 3), (2, 2), (0., 5.10508806208342, 10.2101761241668, 15.3152641862503, 20.4203522483337), (0., 1.), .UNSPECIFIED.)
   GEOMETRIC_REPRESENTATION_ITEM ()
   RATIONAL_B_SPLINE_SURFACE (((1., 1.), (0.707106781186548, 0.707106781186548), (1., 1.), (0.707106781186548, 0.707106781186548), (1., 1.), (0.707106781186548, 0.707106781186548), (1., 1.), (0.707106781186548, 0.707106781186548), (1., 1.)))
   REPRESENTATION_ITEM ('')
   SURFACE ()
);
#71 = CARTESIAN_POINT('', (-3.25, 4.74244472969813E-15, -74.2));
#72 = CARTESIAN_POINT('', (-3.25, 8.23964725726737E-15, -89.38));
#73 = CARTESIAN_POINT('', (-3.25, 3.25, -74.2));
#74 = CARTESIAN_POINT('', (-3.25, 3.25000000000001, -89.38));
#75 = CARTESIAN_POINT('', (4.48792847360543E-15, 3.25, -74.2));
#76 = CARTESIAN_POINT('', (4.48792847360543E-15, 3.25, -89.38));
#77 = CARTESIAN_POINT('', (3.25, 3.25, -74.2));
#78 = CARTESIAN_POINT('', (3.25, 3.25, -89.38));
#79 = CARTESIAN_POINT('', (3.25, -3.67830070520015E-15, -74.2));
#80 = CARTESIAN_POINT('', (3.25, -1.810981776309E-16, -89.38));
#81 = CARTESIAN_POINT('', (3.25, -3.25, -74.2));
#82 = CARTESIAN_POINT('', (3.25, -3.25, -89.38));
#83 = CARTESIAN_POINT('', (-3.53480675156996E-15, -3.25, -74.2));
#84 = CARTESIAN_POINT('', (-3.53480675156995E-15, -3.25, -89.38));
#85 = CARTESIAN_POINT('', (-3.25, -3.25, -74.2));
#86 = CARTESIAN_POINT('', (-3.25, -3.24999999999999, -89.38));
#87 = CARTESIAN_POINT('', (-3.25, 4.74244472969813E-15, -74.2));
#88 = CARTESIAN_POINT('', (-3.25, 8.23964725726737E-15, -89.38));
#89 = ADVANCED_FACE('', (#90), #109, .T.);
#90 = FACE_OUTER_BOUND('', #91, .T.);
#91 = EDGE_LOOP('', (#92, #100, #107, #108));
#92 = ORIENTED_EDGE('', *, *, #93, .F.);
#93 = EDGE_CURVE('', #94, #55, #96, .T.);
#94 = VERTEX_POINT('', #95);
#95 = CARTESIAN_POINT('', (-4., 4.163799117101E-15, -64.));
#96 = LINE('', #97, #98);
#97 = CARTESIAN_POINT('', (-4., 4.163799117101E-15, -64.));
#98 = VECTOR('', #99, 10.2275363602385);
#99 = DIRECTION('', (0.75, 5.78645612597131E-16, -10.2));
#100 = ORIENTED_EDGE('', *, *, #101, .T.);
#101 = EDGE_CURVE('', #94, #94, #102, .T.);
#102 = CIRCLE('', #103, 4.);
#103 = AXIS2_PLACEMENT_3D('', #104, #105, #106);
#104 = CARTESIAN_POINT('', (8.46545056276682E-16, 2.1094237467878E-15, -64.));
#105 = DIRECTION('', (0., 0., -1.));
#106 = DIRECTION('', (-1., 5.135938425783E-16, 0.));
#107 = ORIENTED_EDGE('', *, *, #93, .T.);
#108 = ORIENTED_EDGE('', *, *, #62, .F.);
#109 = (
   BOUNDED_SURFACE ()
   B_SPLINE_SURFACE (2, 1, ((#110, #111), (#112, #113), (#114, #115), (#116, #117), (#118, #119), (#120, #121), (#122, #123), (#124, #125), (#126, #127)), .UNSPECIFIED., .T., .F., .U.)
   B_SPLINE_SURFACE_WITH_KNOTS ((3, 2, 2, 2, 3), (2, 2), (0., 0.25, 0.5, 0.75, 1.), (0., 1.), .UNSPECIFIED.)
   GEOMETRIC_REPRESENTATION_ITEM ()
   RATIONAL_B_SPLINE_SURFACE (((1., 1.), (0.707106781186548, 0.707106781186548), (1., 1.), (0.707106781186548, 0.707106781186548), (1., 1.), (0.707106781186548, 0.707106781186548), (1., 1.), (0.707106781186548, 0.707106781186548), (1., 1.)))
   REPRESENTATION_ITEM ('')
   SURFACE ()
);
#110 = CARTESIAN_POINT('', (-4., 4.163799117101E-15, -64.));
#111 = CARTESIAN_POINT('', (-3.25, 3.84105378030244E-15, -74.2));
#112 = CARTESIAN_POINT('', (-4., 4., -64.));
#113 = CARTESIAN_POINT('', (-3.25, 3.25, -74.2));
#114 = CARTESIAN_POINT('', (1.61515698117433E-15, 4., -64.));
#115 = CARTESIAN_POINT('', (1.33833589934379E-15, 3.25, -74.2));
#116 = CARTESIAN_POINT('', (4., 4., -64.));
#117 = CARTESIAN_POINT('', (3.25, 3.25, -74.2));
#118 = CARTESIAN_POINT('', (4., 1.21104091090863E-15, -64.));
#119 = CARTESIAN_POINT('', (3.25, 1.44193773777114E-15, -74.2));
#120 = CARTESIAN_POINT('', (4., -4., -64.));
#121 = CARTESIAN_POINT('', (3.25, -3.25, -74.2));
#122 = CARTESIAN_POINT('', (-8.47742505359099E-16, -4., -64.));
#123 = CARTESIAN_POINT('', (-6.62769933464616E-16, -3.25, -74.2));
#124 = CARTESIAN_POINT('', (-4., -4., -64.));
#125 = CARTESIAN_POINT('', (-3.25, -3.25, -74.2));
#126 = CARTESIAN_POINT('', (-4., 4.163799117101E-15, -64.));
#127 = CARTESIAN_POINT('', (-3.25, 3.84105378030244E-15, -74.2));
#128 = ADVANCED_FACE('', (#129), #156, .T.);
#129 = FACE_OUTER_BOUND('', #130, .T.);
#130 = EDGE_LOOP('', (#131, #141, #148, #149));
#131 = ORIENTED_EDGE('', *, *, #132, .T.);
#132 = EDGE_CURVE('', #133, #135, #137, .T.);
#133 = VERTEX_POINT('', #134);
#134 = CARTESIAN_POINT('', (-4., 2.69422295812418E-16, -0.399999999999999));
#135 = VERTEX_POINT('', #136);
#136 = CARTESIAN_POINT('', (-3.6, 2.20436423846524E-16, 0.));
#137 = LINE('', #138, #139);
#138 = CARTESIAN_POINT('', (-4., 2.69422295812418E-16, -0.399999999999999));
#139 = VECTOR('', #140, 0.565685424949237);
#140 = DIRECTION('', (0.4, -4.8985871965894E-17, 0.399999999999999));
#141 = ORIENTED_EDGE('', *, *, #142, .T.);
#142 = EDGE_CURVE('', #135, #135, #143, .T.);
#143 = CIRCLE('', #144, 3.6);
#144 = AXIS2_PLACEMENT_3D('', #145, #146, #147);
#145 = CARTESIAN_POINT('', (-7.21644966006352E-16, -2.22044604925031E-15, -1.4791141972894E-31));
#146 = DIRECTION('', (4.30423794362901E-34, 6.12323399573678E-17, -1.));
#147 = DIRECTION('', (-1., 6.78022909193566E-16, 4.1086505480261E-32));
#148 = ORIENTED_EDGE('', *, *, #132, .F.);
#149 = ORIENTED_EDGE('', *, *, #150, .F.);
#150 = EDGE_CURVE('', #133, #133, #151, .T.);
#151 = CIRCLE('', #152, 4.);
#152 = AXIS2_PLACEMENT_3D('', #153, #154, #155);
#153 = CARTESIAN_POINT('', (-3.33066907387547E-16, -1.77635683940025E-15, -0.399999999999999));
#154 = DIRECTION('', (2.77555756156289E-17, 5.14030469134514E-17, -1.));
#155 = DIRECTION('', (-1., 5.11444783803167E-16, -2.77555756156289E-17));
#156 = (
   BOUNDED_SURFACE ()
   B_SPLINE_SURFACE (1, 2, ((#157, #158, #159, #160, #161, #162, #163, #164, #165), (#166, #167, #168, #169, #170, #171, #172, #173, #174)), .UNSPECIFIED., .F., .T., .U.)
   B_SPLINE_SURFACE_WITH_KNOTS ((2, 2), (3, 2, 2, 2, 3), (0., 1.), (0., 0.25, 0.5, 0.75, 1.), .UNSPECIFIED.)
   GEOMETRIC_REPRESENTATION_ITEM ()
   RATIONAL_B_SPLINE_SURFACE (((1., 0.707106781186548, 1., 0.707106781186548, 1., 0.707106781186548, 1., 0.707106781186548, 1.), (1., 0.707106781186548, 1., 0.707106781186548, 1., 0.707106781186548, 1., 0.707106781186548, 1.)))
   REPRESENTATION_ITEM ('')
   SURFACE ()
);
#157 = CARTESIAN_POINT('', (-4., -2.04953155772919E-15, -0.399999999999999));
#158 = CARTESIAN_POINT('', (-4., 4., -0.400000000000022));
#159 = CARTESIAN_POINT('', (3.28440978118275E-16, 4., -0.400000000000022));
#160 = CARTESIAN_POINT('', (4., 4., -0.400000000000022));
#161 = CARTESIAN_POINT('', (4., -2.78968024081262E-15, -0.399999999999999));
#162 = CARTESIAN_POINT('', (4., -4., -0.399999999999976));
#163 = CARTESIAN_POINT('', (7.81510146937783E-17, -4., -0.399999999999976));
#164 = CARTESIAN_POINT('', (-4., -4., -0.399999999999976));
#165 = CARTESIAN_POINT('', (-4., -2.04953155772919E-15, -0.399999999999999));
#166 = CARTESIAN_POINT('', (-3.6, 2.20436423846524E-16, 0.));
#167 = CARTESIAN_POINT('', (-3.6, 3.6, -2.09832151654155E-14));
#168 = CARTESIAN_POINT('', (2.91433543964104E-16, 3.6, -2.09832151654155E-14));
#169 = CARTESIAN_POINT('', (3.6, 3.6, -2.09832151654155E-14));
#170 = CARTESIAN_POINT('', (3.6, -4.45697390928571E-16, -2.60668058374687E-30));
#171 = CARTESIAN_POINT('', (3.6, -3.6, 2.09832151654155E-14));
#172 = CARTESIAN_POINT('', (6.61725768820564E-17, -3.6, 2.09832151654155E-14));
#173 = CARTESIAN_POINT('', (-3.6, -3.6, 2.09832151654155E-14));
#174 = CARTESIAN_POINT('', (-3.6, 2.20436423846524E-16, 0.));
#175 = ADVANCED_FACE('', (#176), #179, .T.);
#176 = FACE_OUTER_BOUND('', #177, .T.);
#177 = EDGE_LOOP('', (#178));
#178 = ORIENTED_EDGE('', *, *, #142, .F.);
#179 = B_SPLINE_SURFACE_WITH_KNOTS('', 1, 1, ((#180, #181), (#182, #183)), .UNSPECIFIED., .F., .F., .U., (2, 2), (2, 2), (2.00028570699746, 9.20028570699746), (2.00028570699746, 9.20028570699746), .UNSPECIFIED.);
#180 = CARTESIAN_POINT('', (3.6, -3.6, -2.20436423846523E-16));
#181 = CARTESIAN_POINT('', (-3.6, -3.6, -2.20436423846523E-16));
#182 = CARTESIAN_POINT('', (3.6, 3.6, 2.20436423846525E-16));
#183 = CARTESIAN_POINT('', (-3.6, 3.6, 2.20436423846525E-16));
#184 = ADVANCED_FACE('', (#185), #196, .T.);
#185 = FACE_OUTER_BOUND('', #186, .T.);
#186 = EDGE_LOOP('', (#187, #193, #194, #195));
#187 = ORIENTED_EDGE('', *, *, #188, .T.);
#188 = EDGE_CURVE('', #94, #133, #189, .T.);
#189 = LINE('', #190, #191);
#190 = CARTESIAN_POINT('', (-4., 4.163799117101E-15, -64.));
#191 = VECTOR('', #192, 63.6);
#192 = DIRECTION('', (0., -3.89437682128858E-15, 63.6));
#193 = ORIENTED_EDGE('', *, *, #150, .T.);
#194 = ORIENTED_EDGE('', *, *, #188, .F.);
#195 = ORIENTED_EDGE('', *, *, #101, .F.);
#196 = (
   BOUNDED_SURFACE ()
   B_SPLINE_SURFACE (1, 2, ((#197, #198, #199, #200, #201, #202, #203, #204, #205), (#206, #207, #208, #209, #210, #211, #212, #213, #214)), .UNSPECIFIED., .F., .T., .U.)
   B_SPLINE_SURFACE_WITH_KNOTS ((2, 2), (3, 2, 2, 2, 3), (0., 1.), (0., 6.28318530717958, 12.5663706143592, 18.8495559215387, 25.1327412287183), .UNSPECIFIED.)
   GEOMETRIC_REPRESENTATION_ITEM ()
   RATIONAL_B_SPLINE_SURFACE (((1., 0.707106781186548, 1., 0.707106781186548, 1., 0.707106781186548, 1., 0.707106781186548, 1.), (1., 0.707106781186548, 1., 0.707106781186548, 1., 0.707106781186548, 1., 0.707106781186548, 1.)))
   REPRESENTATION_ITEM ('')
   SURFACE ()
);
#197 = CARTESIAN_POINT('', (-4., 2.2678237401377E-15, -64.));
#198 = CARTESIAN_POINT('', (-4., 4., -64.));
#199 = CARTESIAN_POINT('', (4.97608762581115E-15, 4., -64.));
#200 = CARTESIAN_POINT('', (4., 4., -64.));
#201 = CARTESIAN_POINT('', (4., -2.23652786003541E-16, -64.));
#202 = CARTESIAN_POINT('', (4., -4., -64.));
#203 = CARTESIAN_POINT('', (2.97446981932885E-15, -4., -64.));
#204 = CARTESIAN_POINT('', (-4., -4., -64.));
#205 = CARTESIAN_POINT('', (-4., 2.2678237401377E-15, -64.));
#206 = CARTESIAN_POINT('', (-4., 2.69422295812418E-16, -0.399999999999999));
#207 = CARTESIAN_POINT('', (-4., 4., -0.399999999999999));
#208 = CARTESIAN_POINT('', (2.32820571208015E-15, 4., -0.399999999999999));
#209 = CARTESIAN_POINT('', (4., 4., -0.399999999999999));
#210 = CARTESIAN_POINT('', (4., -2.22205423032882E-15, -0.399999999999999));
#211 = CARTESIAN_POINT('', (4., -4., -0.399999999999999));
#212 = CARTESIAN_POINT('', (3.2658790559785E-16, -4., -0.399999999999999));
#213 = CARTESIAN_POINT('', (-4., -4., -0.399999999999999));
#214 = CARTESIAN_POINT('', (-4., 2.69422295812418E-16, -0.399999999999999));
#215 = ADVANCED_FACE('', (#216), #219, .T.);
#216 = FACE_OUTER_BOUND('', #217, .T.);
#217 = EDGE_LOOP('', (#218));
#218 = ORIENTED_EDGE('', *, *, #25, .T.);
#219 = B_SPLINE_SURFACE_WITH_KNOTS('', 1, 1, ((#220, #221), (#222, #223)), .UNSPECIFIED., .F., .F., .U., (2, 2), (2, 2), (99.821970156678, 107.821970156678), (93.4539670837185, 101.453967083718), .UNSPECIFIED.);
#220 = CARTESIAN_POINT('', (-4., 4.00000000000001, -89.8));
#221 = CARTESIAN_POINT('', (-4., -4., -89.8));
#222 = CARTESIAN_POINT('', (4., 4.00000000000001, -89.8));
#223 = CARTESIAN_POINT('', (4., -4., -89.8));
#224 = DRAUGHTING_MODEL('', (#232, #340, #380, #385, #390, #395, #400), #414);
#225 = PRESENTATION_STYLE_ASSIGNMENT((#226));
#226 = SURFACE_STYLE_USAGE(.POSITIVE., #227);
#227 = SURFACE_SIDE_STYLE('', (#228));
#228 = SURFACE_STYLE_FILL_AREA(#229);
#229 = FILL_AREA_STYLE('', (#230));
#230 = FILL_AREA_STYLE_COLOUR('', #231);
#231 = COLOUR_RGB('', 0.50196078431373, 0.50196078431373, 0.50196078431373);
#232 = STYLED_ITEM('', (#225), #1);
#233 = MANIFOLD_SOLID_BREP('CUT', #234);
#234 = CLOSED_SHELL('', (#235, #252, #291));
#235 = ADVANCED_FACE('', (#236), #247, .T.);
#236 = FACE_OUTER_BOUND('', #237, .T.);
#237 = EDGE_LOOP('', (#238));
#238 = ORIENTED_EDGE('', *, *, #239, .F.);
#239 = EDGE_CURVE('', #240, #240, #242, .T.);
#240 = VERTEX_POINT('', #241);
#241 = CARTESIAN_POINT('', (-4., 5.74359348800109E-15, -89.8));
#242 = CIRCLE('', #243, 4.);
#243 = AXIS2_PLACEMENT_3D('', #244, #245, #246);
#244 = CARTESIAN_POINT('', (-9.71445146547012E-17, 3.44169137633799E-15, -89.8));
#245 = DIRECTION('', (6.95853203162989E-30, 1.20917948619499E-14, -1.));
#246 = DIRECTION('', (-1., 5.75475527915776E-16, 0.));
#247 = B_SPLINE_SURFACE_WITH_KNOTS('', 1, 1, ((#248, #249), (#250, #251)), .UNSPECIFIED., .F., .F., .U., (2, 2), (2, 2), (93.4539670837184, 101.453967083718), (99.821970156678, 107.821970156678), .UNSPECIFIED.);
#248 = CARTESIAN_POINT('', (-4., 4.00000000000002, -89.8));
#249 = CARTESIAN_POINT('', (4., 4.00000000000002, -89.8));
#250 = CARTESIAN_POINT('', (-4., -4., -89.8));
#251 = CARTESIAN_POINT('', (4., -4., -89.8));
#252 = ADVANCED_FACE('', (#253), #272, .T.);
#253 = FACE_OUTER_BOUND('', #254, .T.);
#254 = EDGE_LOOP('', (#255, #263, #264, #265));
#255 = ORIENTED_EDGE('', *, *, #256, .F.);
#256 = EDGE_CURVE('', #240, #257, #259, .T.);
#257 = VERTEX_POINT('', #258);
#258 = CARTESIAN_POINT('', (-4., 6.12323399573677E-15, -96.));
#259 = LINE('', #260, #261);
#260 = CARTESIAN_POINT('', (-4., 5.74359348800109E-15, -89.8));
#261 = VECTOR('', #262, 6.2);
#262 = DIRECTION('', (0., 3.7964050773568E-16, -6.2));
#263 = ORIENTED_EDGE('', *, *, #239, .T.);
#264 = ORIENTED_EDGE('', *, *, #256, .T.);
#265 = ORIENTED_EDGE('', *, *, #266, .F.);
#266 = EDGE_CURVE('', #257, #257, #267, .T.);
#267 = CIRCLE('', #268, 4.);
#268 = AXIS2_PLACEMENT_3D('', #269, #270, #271);
#269 = CARTESIAN_POINT('', (-9.71445146547012E-17, 3.5527136788005E-15, -96.));
#270 = DIRECTION('', (0., 0., -1.));
#271 = DIRECTION('', (-1., 6.42630079234067E-16, 0.));
#272 = (
   BOUNDED_SURFACE ()
   B_SPLINE_SURFACE (2, 1, ((#273, #274), (#275, #276), (#277, #278), (#279, #280), (#281, #282), (#283, #284), (#285, #286), (#287, #288), (#289, #290)), .UNSPECIFIED., .T., .F., .U.)
   B_SPLINE_SURFACE_WITH_KNOTS ((3, 2, 2, 2, 3), (2, 2), (0., 6.28318530717958, 12.5663706143592, 18.8495559215387, 25.1327412287183), (0., 1.), .UNSPECIFIED.)
   GEOMETRIC_REPRESENTATION_ITEM ()
   RATIONAL_B_SPLINE_SURFACE (((1., 1.), (0.707106781186548, 0.707106781186548), (1., 1.), (0.707106781186548, 0.707106781186548), (1., 1.), (0.707106781186548, 0.707106781186548), (1., 1.), (0.707106781186548, 0.707106781186548), (1., 1.)))
   REPRESENTATION_ITEM ('')
   SURFACE ()
);
#273 = CARTESIAN_POINT('', (-4., 5.74359348800109E-15, -89.8));
#274 = CARTESIAN_POINT('', (-4., 5.96563809292612E-15, -96.));
#275 = CARTESIAN_POINT('', (-4., 4., -89.8));
#276 = CARTESIAN_POINT('', (-4., 4., -96.));
#277 = CARTESIAN_POINT('', (1.76553920786953E-15, 4., -89.8));
#278 = CARTESIAN_POINT('', (1.76553920786953E-15, 4., -96.));
#279 = CARTESIAN_POINT('', (4., 4., -89.8));
#280 = CARTESIAN_POINT('', (4., 4., -96.));
#281 = CARTESIAN_POINT('', (4., 1.40760337940879E-15, -89.8));
#282 = CARTESIAN_POINT('', (4., 1.62964798433382E-15, -96.));
#283 = CARTESIAN_POINT('', (4., -4., -89.8));
#284 = CARTESIAN_POINT('', (4., -4., -96.));
#285 = CARTESIAN_POINT('', (-2.08059218106383E-15, -4., -89.8));
#286 = CARTESIAN_POINT('', (-2.08059218106383E-15, -4., -96.));
#287 = CARTESIAN_POINT('', (-4., -3.99999999999999, -89.8));
#288 = CARTESIAN_POINT('', (-4., -3.99999999999999, -96.));
#289 = CARTESIAN_POINT('', (-4., 5.74359348800109E-15, -89.8));
#290 = CARTESIAN_POINT('', (-4., 5.96563809292612E-15, -96.));
#291 = ADVANCED_FACE('', (#292), #305, .T.);
#292 = FACE_OUTER_BOUND('', #293, .T.);
#293 = EDGE_LOOP('', (#294, #303, #304));
#294 = ORIENTED_EDGE('', *, *, #295, .F.);
#295 = EDGE_CURVE('', #257, #296, #298, .T.);
#296 = VERTEX_POINT('', #297);
#297 = CARTESIAN_POINT('', (1.17887728933848E-15, 6.12323399573677E-15, -100.));
#298 = CIRCLE('', #299, 3.99999999999999);
#299 = AXIS2_PLACEMENT_3D('', #300, #301, #302);
#300 = CARTESIAN_POINT('', (-1.55431223447522E-14, 5.87830463590729E-15, -96.));
#301 = DIRECTION('', (-6.12323399573692E-17, -1., -6.12323399573671E-17));
#302 = DIRECTION('', (-1., 6.12323399573692E-17, 0.));
#303 = ORIENTED_EDGE('', *, *, #266, .T.);
#304 = ORIENTED_EDGE('', *, *, #295, .T.);
#305 = (
   BOUNDED_SURFACE ()
   B_SPLINE_SURFACE (2, 2, ((#306, #307, #308), (#309, #310, #311), (#312, #313, #314), (#315, #316, #317), (#318, #319, #320), (#321, #322, #323), (#324, #325, #326), (#327, #328, #329), (#330, #331, #332)), .UNSPECIFIED., .T., .F., .U.)
   B_SPLINE_SURFACE_WITH_KNOTS ((3, 2, 2, 2, 3), (3, 3), (0., 0.25, 0.5, 0.75, 1.), (0., 1.), .UNSPECIFIED.)
   GEOMETRIC_REPRESENTATION_ITEM ()
   RATIONAL_B_SPLINE_SURFACE (((1., 0.707106781186548, 1.), (0.707106781186548, 0.5, 0.707106781186548), (1., 0.707106781186548, 1.), (0.707106781186548, 0.5, 0.707106781186548), (1., 0.707106781186548, 1.), (0.707106781186548, 0.5, 0.707106781186548), (1., 0.707106781186548, 1.), (0.707106781186548, 0.5, 0.707106781186548), (1., 0.707106781186548, 1.)))
   REPRESENTATION_ITEM ('')
   SURFACE ()
);
#306 = CARTESIAN_POINT('', (-4., 6.12323399573677E-15, -96.));
#307 = CARTESIAN_POINT('', (-4., 6.36816335556624E-15, -100.));
#308 = CARTESIAN_POINT('', (1.17887728933848E-15, 6.12323399573677E-15, -100.));
#309 = CARTESIAN_POINT('', (-4., 3.99999999999994, -96.));
#310 = CARTESIAN_POINT('', (-4., 3.99999999999994, -100.));
#311 = CARTESIAN_POINT('', (1.17887728933848E-15, 6.12323399573677E-15, -100.));
#312 = CARTESIAN_POINT('', (-6.21724893790088E-14, 3.99999999999994, -96.));
#313 = CARTESIAN_POINT('', (-6.19275600191793E-14, 3.99999999999994, -100.));
#314 = CARTESIAN_POINT('', (1.17887728933848E-15, 6.12323399573677E-15, -100.));
#315 = CARTESIAN_POINT('', (3.99999999999988, 3.99999999999994, -96.));
#316 = CARTESIAN_POINT('', (3.99999999999988, 3.99999999999994, -100.));
#317 = CARTESIAN_POINT('', (1.17887728933848E-15, 6.12323399573677E-15, -100.));
#318 = CARTESIAN_POINT('', (3.99999999999988, 6.12323399573679E-15, -96.));
#319 = CARTESIAN_POINT('', (3.99999999999988, 5.87830463590732E-15, -100.));
#320 = CARTESIAN_POINT('', (1.17887728933848E-15, 6.12323399573677E-15, -100.));
#321 = CARTESIAN_POINT('', (3.99999999999988, -3.99999999999993, -96.));
#322 = CARTESIAN_POINT('', (3.99999999999988, -3.99999999999993, -100.));
#323 = CARTESIAN_POINT('', (1.17887728933848E-15, 6.12323399573677E-15, -100.));
#324 = CARTESIAN_POINT('', (-6.16826306593498E-14, -3.99999999999993, -96.));
#325 = CARTESIAN_POINT('', (-6.19275600191793E-14, -3.99999999999993, -100.));
#326 = CARTESIAN_POINT('', (1.17887728933848E-15, 6.12323399573677E-15, -100.));
#327 = CARTESIAN_POINT('', (-4., -3.99999999999993, -96.));
#328 = CARTESIAN_POINT('', (-4., -3.99999999999993, -100.));
#329 = CARTESIAN_POINT('', (1.17887728933848E-15, 6.12323399573677E-15, -100.));
#330 = CARTESIAN_POINT('', (-4., 6.12323399573677E-15, -96.));
#331 = CARTESIAN_POINT('', (-4., 6.36816335556624E-15, -100.));
#332 = CARTESIAN_POINT('', (1.17887728933848E-15, 6.12323399573677E-15, -100.));
#333 = PRESENTATION_STYLE_ASSIGNMENT((#334));
#334 = SURFACE_STYLE_USAGE(.POSITIVE., #335);
#335 = SURFACE_SIDE_STYLE('', (#336));
#336 = SURFACE_STYLE_FILL_AREA(#337);
#337 = FILL_AREA_STYLE('', (#338));
#338 = FILL_AREA_STYLE_COLOUR('', #339);
#339 = COLOUR_RGB('', 0.8, 0.8, 0.8);
#340 = STYLED_ITEM('', (#333), #233);
#341 = TRIMMED_CURVE('cutting part line', #342, (#346), (#347), .T., .CARTESIAN.);
#342 = LINE('', #343, #344);
#343 = CARTESIAN_POINT('', (-1.01008821362276E-30, -5.49866412817162E-15, -89.8));
#344 = VECTOR('', #345, 4.);
#345 = DIRECTION('', (4., -7.34788079488411E-16, 0.));
#346 = CARTESIAN_POINT('', (-1.01008821362276E-30, -5.49866412817162E-15, -89.8));
#347 = CARTESIAN_POINT('', (4., -6.23345220766003E-15, -89.8));
#348 = TRIMMED_CURVE('cutting part line', #349, (#353), (#354), .T., .CARTESIAN.);
#349 = LINE('', #350, #351);
#350 = CARTESIAN_POINT('', (4., -6.23345220766003E-15, -89.8));
#351 = VECTOR('', #352, 6.2);
#352 = DIRECTION('', (0., -3.7964050773568E-16, -6.2));
#353 = CARTESIAN_POINT('', (4., -6.23345220766003E-15, -89.8));
#354 = CARTESIAN_POINT('', (4., -6.61309271539571E-15, -96.));
#355 = TRIMMED_CURVE('cutting part line', #356, (#361), (#362), .T., .CARTESIAN.);
#356 = CIRCLE('', #357, 4.00000000000005);
#357 = AXIS2_PLACEMENT_3D('', #358, #359, #360);
#358 = CARTESIAN_POINT('', (-5.50670620214078E-14, -5.87830463590728E-15, -96.));
#359 = DIRECTION('', (1.83697019872104E-16, 1., -6.12323399573685E-17));
#360 = DIRECTION('', (1., -1.83697019872105E-16, -7.1054273576009E-15));
#361 = CARTESIAN_POINT('', (4., -6.61309271539571E-15, -96.));
#362 = CARTESIAN_POINT('', (-1.53142747956971E-15, -6.12323399573677E-15, -100.));
#363 = TRIMMED_CURVE('cutting part line', #364, (#368), (#369), .T., .CARTESIAN.);
#364 = LINE('', #365, #366);
#365 = CARTESIAN_POINT('', (-1.12481983699639E-30, -6.12323399573677E-15, -100.));
#366 = VECTOR('', #367, 10.2);
#367 = DIRECTION('', (1.14731623373632E-31, 6.2456986756515E-16, 10.2));
#368 = CARTESIAN_POINT('', (-1.12481983699639E-30, -6.12323399573677E-15, -100.));
#369 = CARTESIAN_POINT('', (-1.01008821362276E-30, -5.49866412817162E-15, -89.8));
#370 = COMPOSITE_CURVE('cutting part line', (#371, #372, #373, #374), .U.);
#371 = COMPOSITE_CURVE_SEGMENT(.CONTINUOUS., .T., #341);
#372 = COMPOSITE_CURVE_SEGMENT(.CONTINUOUS., .T., #348);
#373 = COMPOSITE_CURVE_SEGMENT(.CONTINUOUS., .T., #355);
#374 = COMPOSITE_CURVE_SEGMENT(.CONTINUOUS., .T., #363);
#375 = GEOMETRIC_SET('', (#370, #413));
#376 = PRESENTATION_STYLE_ASSIGNMENT((#377));
#377 = CURVE_STYLE('', #379, POSITIVE_LENGTH_MEASURE(1.E-6), #378);
#378 = COLOUR_RGB('', 0., 0., 1.);
#379 = DRAUGHTING_PRE_DEFINED_CURVE_FONT('continuous');
#380 = STYLED_ITEM('', (#376), #370);
#381 = PRESENTATION_STYLE_ASSIGNMENT((#382));
#382 = CURVE_STYLE('', #384, POSITIVE_LENGTH_MEASURE(1.E-6), #383);
#383 = COLOUR_RGB('', 0., 0., 1.);
#384 = DRAUGHTING_PRE_DEFINED_CURVE_FONT('continuous');
#385 = OVER_RIDING_STYLED_ITEM('', (#381), #341, #380);
#386 = PRESENTATION_STYLE_ASSIGNMENT((#387));
#387 = CURVE_STYLE('', #389, POSITIVE_LENGTH_MEASURE(1.E-6), #388);
#388 = COLOUR_RGB('', 0., 0., 1.);
#389 = DRAUGHTING_PRE_DEFINED_CURVE_FONT('continuous');
#390 = OVER_RIDING_STYLED_ITEM('', (#386), #348, #380);
#391 = PRESENTATION_STYLE_ASSIGNMENT((#392));
#392 = CURVE_STYLE('', #394, POSITIVE_LENGTH_MEASURE(1.E-6), #393);
#393 = COLOUR_RGB('', 0., 0., 1.);
#394 = DRAUGHTING_PRE_DEFINED_CURVE_FONT('continuous');
#395 = OVER_RIDING_STYLED_ITEM('', (#391), #355, #380);
#396 = PRESENTATION_STYLE_ASSIGNMENT((#397));
#397 = CURVE_STYLE('', #399, POSITIVE_LENGTH_MEASURE(1.E-6), #398);
#398 = COLOUR_RGB('', 0., 0., 1.);
#399 = DRAUGHTING_PRE_DEFINED_CURVE_FONT('continuous');
#400 = OVER_RIDING_STYLED_ITEM('', (#396), #363, #380);
#401 = AXIS2_PLACEMENT_3D('CIP', #402, #403, #404);
#402 = CARTESIAN_POINT('', (3.74939945665464E-31, 6.12323399573677E-15, -100.));
#403 = DIRECTION('', (-3.74939945665465E-33, -6.12323399573677E-17, 1.));
#404 = DIRECTION('', (1., -6.12323399573677E-17, 0.));
#405 = AXIS2_PLACEMENT_3D('MCS', #406, #407, #408);
#406 = CARTESIAN_POINT('', (1.34978380439567E-31, 2.20436423846524E-15, -36.));
#407 = DIRECTION('', (-3.74939945665465E-33, -6.12323399573677E-17, 1.));
#408 = DIRECTION('', (1., -6.12323399573677E-17, 0.));
#409 = AXIS2_PLACEMENT_3D('PCS', #410, #411, #412);
#410 = CARTESIAN_POINT('', (0., 0., 0.));
#411 = DIRECTION('', (0., 0., 1.));
#412 = DIRECTION('', (1., 0., 0.));
#413 = CARTESIAN_POINT('CRP', (4., 0., -100.));
#414 = (
   GEOMETRIC_REPRESENTATION_CONTEXT (3)
   GLOBAL_UNCERTAINTY_ASSIGNED_CONTEXT ((#416))
   GLOBAL_UNIT_ASSIGNED_CONTEXT ((#415, #417, #418))
   REPRESENTATION_CONTEXT ('', '3D')
);
#415 = (
   LENGTH_UNIT ()
   NAMED_UNIT (*)
   SI_UNIT (.MILLI., .METRE.)
);
#416 = UNCERTAINTY_MEASURE_WITH_UNIT(LENGTH_MEASURE(1.E-6), #415, 'DISTANCE_ACCURACY_VALUE', '');
#417 = (
   NAMED_UNIT (*)
   SI_UNIT ($, .STERADIAN.)
   SOLID_ANGLE_UNIT ()
);
#418 = (
   NAMED_UNIT (*)
   PLANE_ANGLE_UNIT ()
   SI_UNIT ($, .RADIAN.)
);
#419 = SHAPE_REPRESENTATION('', (), #414);
#420 = PRODUCT_DEFINITION_SHAPE('', '', #421);
#421 = PRODUCT_DEFINITION('', '', #424, #428);
#422 = APPLICATION_CONTEXT('configuration controlled 3D designs of mechanical parts and assemblies');
#423 = APPLICATION_PROTOCOL_DEFINITION('International Standard', 'automotive_design', 2002, #422);
#424 = PRODUCT_DEFINITION_FORMATION_WITH_SPECIFIED_SOURCE('', '', #425, .NOT_KNOWN.);
#425 = PRODUCT('EmptyName', 'EmptyName', '', (#426));
#426 = PRODUCT_CONTEXT('', #422, 'mechanical');
#427 = PRODUCT_RELATED_PRODUCT_CATEGORY('detail', '', (#425));
#428 = PRODUCT_DEFINITION_CONTEXT('part definition', #422, 'design');
#429 = SHAPE_DEFINITION_REPRESENTATION(#420, #419);
#430 = CONSTRUCTIVE_GEOMETRY_REPRESENTATION('supplemental geometry', (#401, #405, #409), #414);
#431 = CONSTRUCTIVE_GEOMETRY_REPRESENTATION_RELATIONSHIP('', '', #419, #430);
#432 = SHAPE_REPRESENTATION_RELATIONSHIP('', '', #419, #433);
#433 = SHAPE_REPRESENTATION('', (#375), #414);
#434 = SHAPE_REPRESENTATION_RELATIONSHIP('', '', #419, #435);
#435 = ADVANCED_BREP_SHAPE_REPRESENTATION('', (#1, #233), #414);
ENDSEC;
END-ISO-10303-21;
