ISO-10303-21;
HEADER;
FILE_DESCRIPTION(('3-D model version:1'), '1');
FILE_NAME('R216.54-12040RAL42G 1620', '2016-02-08T16:15:59', ('InteractiveCad'), ('AB Sandvik Coromant'), 'HarmonyWare STEP v2.0.3-dev Express v1.1.1.dev.0', 'T3D tool generator', 'Unknown');
FILE_SCHEMA(('AUTOMOTIVE_DESIGN'));
ENDSEC;

DATA;
#1 = AXIS2_PLACEMENT_3D('CIP', #2, #3, #4);
#2 = CARTESIAN_POINT('', (4.31180937515284E-31, 7.04171909509728E-15, -115.));
#3 = DIRECTION('', (-3.74939945665464E-33, -6.12323399573677E-17, 1.));
#4 = DIRECTION('', (1., -6.12323399573677E-17, 0.));
#5 = PRESENTATION_LAYER_ASSIGNMENT('1', 'Layer 1', (#1, #12, #21));
#6 = DRAUGHTING_MODEL('', (#11, #20, #29), #319);
#7 = PRESENTATION_STYLE_ASSIGNMENT((#8));
#8 = CURVE_STYLE('', #10, POSITIVE_LENGTH_MEASURE(1.E-6), #9);
#9 = COLOUR_RGB('', 0., 1., 0.);
#10 = DRAUGHTING_PRE_DEFINED_CURVE_FONT('continuous');
#11 = STYLED_ITEM('', (#7), #1);
#12 = AXIS2_PLACEMENT_3D('MCS', #13, #14, #15);
#13 = CARTESIAN_POINT('', (1.79971173919423E-31, 2.93915231795365E-15, -48.));
#14 = DIRECTION('', (-3.74939945665464E-33, -6.12323399573677E-17, 1.));
#15 = DIRECTION('', (1., -6.12323399573677E-17, 0.));
#16 = PRESENTATION_STYLE_ASSIGNMENT((#17));
#17 = CURVE_STYLE('', #19, POSITIVE_LENGTH_MEASURE(1.E-6), #18);
#18 = COLOUR_RGB('', 0., 0., 1.);
#19 = DRAUGHTING_PRE_DEFINED_CURVE_FONT('continuous');
#20 = STYLED_ITEM('', (#16), #12);
#21 = AXIS2_PLACEMENT_3D('PCS', #22, #23, #24);
#22 = CARTESIAN_POINT('', (-1.34940133673351E-79, 8.26270013897925E-96, 0.));
#23 = DIRECTION('', (0., 0., 1.));
#24 = DIRECTION('', (1., 0., 0.));
#25 = PRESENTATION_STYLE_ASSIGNMENT((#26));
#26 = CURVE_STYLE('', #28, POSITIVE_LENGTH_MEASURE(1.E-6), #27);
#27 = COLOUR_RGB('', 0., 1., 1.);
#28 = DRAUGHTING_PRE_DEFINED_CURVE_FONT('continuous');
#29 = STYLED_ITEM('', (#25), #21);
#30 = GEOMETRIC_SET('', (#32, #41, #49, #57, #66));
#31 = DRAUGHTING_MODEL('', (#40, #48, #56, #65, #73), #319);
#32 = B_SPLINE_CURVE_WITH_KNOTS('cutting_edge_line', 1, (#33, #34), .UNSPECIFIED., .F., .U., (2, 2), (0., 1.), .UNSPECIFIED.);
#33 = CARTESIAN_POINT('', (2.73706160335789E-31, 4.46996081688784E-15, -73.));
#34 = CARTESIAN_POINT('', (-8., 4.95981953654678E-15, -73.));
#35 = PRESENTATION_LAYER_ASSIGNMENT('CUT', '', (#32, #41, #49, #57, #66, #203));
#36 = PRESENTATION_STYLE_ASSIGNMENT((#37));
#37 = CURVE_STYLE('', #39, POSITIVE_LENGTH_MEASURE(1.E-6), #38);
#38 = COLOUR_RGB('', 0., 0., 1.);
#39 = DRAUGHTING_PRE_DEFINED_CURVE_FONT('continuous');
#40 = STYLED_ITEM('', (#36), #32);
#41 = B_SPLINE_CURVE_WITH_KNOTS('', 1, (#42, #43), .UNSPECIFIED., .F., .U., (2, 2), (0., 1.), .UNSPECIFIED.);
#42 = CARTESIAN_POINT('', (-8., 4.95981953654678E-15, -73.));
#43 = CARTESIAN_POINT('', (-8.53201661845341, 4.99239615899089E-15, -73.));
#44 = PRESENTATION_STYLE_ASSIGNMENT((#45));
#45 = CURVE_STYLE('', #47, POSITIVE_LENGTH_MEASURE(1.E-6), #46);
#46 = COLOUR_RGB('', 0., 0., 1.);
#47 = DRAUGHTING_PRE_DEFINED_CURVE_FONT('continuous');
#48 = STYLED_ITEM('', (#44), #41);
#49 = B_SPLINE_CURVE_WITH_KNOTS('', 1, (#50, #51), .UNSPECIFIED., .F., .U., (2, 2), (0., 1.), .UNSPECIFIED.);
#50 = CARTESIAN_POINT('', (-8.53201661845341, 4.99239615899089E-15, -73.));
#51 = CARTESIAN_POINT('', (-5.98538430155895, 7.06645225436879E-15, -109.418538842465));
#52 = PRESENTATION_STYLE_ASSIGNMENT((#53));
#53 = CURVE_STYLE('', #55, POSITIVE_LENGTH_MEASURE(1.E-6), #54);
#54 = COLOUR_RGB('', 0., 0., 1.);
#55 = DRAUGHTING_PRE_DEFINED_CURVE_FONT('continuous');
#56 = STYLED_ITEM('', (#52), #49);
#57 = (
   BOUNDED_CURVE ()
   B_SPLINE_CURVE (2, (#58, #59, #60), .UNSPECIFIED., .F., .U.)
   B_SPLINE_CURVE_WITH_KNOTS ((3, 3), (2.368475785867E-15, 1.50098315671512), .UNSPECIFIED.)
   CURVE ()
   GEOMETRIC_REPRESENTATION_ITEM ()
   RATIONAL_B_SPLINE_CURVE ((1., 0.731353701619171, 1.))
   REPRESENTATION_ITEM ('')
);
#58 = CARTESIAN_POINT('', (-5.98538430155894, 7.06645225436879E-15, -109.418538842465));
#59 = CARTESIAN_POINT('', (-5.59509051682595, 7.38431957971581E-15, -115.));
#60 = CARTESIAN_POINT('', (1.72084568816899E-15, 7.04171909509728E-15, -115.));
#61 = PRESENTATION_STYLE_ASSIGNMENT((#62));
#62 = CURVE_STYLE('', #64, POSITIVE_LENGTH_MEASURE(1.E-6), #63);
#63 = COLOUR_RGB('', 0., 0., 1.);
#64 = DRAUGHTING_PRE_DEFINED_CURVE_FONT('continuous');
#65 = STYLED_ITEM('', (#61), #57);
#66 = B_SPLINE_CURVE_WITH_KNOTS('', 1, (#67, #68), .UNSPECIFIED., .F., .U., (2, 2), (0., 1.), .UNSPECIFIED.);
#67 = CARTESIAN_POINT('', (4.31180937515284E-31, 7.04171909509728E-15, -115.));
#68 = CARTESIAN_POINT('', (2.73706160335789E-31, 4.46996081688784E-15, -73.));
#69 = PRESENTATION_STYLE_ASSIGNMENT((#70));
#70 = CURVE_STYLE('', #72, POSITIVE_LENGTH_MEASURE(1.E-6), #71);
#71 = COLOUR_RGB('', 0., 0., 1.);
#72 = DRAUGHTING_PRE_DEFINED_CURVE_FONT('continuous');
#73 = STYLED_ITEM('', (#69), #66);
#74 = MANIFOLD_SOLID_BREP('NOCUT', #75);
#75 = CLOSED_SHELL('', (#76, #132, #141, #184));
#76 = ADVANCED_FACE('', (#77), #113, .T.);
#77 = FACE_OUTER_BOUND('', #78, .T.);
#78 = EDGE_LOOP('', (#79, #88, #100, #101));
#79 = ORIENTED_EDGE('', *, *, #80, .T.);
#80 = EDGE_CURVE('', #81, #83, #85, .T.);
#81 = VERTEX_POINT('', #82);
#82 = CARTESIAN_POINT('', (-8., 5.38844591624835E-16, -0.799999999999997));
#83 = VERTEX_POINT('', #84);
#84 = CARTESIAN_POINT('', (-7.2, 4.40872847693047E-16, 0.));
#85 = B_SPLINE_CURVE_WITH_KNOTS('', 1, (#86, #87), .UNSPECIFIED., .F., .U., (2, 2), (0., 1.), .UNSPECIFIED.);
#86 = CARTESIAN_POINT('', (-8., 5.38844591624835E-16, -0.799999999999997));
#87 = CARTESIAN_POINT('', (-7.2, 4.40872847693047E-16, 0.));
#88 = ORIENTED_EDGE('', *, *, #89, .T.);
#89 = EDGE_CURVE('', #83, #83, #90, .T.);
#90 = (
   BOUNDED_CURVE ()
   B_SPLINE_CURVE (2, (#91, #92, #93, #94, #95, #96, #97, #98, #99), .UNSPECIFIED., .T., .U.)
   B_SPLINE_CURVE_WITH_KNOTS ((3, 2, 2, 2, 3), (0., 1.5707963267949, 3.14159265358979, 4.71238898038469, 6.28318530717959), .UNSPECIFIED.)
   CURVE ()
   GEOMETRIC_REPRESENTATION_ITEM ()
   RATIONAL_B_SPLINE_CURVE ((1., 0.707106781186548, 1., 0.707106781186548, 1., 0.707106781186548, 1., 0.707106781186548, 1.))
   REPRESENTATION_ITEM ('')
);
#91 = CARTESIAN_POINT('', (-7.2, 4.40872847693047E-16, 0.));
#92 = CARTESIAN_POINT('', (-7.2, 7.2, 4.40872847693047E-16));
#93 = CARTESIAN_POINT('', (0., 7.2, 4.40872847693047E-16));
#94 = CARTESIAN_POINT('', (7.2, 7.2, 4.40872847693047E-16));
#95 = CARTESIAN_POINT('', (7.2, 4.40872847693047E-16, 5.39913521758269E-32));
#96 = CARTESIAN_POINT('', (7.2, -7.2, -4.40872847693047E-16));
#97 = CARTESIAN_POINT('', (8.81745695386094E-16, -7.2, -4.40872847693047E-16));
#98 = CARTESIAN_POINT('', (-7.2, -7.2, -4.40872847693047E-16));
#99 = CARTESIAN_POINT('', (-7.2, 4.40872847693047E-16, 0.));
#100 = ORIENTED_EDGE('', *, *, #80, .F.);
#101 = ORIENTED_EDGE('', *, *, #102, .F.);
#102 = EDGE_CURVE('', #81, #81, #103, .T.);
#103 = (
   BOUNDED_CURVE ()
   B_SPLINE_CURVE (2, (#104, #105, #106, #107, #108, #109, #110, #111, #112), .UNSPECIFIED., .T., .U.)
   B_SPLINE_CURVE_WITH_KNOTS ((3, 2, 2, 2, 3), (8.47409175530384E-33, 1.5707963267949, 3.14159265358979, 4.71238898038469, 6.28318530717959), .UNSPECIFIED.)
   CURVE ()
   GEOMETRIC_REPRESENTATION_ITEM ()
   RATIONAL_B_SPLINE_CURVE ((1., 0.707106781186548, 1., 0.707106781186548, 1., 0.707106781186548, 1., 0.707106781186548, 1.))
   REPRESENTATION_ITEM ('')
);
#104 = CARTESIAN_POINT('', (-8., 5.38844591624835E-16, -0.799999999999997));
#105 = CARTESIAN_POINT('', (-8., 8., -0.799999999999997));
#106 = CARTESIAN_POINT('', (0., 8., -0.799999999999997));
#107 = CARTESIAN_POINT('', (8., 8., -0.799999999999997));
#108 = CARTESIAN_POINT('', (8., 5.38844591624835E-16, -0.799999999999997));
#109 = CARTESIAN_POINT('', (8., -8., -0.799999999999998));
#110 = CARTESIAN_POINT('', (9.79717439317882E-16, -8., -0.799999999999998));
#111 = CARTESIAN_POINT('', (-8., -8., -0.799999999999998));
#112 = CARTESIAN_POINT('', (-8., 5.38844591624835E-16, -0.799999999999997));
#113 = (
   BOUNDED_SURFACE ()
   B_SPLINE_SURFACE (1, 2, ((#114, #115, #116, #117, #118, #119, #120, #121, #122), (#123, #124, #125, #126, #127, #128, #129, #130, #131)), .UNSPECIFIED., .F., .T., .U.)
   B_SPLINE_SURFACE_WITH_KNOTS ((2, 2), (3, 2, 2, 2, 3), (0., 1.), (0., 0.25, 0.5, 0.75, 1.), .UNSPECIFIED.)
   GEOMETRIC_REPRESENTATION_ITEM ()
   RATIONAL_B_SPLINE_SURFACE (((1., 0.707106781186548, 1., 0.707106781186548, 1., 0.707106781186548, 1., 0.707106781186548, 1.), (1., 0.707106781186548, 1., 0.707106781186548, 1., 0.707106781186548, 1., 0.707106781186548, 1.)))
   REPRESENTATION_ITEM ('')
   SURFACE ()
);
#114 = CARTESIAN_POINT('', (-8., 5.38844591624835E-16, -0.799999999999997));
#115 = CARTESIAN_POINT('', (-8., 8., -0.799999999999997));
#116 = CARTESIAN_POINT('', (0., 8., -0.799999999999997));
#117 = CARTESIAN_POINT('', (8., 8., -0.799999999999997));
#118 = CARTESIAN_POINT('', (8., 5.38844591624835E-16, -0.799999999999997));
#119 = CARTESIAN_POINT('', (8., -8., -0.799999999999998));
#120 = CARTESIAN_POINT('', (9.79717439317882E-16, -8., -0.799999999999998));
#121 = CARTESIAN_POINT('', (-8., -8., -0.799999999999998));
#122 = CARTESIAN_POINT('', (-8., 5.38844591624835E-16, -0.799999999999997));
#123 = CARTESIAN_POINT('', (-7.2, 4.40872847693047E-16, 0.));
#124 = CARTESIAN_POINT('', (-7.2, 7.2, 4.40872847693047E-16));
#125 = CARTESIAN_POINT('', (0., 7.2, 4.40872847693047E-16));
#126 = CARTESIAN_POINT('', (7.2, 7.2, 4.40872847693047E-16));
#127 = CARTESIAN_POINT('', (7.2, 4.40872847693047E-16, 5.39913521758269E-32));
#128 = CARTESIAN_POINT('', (7.2, -7.2, -4.40872847693047E-16));
#129 = CARTESIAN_POINT('', (8.81745695386094E-16, -7.2, -4.40872847693047E-16));
#130 = CARTESIAN_POINT('', (-7.2, -7.2, -4.40872847693047E-16));
#131 = CARTESIAN_POINT('', (-7.2, 4.40872847693047E-16, 0.));
#132 = ADVANCED_FACE('', (#133), #136, .T.);
#133 = FACE_OUTER_BOUND('', #134, .T.);
#134 = EDGE_LOOP('', (#135));
#135 = ORIENTED_EDGE('', *, *, #89, .F.);
#136 = PLANE('', #137);
#137 = AXIS2_PLACEMENT_3D('', #138, #139, #140);
#138 = CARTESIAN_POINT('', (11.2005714139949, -11.2005714139949, 2.1421064621729E-14));
#139 = DIRECTION('', (-1.97372982155583E-15, -6.12323399573676E-17, 1.));
#140 = DIRECTION('', (0., 1., 6.12323399573676E-17));
#141 = ADVANCED_FACE('', (#142), #165, .T.);
#142 = FACE_OUTER_BOUND('', #143, .T.);
#143 = EDGE_LOOP('', (#144, #151, #152, #153));
#144 = ORIENTED_EDGE('', *, *, #145, .T.);
#145 = EDGE_CURVE('', #146, #81, #148, .T.);
#146 = VERTEX_POINT('', #147);
#147 = CARTESIAN_POINT('', (-8., 4.95981953654678E-15, -73.));
#148 = B_SPLINE_CURVE_WITH_KNOTS('', 1, (#149, #150), .UNSPECIFIED., .F., .U., (2, 2), (0., 1.), .UNSPECIFIED.);
#149 = CARTESIAN_POINT('', (-8., 4.95981953654678E-15, -73.));
#150 = CARTESIAN_POINT('', (-8., 5.38844591624836E-16, -0.799999999999997));
#151 = ORIENTED_EDGE('', *, *, #102, .T.);
#152 = ORIENTED_EDGE('', *, *, #145, .F.);
#153 = ORIENTED_EDGE('', *, *, #154, .F.);
#154 = EDGE_CURVE('', #146, #146, #155, .T.);
#155 = (
   BOUNDED_CURVE ()
   B_SPLINE_CURVE (2, (#156, #157, #158, #159, #160, #161, #162, #163, #164), .UNSPECIFIED., .T., .U.)
   B_SPLINE_CURVE_WITH_KNOTS ((3, 2, 2, 2, 3), (6.28318530717959, 7.85398163397448, 9.42477796076938, 10.9955742875643, 12.5663706143592), .UNSPECIFIED.)
   CURVE ()
   GEOMETRIC_REPRESENTATION_ITEM ()
   RATIONAL_B_SPLINE_CURVE ((1., 0.707106781186548, 1., 0.707106781186548, 1., 0.707106781186548, 1., 0.707106781186548, 1.))
   REPRESENTATION_ITEM ('')
);
#156 = CARTESIAN_POINT('', (-8., 3.00038465791102E-15, -73.));
#157 = CARTESIAN_POINT('', (-8., 8., -73.));
#158 = CARTESIAN_POINT('', (-1.95943487863576E-15, 8.00000000000001, -73.));
#159 = CARTESIAN_POINT('', (8., 8.00000000000001, -73.));
#160 = CARTESIAN_POINT('', (8., 6.91925441518255E-15, -73.));
#161 = CARTESIAN_POINT('', (8., -7.99999999999999, -73.));
#162 = CARTESIAN_POINT('', (2.93915231795365E-15, -8., -73.));
#163 = CARTESIAN_POINT('', (-8., -8., -73.));
#164 = CARTESIAN_POINT('', (-8., 3.00038465791102E-15, -73.));
#165 = (
   BOUNDED_SURFACE ()
   B_SPLINE_SURFACE (1, 2, ((#166, #167, #168, #169, #170, #171, #172, #173, #174), (#175, #176, #177, #178, #179, #180, #181, #182, #183)), .UNSPECIFIED., .F., .T., .U.)
   B_SPLINE_SURFACE_WITH_KNOTS ((2, 2), (3, 2, 2, 2, 3), (0., 1.), (0., 12.5663706143592, 25.1327412287183, 37.6991118430775, 50.2654824574367), .UNSPECIFIED.)
   GEOMETRIC_REPRESENTATION_ITEM ()
   RATIONAL_B_SPLINE_SURFACE (((1., 0.707106781186548, 1., 0.707106781186548, 1., 0.707106781186548, 1., 0.707106781186548, 1.), (1., 0.707106781186548, 1., 0.707106781186548, 1., 0.707106781186548, 1., 0.707106781186548, 1.)))
   REPRESENTATION_ITEM ('')
   SURFACE ()
);
#166 = CARTESIAN_POINT('', (-8., 4.95981953654678E-15, -73.));
#167 = CARTESIAN_POINT('', (-8., 8.00000000000001, -73.));
#168 = CARTESIAN_POINT('', (2.95822839457879E-31, 8.00000000000001, -73.));
#169 = CARTESIAN_POINT('', (8., 8.00000000000001, -73.));
#170 = CARTESIAN_POINT('', (8., 4.95981953654678E-15, -73.));
#171 = CARTESIAN_POINT('', (8., -7.99999999999999, -73.));
#172 = CARTESIAN_POINT('', (9.79717439317883E-16, -8., -73.));
#173 = CARTESIAN_POINT('', (-8., -8., -73.));
#174 = CARTESIAN_POINT('', (-8., 4.95981953654678E-15, -73.));
#175 = CARTESIAN_POINT('', (-8., 5.38844591624835E-16, -0.799999999999997));
#176 = CARTESIAN_POINT('', (-8., 8., -0.799999999999997));
#177 = CARTESIAN_POINT('', (0., 8., -0.799999999999997));
#178 = CARTESIAN_POINT('', (8., 8., -0.799999999999997));
#179 = CARTESIAN_POINT('', (8., 5.38844591624835E-16, -0.799999999999997));
#180 = CARTESIAN_POINT('', (8., -8., -0.799999999999998));
#181 = CARTESIAN_POINT('', (9.79717439317882E-16, -8., -0.799999999999998));
#182 = CARTESIAN_POINT('', (-8., -8., -0.799999999999998));
#183 = CARTESIAN_POINT('', (-8., 5.38844591624835E-16, -0.799999999999997));
#184 = ADVANCED_FACE('', (#185), #188, .T.);
#185 = FACE_OUTER_BOUND('', #186, .T.);
#186 = EDGE_LOOP('', (#187));
#187 = ORIENTED_EDGE('', *, *, #154, .T.);
#188 = PLANE('', #189);
#189 = AXIS2_PLACEMENT_3D('', #190, #191, #192);
#190 = CARTESIAN_POINT('', (-119.8046733453, 115.204802409573, -73.));
#191 = DIRECTION('', (0., 0., -1.));
#192 = DIRECTION('', (1., 0., 0.));
#193 = PRESENTATION_LAYER_ASSIGNMENT('NOCUT', '', (#74));
#194 = DRAUGHTING_MODEL('', (#195, #311), #319);
#195 = STYLED_ITEM('', (#196), #74);
#196 = PRESENTATION_STYLE_ASSIGNMENT((#197));
#197 = SURFACE_STYLE_USAGE(.POSITIVE., #198);
#198 = SURFACE_SIDE_STYLE('', (#199));
#199 = SURFACE_STYLE_FILL_AREA(#200);
#200 = FILL_AREA_STYLE('', (#201));
#201 = FILL_AREA_STYLE_COLOUR('', #202);
#202 = COLOUR_RGB('', 0.50196078431373, 0.50196078431373, 0.50196078431373);
#203 = MANIFOLD_SOLID_BREP('CUT', #204);
#204 = CLOSED_SHELL('', (#205, #227, #270));
#205 = ADVANCED_FACE('', (#206), #222, .T.);
#206 = FACE_OUTER_BOUND('', #207, .T.);
#207 = EDGE_LOOP('', (#208));
#208 = ORIENTED_EDGE('', *, *, #209, .F.);
#209 = EDGE_CURVE('', #210, #210, #212, .T.);
#210 = VERTEX_POINT('', #211);
#211 = CARTESIAN_POINT('', (-8.53201661845341, 4.99239615899089E-15, -73.));
#212 = (
   BOUNDED_CURVE ()
   B_SPLINE_CURVE (2, (#213, #214, #215, #216, #217, #218, #219, #220, #221), .UNSPECIFIED., .T., .U.)
   B_SPLINE_CURVE_WITH_KNOTS ((3, 2, 2, 2, 3), (0., 1.5707963267949, 3.14159265358979, 4.71238898038469, 6.28318530717959), .UNSPECIFIED.)
   CURVE ()
   GEOMETRIC_REPRESENTATION_ITEM ()
   RATIONAL_B_SPLINE_CURVE ((1., 0.707106781186548, 1., 0.707106781186548, 1., 0.707106781186548, 1., 0.707106781186548, 1.))
   REPRESENTATION_ITEM ('')
);
#213 = CARTESIAN_POINT('', (-8.53201661845341, 4.99239615899089E-15, -73.));
#214 = CARTESIAN_POINT('', (-8.53201661845341, 8.53201661845342, -73.));
#215 = CARTESIAN_POINT('', (2.95822839457879E-31, 8.53201661845342, -73.));
#216 = CARTESIAN_POINT('', (8.53201661845341, 8.53201661845342, -73.));
#217 = CARTESIAN_POINT('', (8.53201661845341, 4.99239615899089E-15, -73.));
#218 = CARTESIAN_POINT('', (8.53201661845342, -8.53201661845341, -73.));
#219 = CARTESIAN_POINT('', (1.0448706842061E-15, -8.53201661845341, -73.));
#220 = CARTESIAN_POINT('', (-8.53201661845341, -8.53201661845341, -73.));
#221 = CARTESIAN_POINT('', (-8.53201661845341, 4.99239615899089E-15, -73.));
#222 = PLANE('', #223);
#223 = AXIS2_PLACEMENT_3D('', #224, #225, #226);
#224 = CARTESIAN_POINT('', (13.2727029778304, -13.2727029778304, -73.));
#225 = DIRECTION('', (0., 0., 1.));
#226 = DIRECTION('', (0., 1., 0.));
#227 = ADVANCED_FACE('', (#228), #251, .T.);
#228 = FACE_OUTER_BOUND('', #229, .T.);
#229 = EDGE_LOOP('', (#230, #237, #238, #239));
#230 = ORIENTED_EDGE('', *, *, #231, .F.);
#231 = EDGE_CURVE('', #210, #232, #234, .T.);
#232 = VERTEX_POINT('', #233);
#233 = CARTESIAN_POINT('', (-5.98538430155894, 7.06645225436879E-15, -109.418538842465));
#234 = B_SPLINE_CURVE_WITH_KNOTS('', 1, (#235, #236), .UNSPECIFIED., .F., .U., (2, 2), (0., 1.), .UNSPECIFIED.);
#235 = CARTESIAN_POINT('', (-8.53201661845341, 4.99239615899089E-15, -73.));
#236 = CARTESIAN_POINT('', (-5.98538430155894, 7.06645225436879E-15, -109.418538842465));
#237 = ORIENTED_EDGE('', *, *, #209, .T.);
#238 = ORIENTED_EDGE('', *, *, #231, .T.);
#239 = ORIENTED_EDGE('', *, *, #240, .F.);
#240 = EDGE_CURVE('', #232, #232, #241, .T.);
#241 = (
   BOUNDED_CURVE ()
   B_SPLINE_CURVE (2, (#242, #243, #244, #245, #246, #247, #248, #249, #250), .UNSPECIFIED., .T., .U.)
   B_SPLINE_CURVE_WITH_KNOTS ((3, 2, 2, 2, 3), (0., 1.5707963267949, 3.14159265358979, 4.71238898038469, 6.28318530717959), .UNSPECIFIED.)
   CURVE ()
   GEOMETRIC_REPRESENTATION_ITEM ()
   RATIONAL_B_SPLINE_CURVE ((1., 0.707106781186548, 1., 0.707106781186548, 1., 0.707106781186548, 1., 0.707106781186548, 1.))
   REPRESENTATION_ITEM ('')
);
#242 = CARTESIAN_POINT('', (-5.98538430155894, 7.06645225436879E-15, -109.418538842465));
#243 = CARTESIAN_POINT('', (-5.98538430155894, 5.98538430155895, -109.418538842465));
#244 = CARTESIAN_POINT('', (3.94430452610506E-31, 5.98538430155895, -109.418538842465));
#245 = CARTESIAN_POINT('', (5.98538430155894, 5.98538430155895, -109.418538842465));
#246 = CARTESIAN_POINT('', (5.98538430155894, 7.06645225436879E-15, -109.418538842465));
#247 = CARTESIAN_POINT('', (5.98538430155894, -5.98538430155894, -109.418538842465));
#248 = CARTESIAN_POINT('', (7.32998172657098E-16, -5.98538430155894, -109.418538842465));
#249 = CARTESIAN_POINT('', (-5.98538430155894, -5.98538430155894, -109.418538842465));
#250 = CARTESIAN_POINT('', (-5.98538430155894, 7.06645225436879E-15, -109.418538842465));
#251 = (
   BOUNDED_SURFACE ()
   B_SPLINE_SURFACE (2, 1, ((#252, #253), (#254, #255), (#256, #257), (#258, #259), (#260, #261), (#262, #263), (#264, #265), (#266, #267), (#268, #269)), .UNSPECIFIED., .T., .F., .U.)
   B_SPLINE_SURFACE_WITH_KNOTS ((3, 2, 2, 2, 3), (2, 2), (0., 0.25, 0.5, 0.75, 1.), (0., 1.), .UNSPECIFIED.)
   GEOMETRIC_REPRESENTATION_ITEM ()
   RATIONAL_B_SPLINE_SURFACE (((1., 1.), (0.707106781186548, 0.707106781186548), (1., 1.), (0.707106781186548, 0.707106781186548), (1., 1.), (0.707106781186548, 0.707106781186548), (1., 1.), (0.707106781186548, 0.707106781186548), (1., 1.)))
   REPRESENTATION_ITEM ('')
   SURFACE ()
);
#252 = CARTESIAN_POINT('', (-8.53201661845341, 4.99239615899089E-15, -73.));
#253 = CARTESIAN_POINT('', (-5.98538430155894, 7.06645225436879E-15, -109.418538842465));
#254 = CARTESIAN_POINT('', (-8.53201661845341, 8.53201661845342, -73.));
#255 = CARTESIAN_POINT('', (-5.98538430155894, 5.98538430155895, -109.418538842465));
#256 = CARTESIAN_POINT('', (2.95822839457879E-31, 8.53201661845342, -73.));
#257 = CARTESIAN_POINT('', (4.43734259186819E-31, 5.98538430155895, -109.418538842465));
#258 = CARTESIAN_POINT('', (8.53201661845341, 8.53201661845342, -73.));
#259 = CARTESIAN_POINT('', (5.98538430155894, 5.98538430155895, -109.418538842465));
#260 = CARTESIAN_POINT('', (8.53201661845341, 4.99239615899089E-15, -73.));
#261 = CARTESIAN_POINT('', (5.98538430155894, 7.06645225436879E-15, -109.418538842465));
#262 = CARTESIAN_POINT('', (8.53201661845342, -8.53201661845341, -73.));
#263 = CARTESIAN_POINT('', (5.98538430155895, -5.98538430155894, -109.418538842465));
#264 = CARTESIAN_POINT('', (1.0448706842061E-15, -8.53201661845341, -73.));
#265 = CARTESIAN_POINT('', (7.32998172657098E-16, -5.98538430155894, -109.418538842465));
#266 = CARTESIAN_POINT('', (-8.53201661845341, -8.53201661845341, -73.));
#267 = CARTESIAN_POINT('', (-5.98538430155894, -5.98538430155894, -109.418538842465));
#268 = CARTESIAN_POINT('', (-8.53201661845341, 4.99239615899089E-15, -73.));
#269 = CARTESIAN_POINT('', (-5.98538430155894, 7.06645225436879E-15, -109.418538842465));
#270 = ADVANCED_FACE('', (#271), #283, .T.);
#271 = FACE_OUTER_BOUND('', #272, .T.);
#272 = EDGE_LOOP('', (#273, #281, #282));
#273 = ORIENTED_EDGE('', *, *, #274, .F.);
#274 = EDGE_CURVE('', #232, #275, #277, .T.);
#275 = VERTEX_POINT('', #276);
#276 = CARTESIAN_POINT('', (2.66453525910038E-15, 7.04171909509728E-15, -115.));
#277 = (
   BOUNDED_CURVE ()
   B_SPLINE_CURVE (2, (#278, #279, #280), .UNSPECIFIED., .F., .U.)
   B_SPLINE_CURVE_WITH_KNOTS ((3, 3), (0., 1.50098315671511), .UNSPECIFIED.)
   CURVE ()
   GEOMETRIC_REPRESENTATION_ITEM ()
   RATIONAL_B_SPLINE_CURVE ((1., 0.731353701619175, 1.))
   REPRESENTATION_ITEM ('')
);
#278 = CARTESIAN_POINT('', (-5.98538430155895, 7.06645225436879E-15, -109.418538842465));
#279 = CARTESIAN_POINT('', (-5.59509051682594, 7.38431957971581E-15, -115.));
#280 = CARTESIAN_POINT('', (2.4980018054066E-15, 7.04171909509728E-15, -115.));
#281 = ORIENTED_EDGE('', *, *, #240, .T.);
#282 = ORIENTED_EDGE('', *, *, #274, .T.);
#283 = (
   BOUNDED_SURFACE ()
   B_SPLINE_SURFACE (2, 2, ((#284, #285, #286), (#287, #288, #289), (#290, #291, #292), (#293, #294, #295), (#296, #297, #298), (#299, #300, #301), (#302, #303, #304), (#305, #306, #307), (#308, #309, #310)), .UNSPECIFIED., .T., .F., .U.)
   B_SPLINE_SURFACE_WITH_KNOTS ((3, 2, 2, 2, 3), (3, 3), (0., 0.25, 0.5, 0.75, 1.), (0., 1.), .UNSPECIFIED.)
   GEOMETRIC_REPRESENTATION_ITEM ()
   RATIONAL_B_SPLINE_SURFACE (((1., 0.731353701619171, 1.), (0.707106781186548, 0.517145161860798, 0.707106781186548), (1., 0.731353701619171, 1.), (0.707106781186548, 0.517145161860798, 0.707106781186548), (1., 0.731353701619171, 1.), (0.707106781186548, 0.517145161860798, 0.707106781186548), (1., 0.731353701619171, 1.), (0.707106781186548, 0.517145161860798, 0.707106781186548), (1., 0.731353701619171, 1.)))
   REPRESENTATION_ITEM ('')
   SURFACE ()
);
#284 = CARTESIAN_POINT('', (-5.98538430155895, 7.06645225436879E-15, -109.418538842465));
#285 = CARTESIAN_POINT('', (-5.59509051682596, 7.38431957971581E-15, -115.));
#286 = CARTESIAN_POINT('', (2.66453525910038E-15, 7.04171909509728E-15, -115.));
#287 = CARTESIAN_POINT('', (-5.98538430155895, 5.98538430155895, -109.418538842465));
#288 = CARTESIAN_POINT('', (-5.59509051682596, 5.59509051682597, -115.));
#289 = CARTESIAN_POINT('', (2.66453525910038E-15, 7.04171909509728E-15, -115.));
#290 = CARTESIAN_POINT('', (4.43734259186819E-31, 5.98538430155895, -109.418538842465));
#291 = CARTESIAN_POINT('', (4.43734259186819E-31, 5.59509051682597, -115.));
#292 = CARTESIAN_POINT('', (2.66453525910038E-15, 7.04171909509728E-15, -115.));
#293 = CARTESIAN_POINT('', (5.98538430155894, 5.98538430155895, -109.418538842465));
#294 = CARTESIAN_POINT('', (5.59509051682596, 5.59509051682597, -115.));
#295 = CARTESIAN_POINT('', (2.66453525910038E-15, 7.04171909509728E-15, -115.));
#296 = CARTESIAN_POINT('', (5.98538430155895, 7.06645225436879E-15, -109.418538842465));
#297 = CARTESIAN_POINT('', (5.59509051682596, 7.38431957971581E-15, -115.));
#298 = CARTESIAN_POINT('', (2.66453525910038E-15, 7.04171909509728E-15, -115.));
#299 = CARTESIAN_POINT('', (5.98538430155895, -5.98538430155894, -109.418538842465));
#300 = CARTESIAN_POINT('', (5.59509051682597, -5.59509051682596, -115.));
#301 = CARTESIAN_POINT('', (2.66453525910038E-15, 7.04171909509728E-15, -115.));
#302 = CARTESIAN_POINT('', (7.32998172657098E-16, -5.98538430155894, -109.418538842465));
#303 = CARTESIAN_POINT('', (6.85200969237063E-16, -5.59509051682596, -115.));
#304 = CARTESIAN_POINT('', (2.66453525910038E-15, 7.04171909509728E-15, -115.));
#305 = CARTESIAN_POINT('', (-5.98538430155894, -5.98538430155894, -109.418538842465));
#306 = CARTESIAN_POINT('', (-5.59509051682596, -5.59509051682596, -115.));
#307 = CARTESIAN_POINT('', (2.66453525910038E-15, 7.04171909509728E-15, -115.));
#308 = CARTESIAN_POINT('', (-5.98538430155895, 7.06645225436879E-15, -109.418538842465));
#309 = CARTESIAN_POINT('', (-5.59509051682596, 7.38431957971581E-15, -115.));
#310 = CARTESIAN_POINT('', (2.66453525910038E-15, 7.04171909509728E-15, -115.));
#311 = STYLED_ITEM('', (#312), #203);
#312 = PRESENTATION_STYLE_ASSIGNMENT((#313));
#313 = SURFACE_STYLE_USAGE(.POSITIVE., #314);
#314 = SURFACE_SIDE_STYLE('', (#315));
#315 = SURFACE_STYLE_FILL_AREA(#316);
#316 = FILL_AREA_STYLE('', (#317));
#317 = FILL_AREA_STYLE_COLOUR('', #318);
#318 = COLOUR_RGB('', 0.8, 0.8, 0.8);
#319 = (
   GEOMETRIC_REPRESENTATION_CONTEXT (3)
   GLOBAL_UNCERTAINTY_ASSIGNED_CONTEXT ((#321))
   GLOBAL_UNIT_ASSIGNED_CONTEXT ((#320, #322, #323))
   REPRESENTATION_CONTEXT ('', '3D')
);
#320 = (
   LENGTH_UNIT ()
   NAMED_UNIT (*)
   SI_UNIT (.MILLI., .METRE.)
);
#321 = UNCERTAINTY_MEASURE_WITH_UNIT(LENGTH_MEASURE(1.E-6), #320, 'DISTANCE_ACCURACY_VALUE', '');
#322 = (
   NAMED_UNIT (*)
   SI_UNIT ($, .STERADIAN.)
   SOLID_ANGLE_UNIT ()
);
#323 = (
   NAMED_UNIT (*)
   PLANE_ANGLE_UNIT ()
   SI_UNIT ($, .RADIAN.)
);
#324 = SHAPE_REPRESENTATION('', (), #319);
#325 = PRODUCT_DEFINITION_SHAPE('', '', #326);
#326 = PRODUCT_DEFINITION('', '', #329, #333);
#327 = APPLICATION_CONTEXT('configuration controlled 3D designs of mechanical parts and assemblies');
#328 = APPLICATION_PROTOCOL_DEFINITION('International Standard', 'automotive_design', 2002, #327);
#329 = PRODUCT_DEFINITION_FORMATION_WITH_SPECIFIED_SOURCE('', '', #330, .NOT_KNOWN.);
#330 = PRODUCT('NONE', '', '', (#331));
#331 = PRODUCT_CONTEXT('', #327, 'mechanical');
#332 = PRODUCT_RELATED_PRODUCT_CATEGORY('detail', '', (#330));
#333 = PRODUCT_DEFINITION_CONTEXT('part definition', #327, 'design');
#334 = SHAPE_DEFINITION_REPRESENTATION(#325, #324);
#335 = CONSTRUCTIVE_GEOMETRY_REPRESENTATION('supplement geometry', (#1, #12, #21), #319);
#336 = CONSTRUCTIVE_GEOMETRY_REPRESENTATION_RELATIONSHIP('', '', #324, #335);
#337 = SHAPE_REPRESENTATION_RELATIONSHIP('', '', #324, #338);
#338 = SHAPE_REPRESENTATION('', (#30), #319);
#339 = DRAUGHTING_MODEL('', (), #319);
#340 = SHAPE_REPRESENTATION_RELATIONSHIP('', '', #324, #341);
#341 = ADVANCED_BREP_SHAPE_REPRESENTATION('', (#74, #203), #319);
ENDSEC;
END-ISO-10303-21;
