ISO-10303-21;
HEADER;
FILE_DESCRIPTION(('3-D model version:1'), '1');
FILE_NAME('R216.54-10040RAL40G 1620', '2016-02-08T16:15:58', ('InteractiveCad'), ('AB Sandvik Coromant'), 'HarmonyWare STEP v2.0.3-dev Express v1.1.1.dev.0', 'T3D tool generator', 'Unknown');
FILE_SCHEMA(('AUTOMOTIVE_DESIGN'));
ENDSEC;

DATA;
#1 = AXIS2_PLACEMENT_3D('CIP', #2, #3, #4);
#2 = CARTESIAN_POINT('', (4.31180937515284E-31, 7.04171909509728E-15, -115.));
#3 = DIRECTION('', (-3.74939945665464E-33, -6.12323399573677E-17, 1.));
#4 = DIRECTION('', (1., -6.12323399573677E-17, 0.));
#5 = PRESENTATION_LAYER_ASSIGNMENT('1', 'Layer 1', (#1, #12, #21));
#6 = DRAUGHTING_MODEL('', (#11, #20, #29), #354);
#7 = PRESENTATION_STYLE_ASSIGNMENT((#8));
#8 = CURVE_STYLE('', #10, POSITIVE_LENGTH_MEASURE(1.E-6), #9);
#9 = COLOUR_RGB('', 0., 1., 0.);
#10 = DRAUGHTING_PRE_DEFINED_CURVE_FONT('continuous');
#11 = STYLED_ITEM('', (#7), #1);
#12 = AXIS2_PLACEMENT_3D('MCS', #13, #14, #15);
#13 = CARTESIAN_POINT('', (1.68722975549459E-31, 2.75545529808154E-15, -45.));
#14 = DIRECTION('', (-3.74939945665464E-33, -6.12323399573677E-17, 1.));
#15 = DIRECTION('', (1., -6.12323399573677E-17, 0.));
#16 = PRESENTATION_STYLE_ASSIGNMENT((#17));
#17 = CURVE_STYLE('', #19, POSITIVE_LENGTH_MEASURE(1.E-6), #18);
#18 = COLOUR_RGB('', 0., 0., 1.);
#19 = DRAUGHTING_PRE_DEFINED_CURVE_FONT('continuous');
#20 = STYLED_ITEM('', (#16), #12);
#21 = AXIS2_PLACEMENT_3D('PCS', #22, #23, #24);
#22 = CARTESIAN_POINT('', (-2.18952885050753E-47, 1.25267077750159E-64, -7.44237865339621E-80));
#23 = DIRECTION('', (0., 0., 1.));
#24 = DIRECTION('', (1., 0., 0.));
#25 = PRESENTATION_STYLE_ASSIGNMENT((#26));
#26 = CURVE_STYLE('', #28, POSITIVE_LENGTH_MEASURE(1.E-6), #27);
#27 = COLOUR_RGB('', 0., 1., 1.);
#28 = DRAUGHTING_PRE_DEFINED_CURVE_FONT('continuous');
#29 = STYLED_ITEM('', (#25), #21);
#30 = GEOMETRIC_SET('', (#32, #41, #49, #58));
#31 = DRAUGHTING_MODEL('', (#40, #48, #57, #65), #354);
#32 = B_SPLINE_CURVE_WITH_KNOTS('cutting_edge_line', 1, (#33, #34), .UNSPECIFIED., .F., .U., (2, 2), (0., 1.), .UNSPECIFIED.);
#33 = CARTESIAN_POINT('', (2.81204959249098E-31, 4.59242549680257E-15, -75.));
#34 = CARTESIAN_POINT('', (-6.84113400489605, 5.01132413988428E-15, -75.));
#35 = PRESENTATION_LAYER_ASSIGNMENT('CUT', '', (#32, #41, #49, #58, #238));
#36 = PRESENTATION_STYLE_ASSIGNMENT((#37));
#37 = CURVE_STYLE('', #39, POSITIVE_LENGTH_MEASURE(1.E-6), #38);
#38 = COLOUR_RGB('', 0., 0., 1.);
#39 = DRAUGHTING_PRE_DEFINED_CURVE_FONT('continuous');
#40 = STYLED_ITEM('', (#36), #32);
#41 = B_SPLINE_CURVE_WITH_KNOTS('', 1, (#42, #43), .UNSPECIFIED., .F., .U., (2, 2), (0., 1.), .UNSPECIFIED.);
#42 = CARTESIAN_POINT('', (-6.84113400489605, 5.01132413988428E-15, -75.));
#43 = CARTESIAN_POINT('', (-4.99314767377287, 7.05732277645155E-15, -110.261679781215));
#44 = PRESENTATION_STYLE_ASSIGNMENT((#45));
#45 = CURVE_STYLE('', #47, POSITIVE_LENGTH_MEASURE(1.E-6), #46);
#46 = COLOUR_RGB('', 0., 0., 1.);
#47 = DRAUGHTING_PRE_DEFINED_CURVE_FONT('continuous');
#48 = STYLED_ITEM('', (#44), #41);
#49 = (
   BOUNDED_CURVE ()
   B_SPLINE_CURVE (2, (#50, #51, #52), .UNSPECIFIED., .F., .U.)
   B_SPLINE_CURVE_WITH_KNOTS ((3, 3), (0., 1.51843644923507), .UNSPECIFIED.)
   CURVE ()
   GEOMETRIC_REPRESENTATION_ITEM ()
   RATIONAL_B_SPLINE_CURVE ((1., 0.725374371012288, 1.))
   REPRESENTATION_ITEM ('')
);
#50 = CARTESIAN_POINT('', (-4.99314767377287, 7.05732277645155E-15, -110.261679781215));
#51 = CARTESIAN_POINT('', (-4.74482283357439, 7.33225569988019E-15, -115.));
#52 = CARTESIAN_POINT('', (1.77635683940025E-15, 7.04171909509728E-15, -115.));
#53 = PRESENTATION_STYLE_ASSIGNMENT((#54));
#54 = CURVE_STYLE('', #56, POSITIVE_LENGTH_MEASURE(1.E-6), #55);
#55 = COLOUR_RGB('', 0., 0., 1.);
#56 = DRAUGHTING_PRE_DEFINED_CURVE_FONT('continuous');
#57 = STYLED_ITEM('', (#53), #49);
#58 = B_SPLINE_CURVE_WITH_KNOTS('', 1, (#59, #60), .UNSPECIFIED., .F., .U., (2, 2), (0., 1.), .UNSPECIFIED.);
#59 = CARTESIAN_POINT('', (4.31180937515284E-31, 7.04171909509728E-15, -115.));
#60 = CARTESIAN_POINT('', (2.81204959249098E-31, 4.59242549680257E-15, -75.));
#61 = PRESENTATION_STYLE_ASSIGNMENT((#62));
#62 = CURVE_STYLE('', #64, POSITIVE_LENGTH_MEASURE(1.E-6), #63);
#63 = COLOUR_RGB('', 0., 0., 1.);
#64 = DRAUGHTING_PRE_DEFINED_CURVE_FONT('continuous');
#65 = STYLED_ITEM('', (#61), #58);
#66 = MANIFOLD_SOLID_BREP('NOCUT', #67);
#67 = CLOSED_SHELL('', (#68, #90, #133, #189, #198));
#68 = ADVANCED_FACE('', (#69), #85, .T.);
#69 = FACE_OUTER_BOUND('', #70, .T.);
#70 = EDGE_LOOP('', (#71));
#71 = ORIENTED_EDGE('', *, *, #72, .T.);
#72 = EDGE_CURVE('', #73, #73, #75, .T.);
#73 = VERTEX_POINT('', #74);
#74 = CARTESIAN_POINT('', (-6.8689805517924, 5.01302924911047E-15, -75.));
#75 = (
   BOUNDED_CURVE ()
   B_SPLINE_CURVE (2, (#76, #77, #78, #79, #80, #81, #82, #83, #84), .UNSPECIFIED., .T., .U.)
   B_SPLINE_CURVE_WITH_KNOTS ((3, 2, 2, 2, 3), (0., 1.5707963267949, 3.14159265358979, 4.71238898038469, 6.28318530717959), .UNSPECIFIED.)
   CURVE ()
   GEOMETRIC_REPRESENTATION_ITEM ()
   RATIONAL_B_SPLINE_CURVE ((1., 0.707106781186548, 1., 0.707106781186548, 1., 0.707106781186548, 1., 0.707106781186548, 1.))
   REPRESENTATION_ITEM ('')
);
#76 = CARTESIAN_POINT('', (-6.8689805517924, 5.01302924911047E-15, -75.));
#77 = CARTESIAN_POINT('', (-6.8689805517924, 6.8689805517924, -75.));
#78 = CARTESIAN_POINT('', (2.95822839457879E-31, 6.8689805517924, -75.));
#79 = CARTESIAN_POINT('', (6.8689805517924, 6.8689805517924, -75.));
#80 = CARTESIAN_POINT('', (6.8689805517924, 5.01302924911047E-15, -75.));
#81 = CARTESIAN_POINT('', (6.8689805517924, -6.86898055179239, -75.));
#82 = CARTESIAN_POINT('', (8.41207504615798E-16, -6.86898055179239, -75.));
#83 = CARTESIAN_POINT('', (-6.86898055179239, -6.86898055179239, -75.));
#84 = CARTESIAN_POINT('', (-6.8689805517924, 5.01302924911047E-15, -75.));
#85 = PLANE('', #86);
#86 = AXIS2_PLACEMENT_3D('', #87, #88, #89);
#87 = CARTESIAN_POINT('', (10.685626001624, -10.685626001624, -75.));
#88 = DIRECTION('', (0., 0., -1.));
#89 = DIRECTION('', (-1., 0., 0.));
#90 = ADVANCED_FACE('', (#91), #114, .T.);
#91 = FACE_OUTER_BOUND('', #92, .T.);
#92 = EDGE_LOOP('', (#93, #100, #112, #113));
#93 = ORIENTED_EDGE('', *, *, #94, .F.);
#94 = EDGE_CURVE('', #95, #73, #97, .T.);
#95 = VERTEX_POINT('', #96);
#96 = CARTESIAN_POINT('', (-7., 4.86797102661073E-15, -72.5));
#97 = B_SPLINE_CURVE_WITH_KNOTS('', 1, (#98, #99), .UNSPECIFIED., .F., .U., (2, 2), (0., 1.), .UNSPECIFIED.);
#98 = CARTESIAN_POINT('', (-7., 4.86797102661073E-15, -72.5));
#99 = CARTESIAN_POINT('', (-6.8689805517924, 5.01302924911047E-15, -75.));
#100 = ORIENTED_EDGE('', *, *, #101, .T.);
#101 = EDGE_CURVE('', #95, #95, #102, .T.);
#102 = (
   BOUNDED_CURVE ()
   B_SPLINE_CURVE (2, (#103, #104, #105, #106, #107, #108, #109, #110, #111), .UNSPECIFIED., .T., .U.)
   B_SPLINE_CURVE_WITH_KNOTS ((3, 2, 2, 2, 3), (0., 1.5707963267949, 3.14159265358979, 4.71238898038469, 6.28318530717959), .UNSPECIFIED.)
   CURVE ()
   GEOMETRIC_REPRESENTATION_ITEM ()
   RATIONAL_B_SPLINE_CURVE ((1., 0.707106781186548, 1., 0.707106781186548, 1., 0.707106781186548, 1., 0.707106781186548, 1.))
   REPRESENTATION_ITEM ('')
);
#103 = CARTESIAN_POINT('', (-7., 4.86797102661073E-15, -72.5));
#104 = CARTESIAN_POINT('', (-7., 7., -72.5));
#105 = CARTESIAN_POINT('', (2.95822839457879E-31, 7., -72.5));
#106 = CARTESIAN_POINT('', (7., 7., -72.5));
#107 = CARTESIAN_POINT('', (7., 4.86797102661073E-15, -72.5));
#108 = CARTESIAN_POINT('', (7., -6.99999999999999, -72.5));
#109 = CARTESIAN_POINT('', (8.57252759403147E-16, -7., -72.5));
#110 = CARTESIAN_POINT('', (-7., -7., -72.5));
#111 = CARTESIAN_POINT('', (-7., 4.86797102661073E-15, -72.5));
#112 = ORIENTED_EDGE('', *, *, #94, .T.);
#113 = ORIENTED_EDGE('', *, *, #72, .F.);
#114 = (
   BOUNDED_SURFACE ()
   B_SPLINE_SURFACE (2, 1, ((#115, #116), (#117, #118), (#119, #120), (#121, #122), (#123, #124), (#125, #126), (#127, #128), (#129, #130), (#131, #132)), .UNSPECIFIED., .T., .F., .U.)
   B_SPLINE_SURFACE_WITH_KNOTS ((3, 2, 2, 2, 3), (2, 2), (0., 0.25, 0.5, 0.75, 1.), (0., 1.), .UNSPECIFIED.)
   GEOMETRIC_REPRESENTATION_ITEM ()
   RATIONAL_B_SPLINE_SURFACE (((1., 1.), (0.707106781186548, 0.707106781186548), (1., 1.), (0.707106781186548, 0.707106781186548), (1., 1.), (0.707106781186548, 0.707106781186548), (1., 1.), (0.707106781186548, 0.707106781186548), (1., 1.)))
   REPRESENTATION_ITEM ('')
   SURFACE ()
);
#115 = CARTESIAN_POINT('', (-7., 4.86797102661073E-15, -72.5));
#116 = CARTESIAN_POINT('', (-6.8689805517924, 5.01302924911047E-15, -75.));
#117 = CARTESIAN_POINT('', (-7., 7., -72.5));
#118 = CARTESIAN_POINT('', (-6.8689805517924, 6.8689805517924, -75.));
#119 = CARTESIAN_POINT('', (2.46519032881566E-31, 7., -72.5));
#120 = CARTESIAN_POINT('', (2.46519032881566E-31, 6.8689805517924, -75.));
#121 = CARTESIAN_POINT('', (7., 7., -72.5));
#122 = CARTESIAN_POINT('', (6.86898055179239, 6.8689805517924, -75.));
#123 = CARTESIAN_POINT('', (7., 4.86797102661073E-15, -72.5));
#124 = CARTESIAN_POINT('', (6.8689805517924, 5.01302924911047E-15, -75.));
#125 = CARTESIAN_POINT('', (7., -6.99999999999999, -72.5));
#126 = CARTESIAN_POINT('', (6.8689805517924, -6.86898055179239, -75.));
#127 = CARTESIAN_POINT('', (8.57252759403148E-16, -7., -72.5));
#128 = CARTESIAN_POINT('', (8.41207504615798E-16, -6.86898055179239, -75.));
#129 = CARTESIAN_POINT('', (-7., -7., -72.5));
#130 = CARTESIAN_POINT('', (-6.86898055179239, -6.86898055179239, -75.));
#131 = CARTESIAN_POINT('', (-7., 4.86797102661073E-15, -72.5));
#132 = CARTESIAN_POINT('', (-6.8689805517924, 5.01302924911047E-15, -75.));
#133 = ADVANCED_FACE('', (#134), #170, .T.);
#134 = FACE_OUTER_BOUND('', #135, .T.);
#135 = EDGE_LOOP('', (#136, #145, #157, #158));
#136 = ORIENTED_EDGE('', *, *, #137, .T.);
#137 = EDGE_CURVE('', #138, #140, #142, .T.);
#138 = VERTEX_POINT('', #139);
#139 = CARTESIAN_POINT('', (-7., 4.71489017671731E-16, -0.700000000000003));
#140 = VERTEX_POINT('', #141);
#141 = CARTESIAN_POINT('', (-6.3, 3.85763741731416E-16, 0.));
#142 = B_SPLINE_CURVE_WITH_KNOTS('', 1, (#143, #144), .UNSPECIFIED., .F., .U., (2, 2), (0., 1.), .UNSPECIFIED.);
#143 = CARTESIAN_POINT('', (-7., 4.71489017671731E-16, -0.700000000000003));
#144 = CARTESIAN_POINT('', (-6.3, 3.85763741731416E-16, 0.));
#145 = ORIENTED_EDGE('', *, *, #146, .T.);
#146 = EDGE_CURVE('', #140, #140, #147, .T.);
#147 = (
   BOUNDED_CURVE ()
   B_SPLINE_CURVE (2, (#148, #149, #150, #151, #152, #153, #154, #155, #156), .UNSPECIFIED., .T., .U.)
   B_SPLINE_CURVE_WITH_KNOTS ((3, 2, 2, 2, 3), (6.28318530717959, 7.85398163397448, 9.42477796076938, 10.9955742875643, 12.5663706143592), .UNSPECIFIED.)
   CURVE ()
   GEOMETRIC_REPRESENTATION_ITEM ()
   RATIONAL_B_SPLINE_CURVE ((1., 0.707106781186548, 1., 0.707106781186548, 1., 0.707106781186548, 1., 0.707106781186548, 1.))
   REPRESENTATION_ITEM ('')
);
#148 = CARTESIAN_POINT('', (-6.3, -1.15729122519425E-15, -9.4484866307697E-32));
#149 = CARTESIAN_POINT('', (-6.3, 6.3, 3.85763741731416E-16));
#150 = CARTESIAN_POINT('', (-1.54305496692567E-15, 6.3, 3.85763741731416E-16));
#151 = CARTESIAN_POINT('', (6.3, 6.3, 3.85763741731416E-16));
#152 = CARTESIAN_POINT('', (6.3, 1.92881870865708E-15, 1.41727299461546E-31));
#153 = CARTESIAN_POINT('', (6.3, -6.3, -3.85763741731416E-16));
#154 = CARTESIAN_POINT('', (2.3145824503885E-15, -6.3, -3.85763741731416E-16));
#155 = CARTESIAN_POINT('', (-6.3, -6.3, -3.85763741731416E-16));
#156 = CARTESIAN_POINT('', (-6.3, -1.15729122519425E-15, -9.4484866307697E-32));
#157 = ORIENTED_EDGE('', *, *, #137, .F.);
#158 = ORIENTED_EDGE('', *, *, #159, .F.);
#159 = EDGE_CURVE('', #138, #138, #160, .T.);
#160 = (
   BOUNDED_CURVE ()
   B_SPLINE_CURVE (2, (#161, #162, #163, #164, #165, #166, #167, #168, #169), .UNSPECIFIED., .T., .U.)
   B_SPLINE_CURVE_WITH_KNOTS ((3, 2, 2, 2, 3), (6.28318530717959, 7.85398163397448, 9.42477796076938, 10.9955742875643, 12.5663706143592), .UNSPECIFIED.)
   CURVE ()
   GEOMETRIC_REPRESENTATION_ITEM ()
   RATIONAL_B_SPLINE_CURVE ((1., 0.707106781186548, 1., 0.707106781186548, 1., 0.707106781186548, 1., 0.707106781186548, 1.))
   REPRESENTATION_ITEM ('')
);
#161 = CARTESIAN_POINT('', (-7., -1.24301650113456E-15, -0.700000000000003));
#162 = CARTESIAN_POINT('', (-7., 7., -0.700000000000002));
#163 = CARTESIAN_POINT('', (-1.71450551880629E-15, 7., -0.700000000000002));
#164 = CARTESIAN_POINT('', (7., 7., -0.700000000000002));
#165 = CARTESIAN_POINT('', (7., 2.18599453647803E-15, -0.700000000000003));
#166 = CARTESIAN_POINT('', (7., -7., -0.700000000000003));
#167 = CARTESIAN_POINT('', (2.57175827820944E-15, -7., -0.700000000000003));
#168 = CARTESIAN_POINT('', (-7., -7., -0.700000000000003));
#169 = CARTESIAN_POINT('', (-7., -1.24301650113456E-15, -0.700000000000003));
#170 = (
   BOUNDED_SURFACE ()
   B_SPLINE_SURFACE (1, 2, ((#171, #172, #173, #174, #175, #176, #177, #178, #179), (#180, #181, #182, #183, #184, #185, #186, #187, #188)), .UNSPECIFIED., .F., .T., .U.)
   B_SPLINE_SURFACE_WITH_KNOTS ((2, 2), (3, 2, 2, 2, 3), (0., 1.), (0., 0.25, 0.5, 0.75, 1.), .UNSPECIFIED.)
   GEOMETRIC_REPRESENTATION_ITEM ()
   RATIONAL_B_SPLINE_SURFACE (((1., 0.707106781186548, 1., 0.707106781186548, 1., 0.707106781186548, 1., 0.707106781186548, 1.), (1., 0.707106781186548, 1., 0.707106781186548, 1., 0.707106781186548, 1., 0.707106781186548, 1.)))
   REPRESENTATION_ITEM ('')
   SURFACE ()
);
#171 = CARTESIAN_POINT('', (-7., 4.71489017671731E-16, -0.700000000000003));
#172 = CARTESIAN_POINT('', (-7., 7., -0.700000000000002));
#173 = CARTESIAN_POINT('', (0., 7., -0.700000000000002));
#174 = CARTESIAN_POINT('', (7., 7., -0.700000000000002));
#175 = CARTESIAN_POINT('', (7., 4.71489017671731E-16, -0.700000000000003));
#176 = CARTESIAN_POINT('', (7., -7., -0.700000000000003));
#177 = CARTESIAN_POINT('', (8.57252759403147E-16, -7., -0.700000000000003));
#178 = CARTESIAN_POINT('', (-7., -7., -0.700000000000003));
#179 = CARTESIAN_POINT('', (-7., 4.71489017671731E-16, -0.700000000000003));
#180 = CARTESIAN_POINT('', (-6.3, 3.85763741731416E-16, -7.44237865339621E-80));
#181 = CARTESIAN_POINT('', (-6.3, 6.3, 3.85763741731416E-16));
#182 = CARTESIAN_POINT('', (0., 6.3, 3.85763741731416E-16));
#183 = CARTESIAN_POINT('', (6.3, 6.3, 3.85763741731416E-16));
#184 = CARTESIAN_POINT('', (6.3, 3.85763741731416E-16, 4.72424331538485E-32));
#185 = CARTESIAN_POINT('', (6.3, -6.3, -3.85763741731416E-16));
#186 = CARTESIAN_POINT('', (7.71527483462832E-16, -6.3, -3.85763741731416E-16));
#187 = CARTESIAN_POINT('', (-6.3, -6.3, -3.85763741731416E-16));
#188 = CARTESIAN_POINT('', (-6.3, 3.85763741731416E-16, -7.44237865339621E-80));
#189 = ADVANCED_FACE('', (#190), #193, .T.);
#190 = FACE_OUTER_BOUND('', #191, .T.);
#191 = EDGE_LOOP('', (#192));
#192 = ORIENTED_EDGE('', *, *, #146, .F.);
#193 = PLANE('', #194);
#194 = AXIS2_PLACEMENT_3D('', #195, #196, #197);
#195 = CARTESIAN_POINT('', (9.80049998724555, -9.80049998724555, -1.1653558456105E-14));
#196 = DIRECTION('', (-1.07761173197928E-31, -1.18907795227499E-15, 1.));
#197 = DIRECTION('', (0., 1., 1.18907795227499E-15));
#198 = ADVANCED_FACE('', (#199), #209, .T.);
#199 = FACE_OUTER_BOUND('', #200, .T.);
#200 = EDGE_LOOP('', (#201, #206, #207, #208));
#201 = ORIENTED_EDGE('', *, *, #202, .T.);
#202 = EDGE_CURVE('', #95, #138, #203, .T.);
#203 = B_SPLINE_CURVE_WITH_KNOTS('', 1, (#204, #205), .UNSPECIFIED., .F., .U., (2, 2), (0., 1.), .UNSPECIFIED.);
#204 = CARTESIAN_POINT('', (-7., 4.86797102661073E-15, -72.5));
#205 = CARTESIAN_POINT('', (-7., 4.71489017671731E-16, -0.700000000000003));
#206 = ORIENTED_EDGE('', *, *, #159, .T.);
#207 = ORIENTED_EDGE('', *, *, #202, .F.);
#208 = ORIENTED_EDGE('', *, *, #101, .F.);
#209 = (
   BOUNDED_SURFACE ()
   B_SPLINE_SURFACE (1, 2, ((#210, #211, #212, #213, #214, #215, #216, #217, #218), (#219, #220, #221, #222, #223, #224, #225, #226, #227)), .UNSPECIFIED., .F., .T., .U.)
   B_SPLINE_SURFACE_WITH_KNOTS ((2, 2), (3, 2, 2, 2, 3), (0., 1.), (0., 10.9955742875643, 21.9911485751286, 32.9867228626928, 43.9822971502571), .UNSPECIFIED.)
   GEOMETRIC_REPRESENTATION_ITEM ()
   RATIONAL_B_SPLINE_SURFACE (((1., 0.707106781186548, 1., 0.707106781186548, 1., 0.707106781186548, 1., 0.707106781186548, 1.), (1., 0.707106781186548, 1., 0.707106781186548, 1., 0.707106781186548, 1., 0.707106781186548, 1.)))
   REPRESENTATION_ITEM ('')
   SURFACE ()
);
#210 = CARTESIAN_POINT('', (-7., 4.86797102661073E-15, -72.5));
#211 = CARTESIAN_POINT('', (-7., 7., -72.5));
#212 = CARTESIAN_POINT('', (2.46519032881566E-31, 7., -72.5));
#213 = CARTESIAN_POINT('', (7., 7., -72.5));
#214 = CARTESIAN_POINT('', (7., 4.86797102661073E-15, -72.5));
#215 = CARTESIAN_POINT('', (7., -6.99999999999999, -72.5));
#216 = CARTESIAN_POINT('', (8.57252759403148E-16, -7., -72.5));
#217 = CARTESIAN_POINT('', (-7., -7., -72.5));
#218 = CARTESIAN_POINT('', (-7., 4.86797102661073E-15, -72.5));
#219 = CARTESIAN_POINT('', (-7., 4.71489017671731E-16, -0.700000000000003));
#220 = CARTESIAN_POINT('', (-7., 7., -0.700000000000002));
#221 = CARTESIAN_POINT('', (0., 7., -0.700000000000002));
#222 = CARTESIAN_POINT('', (7., 7., -0.700000000000002));
#223 = CARTESIAN_POINT('', (7., 4.71489017671731E-16, -0.700000000000003));
#224 = CARTESIAN_POINT('', (7., -7., -0.700000000000003));
#225 = CARTESIAN_POINT('', (8.57252759403147E-16, -7., -0.700000000000003));
#226 = CARTESIAN_POINT('', (-7., -7., -0.700000000000003));
#227 = CARTESIAN_POINT('', (-7., 4.71489017671731E-16, -0.700000000000003));
#228 = PRESENTATION_LAYER_ASSIGNMENT('NOCUT', '', (#66));
#229 = DRAUGHTING_MODEL('', (#230, #346), #354);
#230 = STYLED_ITEM('', (#231), #66);
#231 = PRESENTATION_STYLE_ASSIGNMENT((#232));
#232 = SURFACE_STYLE_USAGE(.POSITIVE., #233);
#233 = SURFACE_SIDE_STYLE('', (#234));
#234 = SURFACE_STYLE_FILL_AREA(#235);
#235 = FILL_AREA_STYLE('', (#236));
#236 = FILL_AREA_STYLE_COLOUR('', #237);
#237 = COLOUR_RGB('', 0.50196078431373, 0.50196078431373, 0.50196078431373);
#238 = MANIFOLD_SOLID_BREP('CUT', #239);
#239 = CLOSED_SHELL('', (#240, #262, #305));
#240 = ADVANCED_FACE('', (#241), #257, .T.);
#241 = FACE_OUTER_BOUND('', #242, .T.);
#242 = EDGE_LOOP('', (#243));
#243 = ORIENTED_EDGE('', *, *, #244, .F.);
#244 = EDGE_CURVE('', #245, #245, #247, .T.);
#245 = VERTEX_POINT('', #246);
#246 = CARTESIAN_POINT('', (-6.84113400489605, 5.01132413988428E-15, -75.));
#247 = (
   BOUNDED_CURVE ()
   B_SPLINE_CURVE (2, (#248, #249, #250, #251, #252, #253, #254, #255, #256), .UNSPECIFIED., .T., .U.)
   B_SPLINE_CURVE_WITH_KNOTS ((3, 2, 2, 2, 3), (0., 1.5707963267949, 3.14159265358979, 4.71238898038469, 6.28318530717959), .UNSPECIFIED.)
   CURVE ()
   GEOMETRIC_REPRESENTATION_ITEM ()
   RATIONAL_B_SPLINE_CURVE ((1., 0.707106781186548, 1., 0.707106781186548, 1., 0.707106781186548, 1., 0.707106781186548, 1.))
   REPRESENTATION_ITEM ('')
);
#248 = CARTESIAN_POINT('', (-6.84113400489605, 5.01132413988428E-15, -75.));
#249 = CARTESIAN_POINT('', (-6.84113400489605, 6.84113400489606, -75.));
#250 = CARTESIAN_POINT('', (2.95822839457879E-31, 6.84113400489606, -75.));
#251 = CARTESIAN_POINT('', (6.84113400489605, 6.84113400489606, -75.));
#252 = CARTESIAN_POINT('', (6.84113400489605, 5.01132413988428E-15, -75.));
#253 = CARTESIAN_POINT('', (6.84113400489605, -6.84113400489605, -75.));
#254 = CARTESIAN_POINT('', (8.37797286163406E-16, -6.84113400489605, -75.));
#255 = CARTESIAN_POINT('', (-6.84113400489605, -6.84113400489605, -75.));
#256 = CARTESIAN_POINT('', (-6.84113400489605, 5.01132413988428E-15, -75.));
#257 = PLANE('', #258);
#258 = AXIS2_PLACEMENT_3D('', #259, #260, #261);
#259 = CARTESIAN_POINT('', (-118.822341345554, 114.561470552359, -75.));
#260 = DIRECTION('', (0., 0., 1.));
#261 = DIRECTION('', (0., -1., 0.));
#262 = ADVANCED_FACE('', (#263), #286, .T.);
#263 = FACE_OUTER_BOUND('', #264, .T.);
#264 = EDGE_LOOP('', (#265, #272, #273, #274));
#265 = ORIENTED_EDGE('', *, *, #266, .F.);
#266 = EDGE_CURVE('', #245, #267, #269, .T.);
#267 = VERTEX_POINT('', #268);
#268 = CARTESIAN_POINT('', (-4.99314767377287, 7.05732277645155E-15, -110.261679781215));
#269 = B_SPLINE_CURVE_WITH_KNOTS('', 1, (#270, #271), .UNSPECIFIED., .F., .U., (2, 2), (0., 1.), .UNSPECIFIED.);
#270 = CARTESIAN_POINT('', (-6.84113400489605, 5.01132413988428E-15, -75.));
#271 = CARTESIAN_POINT('', (-4.99314767377287, 7.05732277645155E-15, -110.261679781215));
#272 = ORIENTED_EDGE('', *, *, #244, .T.);
#273 = ORIENTED_EDGE('', *, *, #266, .T.);
#274 = ORIENTED_EDGE('', *, *, #275, .F.);
#275 = EDGE_CURVE('', #267, #267, #276, .T.);
#276 = (
   BOUNDED_CURVE ()
   B_SPLINE_CURVE (2, (#277, #278, #279, #280, #281, #282, #283, #284, #285), .UNSPECIFIED., .T., .U.)
   B_SPLINE_CURVE_WITH_KNOTS ((3, 2, 2, 2, 3), (0., 1.5707963267949, 3.14159265358979, 4.71238898038469, 6.28318530717959), .UNSPECIFIED.)
   CURVE ()
   GEOMETRIC_REPRESENTATION_ITEM ()
   RATIONAL_B_SPLINE_CURVE ((1., 0.707106781186548, 1., 0.707106781186548, 1., 0.707106781186548, 1., 0.707106781186548, 1.))
   REPRESENTATION_ITEM ('')
);
#277 = CARTESIAN_POINT('', (-4.99314767377287, 7.05732277645155E-15, -110.261679781215));
#278 = CARTESIAN_POINT('', (-4.99314767377287, 4.99314767377287, -110.261679781215));
#279 = CARTESIAN_POINT('', (3.94430452610506E-31, 4.99314767377287, -110.261679781215));
#280 = CARTESIAN_POINT('', (4.99314767377287, 4.99314767377287, -110.261679781215));
#281 = CARTESIAN_POINT('', (4.99314767377287, 7.05732277645155E-15, -110.261679781215));
#282 = CARTESIAN_POINT('', (4.99314767377287, -4.99314767377286, -110.261679781215));
#283 = CARTESIAN_POINT('', (6.114842316356E-16, -4.99314767377286, -110.261679781215));
#284 = CARTESIAN_POINT('', (-4.99314767377287, -4.99314767377286, -110.261679781215));
#285 = CARTESIAN_POINT('', (-4.99314767377287, 7.05732277645155E-15, -110.261679781215));
#286 = (
   BOUNDED_SURFACE ()
   B_SPLINE_SURFACE (2, 1, ((#287, #288), (#289, #290), (#291, #292), (#293, #294), (#295, #296), (#297, #298), (#299, #300), (#301, #302), (#303, #304)), .UNSPECIFIED., .T., .F., .U.)
   B_SPLINE_SURFACE_WITH_KNOTS ((3, 2, 2, 2, 3), (2, 2), (0., 0.25, 0.5, 0.75, 1.), (0., 1.), .UNSPECIFIED.)
   GEOMETRIC_REPRESENTATION_ITEM ()
   RATIONAL_B_SPLINE_SURFACE (((1., 1.), (0.707106781186548, 0.707106781186548), (1., 1.), (0.707106781186548, 0.707106781186548), (1., 1.), (0.707106781186548, 0.707106781186548), (1., 1.), (0.707106781186548, 0.707106781186548), (1., 1.)))
   REPRESENTATION_ITEM ('')
   SURFACE ()
);
#287 = CARTESIAN_POINT('', (-6.84113400489605, 5.01132413988428E-15, -75.));
#288 = CARTESIAN_POINT('', (-4.99314767377287, 7.05732277645155E-15, -110.261679781215));
#289 = CARTESIAN_POINT('', (-6.84113400489605, 6.84113400489606, -75.));
#290 = CARTESIAN_POINT('', (-4.99314767377287, 4.99314767377288, -110.261679781215));
#291 = CARTESIAN_POINT('', (2.46519032881566E-31, 6.84113400489606, -75.));
#292 = CARTESIAN_POINT('', (3.94430452610506E-31, 4.99314767377288, -110.261679781215));
#293 = CARTESIAN_POINT('', (6.84113400489605, 6.84113400489606, -75.));
#294 = CARTESIAN_POINT('', (4.99314767377287, 4.99314767377288, -110.261679781215));
#295 = CARTESIAN_POINT('', (6.84113400489605, 5.01132413988428E-15, -75.));
#296 = CARTESIAN_POINT('', (4.99314767377287, 7.05732277645155E-15, -110.261679781215));
#297 = CARTESIAN_POINT('', (6.84113400489605, -6.84113400489605, -75.));
#298 = CARTESIAN_POINT('', (4.99314767377287, -4.99314767377286, -110.261679781215));
#299 = CARTESIAN_POINT('', (8.37797286163407E-16, -6.84113400489605, -75.));
#300 = CARTESIAN_POINT('', (6.114842316356E-16, -4.99314767377286, -110.261679781215));
#301 = CARTESIAN_POINT('', (-6.84113400489605, -6.84113400489605, -75.));
#302 = CARTESIAN_POINT('', (-4.99314767377287, -4.99314767377286, -110.261679781215));
#303 = CARTESIAN_POINT('', (-6.84113400489605, 5.01132413988428E-15, -75.));
#304 = CARTESIAN_POINT('', (-4.99314767377287, 7.05732277645155E-15, -110.261679781215));
#305 = ADVANCED_FACE('', (#306), #318, .T.);
#306 = FACE_OUTER_BOUND('', #307, .T.);
#307 = EDGE_LOOP('', (#308, #316, #317));
#308 = ORIENTED_EDGE('', *, *, #309, .F.);
#309 = EDGE_CURVE('', #267, #310, #312, .T.);
#310 = VERTEX_POINT('', #311);
#311 = CARTESIAN_POINT('', (-1.11022302462516E-15, 7.04171909509728E-15, -115.));
#312 = (
   BOUNDED_CURVE ()
   B_SPLINE_CURVE (2, (#313, #314, #315), .UNSPECIFIED., .F., .U.)
   B_SPLINE_CURVE_WITH_KNOTS ((3, 3), (0., 1.51843644923507), .UNSPECIFIED.)
   CURVE ()
   GEOMETRIC_REPRESENTATION_ITEM ()
   RATIONAL_B_SPLINE_CURVE ((1., 0.725374371012287, 1.))
   REPRESENTATION_ITEM ('')
);
#313 = CARTESIAN_POINT('', (-4.99314767377287, 7.05732277645155E-15, -110.261679781215));
#314 = CARTESIAN_POINT('', (-4.7448228335744, 7.33225569988019E-15, -115.));
#315 = CARTESIAN_POINT('', (-1.11022302462516E-16, 7.04171909509728E-15, -115.));
#316 = ORIENTED_EDGE('', *, *, #275, .T.);
#317 = ORIENTED_EDGE('', *, *, #309, .T.);
#318 = (
   BOUNDED_SURFACE ()
   B_SPLINE_SURFACE (2, 2, ((#319, #320, #321), (#322, #323, #324), (#325, #326, #327), (#328, #329, #330), (#331, #332, #333), (#334, #335, #336), (#337, #338, #339), (#340, #341, #342), (#343, #344, #345)), .UNSPECIFIED., .T., .F., .U.)
   B_SPLINE_SURFACE_WITH_KNOTS ((3, 2, 2, 2, 3), (3, 3), (0., 0.25, 0.5, 0.75, 1.), (0., 1.), .UNSPECIFIED.)
   GEOMETRIC_REPRESENTATION_ITEM ()
   RATIONAL_B_SPLINE_SURFACE (((1., 0.725374371012288, 1.), (0.707106781186548, 0.512917136641715, 0.707106781186548), (1., 0.725374371012288, 1.), (0.707106781186548, 0.512917136641715, 0.707106781186548), (1., 0.725374371012288, 1.), (0.707106781186548, 0.512917136641715, 0.707106781186548), (1., 0.725374371012288, 1.), (0.707106781186548, 0.512917136641715, 0.707106781186548), (1., 0.725374371012288, 1.)))
   REPRESENTATION_ITEM ('')
   SURFACE ()
);
#319 = CARTESIAN_POINT('', (-4.99314767377287, 7.05732277645155E-15, -110.261679781215));
#320 = CARTESIAN_POINT('', (-4.7448228335744, 7.33225569988019E-15, -115.));
#321 = CARTESIAN_POINT('', (-1.11022302462516E-15, 7.04171909509728E-15, -115.));
#322 = CARTESIAN_POINT('', (-4.99314767377287, 4.99314767377288, -110.261679781215));
#323 = CARTESIAN_POINT('', (-4.7448228335744, 4.74482283357441, -115.));
#324 = CARTESIAN_POINT('', (-1.11022302462516E-15, 7.04171909509728E-15, -115.));
#325 = CARTESIAN_POINT('', (4.43734259186819E-31, 4.99314767377288, -110.261679781215));
#326 = CARTESIAN_POINT('', (3.94430452610506E-31, 4.74482283357441, -115.));
#327 = CARTESIAN_POINT('', (-1.11022302462516E-15, 7.04171909509728E-15, -115.));
#328 = CARTESIAN_POINT('', (4.99314767377287, 4.99314767377288, -110.261679781215));
#329 = CARTESIAN_POINT('', (4.7448228335744, 4.74482283357441, -115.));
#330 = CARTESIAN_POINT('', (-1.11022302462516E-15, 7.04171909509728E-15, -115.));
#331 = CARTESIAN_POINT('', (4.99314767377287, 7.05732277645155E-15, -110.261679781215));
#332 = CARTESIAN_POINT('', (4.7448228335744, 7.33225569988019E-15, -115.));
#333 = CARTESIAN_POINT('', (-1.11022302462516E-15, 7.04171909509728E-15, -115.));
#334 = CARTESIAN_POINT('', (4.99314767377287, -4.99314767377286, -110.261679781215));
#335 = CARTESIAN_POINT('', (4.7448228335744, -4.74482283357439, -115.));
#336 = CARTESIAN_POINT('', (-1.11022302462516E-15, 7.04171909509728E-15, -115.));
#337 = CARTESIAN_POINT('', (6.114842316356E-16, -4.99314767377286, -110.261679781215));
#338 = CARTESIAN_POINT('', (5.81073209565817E-16, -4.74482283357439, -115.));
#339 = CARTESIAN_POINT('', (-1.11022302462516E-15, 7.04171909509728E-15, -115.));
#340 = CARTESIAN_POINT('', (-4.99314767377287, -4.99314767377286, -110.261679781215));
#341 = CARTESIAN_POINT('', (-4.7448228335744, -4.74482283357439, -115.));
#342 = CARTESIAN_POINT('', (-1.11022302462516E-15, 7.04171909509728E-15, -115.));
#343 = CARTESIAN_POINT('', (-4.99314767377287, 7.05732277645155E-15, -110.261679781215));
#344 = CARTESIAN_POINT('', (-4.7448228335744, 7.33225569988019E-15, -115.));
#345 = CARTESIAN_POINT('', (-1.11022302462516E-15, 7.04171909509728E-15, -115.));
#346 = STYLED_ITEM('', (#347), #238);
#347 = PRESENTATION_STYLE_ASSIGNMENT((#348));
#348 = SURFACE_STYLE_USAGE(.POSITIVE., #349);
#349 = SURFACE_SIDE_STYLE('', (#350));
#350 = SURFACE_STYLE_FILL_AREA(#351);
#351 = FILL_AREA_STYLE('', (#352));
#352 = FILL_AREA_STYLE_COLOUR('', #353);
#353 = COLOUR_RGB('', 0.8, 0.8, 0.8);
#354 = (
   GEOMETRIC_REPRESENTATION_CONTEXT (3)
   GLOBAL_UNCERTAINTY_ASSIGNED_CONTEXT ((#356))
   GLOBAL_UNIT_ASSIGNED_CONTEXT ((#355, #357, #358))
   REPRESENTATION_CONTEXT ('', '3D')
);
#355 = (
   LENGTH_UNIT ()
   NAMED_UNIT (*)
   SI_UNIT (.MILLI., .METRE.)
);
#356 = UNCERTAINTY_MEASURE_WITH_UNIT(LENGTH_MEASURE(1.E-6), #355, 'DISTANCE_ACCURACY_VALUE', '');
#357 = (
   NAMED_UNIT (*)
   SI_UNIT ($, .STERADIAN.)
   SOLID_ANGLE_UNIT ()
);
#358 = (
   NAMED_UNIT (*)
   PLANE_ANGLE_UNIT ()
   SI_UNIT ($, .RADIAN.)
);
#359 = SHAPE_REPRESENTATION('', (), #354);
#360 = PRODUCT_DEFINITION_SHAPE('', '', #361);
#361 = PRODUCT_DEFINITION('', '', #364, #368);
#362 = APPLICATION_CONTEXT('configuration controlled 3D designs of mechanical parts and assemblies');
#363 = APPLICATION_PROTOCOL_DEFINITION('International Standard', 'automotive_design', 2002, #362);
#364 = PRODUCT_DEFINITION_FORMATION_WITH_SPECIFIED_SOURCE('', '', #365, .NOT_KNOWN.);
#365 = PRODUCT('NONE', '', '', (#366));
#366 = PRODUCT_CONTEXT('', #362, 'mechanical');
#367 = PRODUCT_RELATED_PRODUCT_CATEGORY('detail', '', (#365));
#368 = PRODUCT_DEFINITION_CONTEXT('part definition', #362, 'design');
#369 = SHAPE_DEFINITION_REPRESENTATION(#360, #359);
#370 = CONSTRUCTIVE_GEOMETRY_REPRESENTATION('supplement geometry', (#1, #12, #21), #354);
#371 = CONSTRUCTIVE_GEOMETRY_REPRESENTATION_RELATIONSHIP('', '', #359, #370);
#372 = SHAPE_REPRESENTATION_RELATIONSHIP('', '', #359, #373);
#373 = SHAPE_REPRESENTATION('', (#30), #354);
#374 = DRAUGHTING_MODEL('', (), #354);
#375 = SHAPE_REPRESENTATION_RELATIONSHIP('', '', #359, #376);
#376 = ADVANCED_BREP_SHAPE_REPRESENTATION('', (#66, #238), #354);
ENDSEC;
END-ISO-10303-21;
