ISO-10303-21;
HEADER;
FILE_DESCRIPTION(('3-D model version:1'), '1');
FILE_NAME('R216.54-08040RAL40G 1620', '2016-02-08T16:15:58', ('InteractiveCad'), ('AB Sandvik Coromant'), 'HarmonyWare STEP v2.0.3-dev Express v1.1.1.dev.0', 'T3D tool generator', 'Unknown');
FILE_SCHEMA(('AUTOMOTIVE_DESIGN'));
ENDSEC;

DATA;
#1 = AXIS2_PLACEMENT_3D('CIP', #2, #3, #4);
#2 = CARTESIAN_POINT('', (3.74939945665464E-31, 6.12323399573677E-15, -100.));
#3 = DIRECTION('', (-3.74939945665464E-33, -6.12323399573677E-17, 1.));
#4 = DIRECTION('', (1., -6.12323399573677E-17, 0.));
#5 = PRESENTATION_LAYER_ASSIGNMENT('1', 'Layer 1', (#1, #12, #21));
#6 = DRAUGHTING_MODEL('', (#11, #20, #29), #311);
#7 = PRESENTATION_STYLE_ASSIGNMENT((#8));
#8 = CURVE_STYLE('', #10, POSITIVE_LENGTH_MEASURE(1.E-6), #9);
#9 = COLOUR_RGB('', 0., 1., 0.);
#10 = DRAUGHTING_PRE_DEFINED_CURVE_FONT('continuous');
#11 = STYLED_ITEM('', (#7), #1);
#12 = AXIS2_PLACEMENT_3D('MCS', #13, #14, #15);
#13 = CARTESIAN_POINT('', (1.68722975549459E-31, 2.75545529808154E-15, -45.));
#14 = DIRECTION('', (-3.74939945665464E-33, -6.12323399573677E-17, 1.));
#15 = DIRECTION('', (1., -6.12323399573677E-17, 0.));
#16 = PRESENTATION_STYLE_ASSIGNMENT((#17));
#17 = CURVE_STYLE('', #19, POSITIVE_LENGTH_MEASURE(1.E-6), #18);
#18 = COLOUR_RGB('', 0., 0., 1.);
#19 = DRAUGHTING_PRE_DEFINED_CURVE_FONT('continuous');
#20 = STYLED_ITEM('', (#16), #12);
#21 = AXIS2_PLACEMENT_3D('PCS', #22, #23, #24);
#22 = CARTESIAN_POINT('', (-2.18952885050753E-47, 1.25267077750159E-64, -7.44237865339621E-80));
#23 = DIRECTION('', (0., 0., 1.));
#24 = DIRECTION('', (1., 0., 0.));
#25 = PRESENTATION_STYLE_ASSIGNMENT((#26));
#26 = CURVE_STYLE('', #28, POSITIVE_LENGTH_MEASURE(1.E-6), #27);
#27 = COLOUR_RGB('', 0., 1., 1.);
#28 = DRAUGHTING_PRE_DEFINED_CURVE_FONT('continuous');
#29 = STYLED_ITEM('', (#25), #21);
#30 = GEOMETRIC_SET('', (#32, #41, #49, #58));
#31 = DRAUGHTING_MODEL('', (#40, #48, #57, #65), #311);
#32 = B_SPLINE_CURVE_WITH_KNOTS('cutting_edge_line', 1, (#33, #34), .UNSPECIFIED., .F., .U., (2, 2), (0., 1.), .UNSPECIFIED.);
#33 = CARTESIAN_POINT('', (2.24963967399279E-31, 3.67394039744206E-15, -60.));
#34 = CARTESIAN_POINT('', (-5.89216943818117, 4.03473171956718E-15, -60.));
#35 = PRESENTATION_LAYER_ASSIGNMENT('CUT', '', (#32, #41, #49, #58, #195));
#36 = PRESENTATION_STYLE_ASSIGNMENT((#37));
#37 = CURVE_STYLE('', #39, POSITIVE_LENGTH_MEASURE(1.E-6), #38);
#38 = COLOUR_RGB('', 0., 0., 1.);
#39 = DRAUGHTING_PRE_DEFINED_CURVE_FONT('continuous');
#40 = STYLED_ITEM('', (#36), #32);
#41 = B_SPLINE_CURVE_WITH_KNOTS('', 1, (#42, #43), .UNSPECIFIED., .F., .U., (2, 2), (0., 1.), .UNSPECIFIED.);
#42 = CARTESIAN_POINT('', (-5.89216943818117, 4.03473171956718E-15, -60.));
#43 = CARTESIAN_POINT('', (-3.9945181390183, 6.13571694082018E-15, -96.2093438249718));
#44 = PRESENTATION_STYLE_ASSIGNMENT((#45));
#45 = CURVE_STYLE('', #47, POSITIVE_LENGTH_MEASURE(1.E-6), #46);
#46 = COLOUR_RGB('', 0., 0., 1.);
#47 = DRAUGHTING_PRE_DEFINED_CURVE_FONT('continuous');
#48 = STYLED_ITEM('', (#44), #41);
#49 = (
   BOUNDED_CURVE ()
   B_SPLINE_CURVE (2, (#50, #51, #52), .UNSPECIFIED., .F., .U.)
   B_SPLINE_CURVE_WITH_KNOTS ((3, 3), (0., 1.51843644923506), .UNSPECIFIED.)
   CURVE ()
   GEOMETRIC_REPRESENTATION_ITEM ()
   RATIONAL_B_SPLINE_CURVE ((1., 0.725374371012289, 1.))
   REPRESENTATION_ITEM ('')
);
#50 = CARTESIAN_POINT('', (-3.9945181390183, 6.13571694082018E-15, -96.2093438249718));
#51 = CARTESIAN_POINT('', (-3.79585826685951, 6.35566327956309E-15, -100.));
#52 = CARTESIAN_POINT('', (4.16333634234434E-16, 6.12323399573677E-15, -100.));
#53 = PRESENTATION_STYLE_ASSIGNMENT((#54));
#54 = CURVE_STYLE('', #56, POSITIVE_LENGTH_MEASURE(1.E-6), #55);
#55 = COLOUR_RGB('', 0., 0., 1.);
#56 = DRAUGHTING_PRE_DEFINED_CURVE_FONT('continuous');
#57 = STYLED_ITEM('', (#53), #49);
#58 = B_SPLINE_CURVE_WITH_KNOTS('', 1, (#59, #60), .UNSPECIFIED., .F., .U., (2, 2), (0., 1.), .UNSPECIFIED.);
#59 = CARTESIAN_POINT('', (3.74939945665464E-31, 6.12323399573677E-15, -100.));
#60 = CARTESIAN_POINT('', (2.24963967399279E-31, 3.67394039744206E-15, -60.));
#61 = PRESENTATION_STYLE_ASSIGNMENT((#62));
#62 = CURVE_STYLE('', #64, POSITIVE_LENGTH_MEASURE(1.E-6), #63);
#63 = COLOUR_RGB('', 0., 0., 1.);
#64 = DRAUGHTING_PRE_DEFINED_CURVE_FONT('continuous');
#65 = STYLED_ITEM('', (#61), #58);
#66 = MANIFOLD_SOLID_BREP('NOCUT', #67);
#67 = CLOSED_SHELL('', (#68, #124, #133, #176));
#68 = ADVANCED_FACE('', (#69), #105, .T.);
#69 = FACE_OUTER_BOUND('', #70, .T.);
#70 = EDGE_LOOP('', (#71, #80, #92, #93));
#71 = ORIENTED_EDGE('', *, *, #72, .T.);
#72 = EDGE_CURVE('', #73, #75, #77, .T.);
#73 = VERTEX_POINT('', #74);
#74 = CARTESIAN_POINT('', (-6., 4.04133443718627E-16, -0.600000000000001));
#75 = VERTEX_POINT('', #76);
#76 = CARTESIAN_POINT('', (-5.4, 3.30654635769785E-16, 0.));
#77 = B_SPLINE_CURVE_WITH_KNOTS('', 1, (#78, #79), .UNSPECIFIED., .F., .U., (2, 2), (0., 1.), .UNSPECIFIED.);
#78 = CARTESIAN_POINT('', (-6., 4.04133443718627E-16, -0.600000000000001));
#79 = CARTESIAN_POINT('', (-5.4, 3.30654635769785E-16, 0.));
#80 = ORIENTED_EDGE('', *, *, #81, .T.);
#81 = EDGE_CURVE('', #75, #75, #82, .T.);
#82 = (
   BOUNDED_CURVE ()
   B_SPLINE_CURVE (2, (#83, #84, #85, #86, #87, #88, #89, #90, #91), .UNSPECIFIED., .T., .U.)
   B_SPLINE_CURVE_WITH_KNOTS ((3, 2, 2, 2, 3), (6.28318530717959, 7.85398163397448, 9.42477796076938, 10.9955742875643, 12.5663706143592), .UNSPECIFIED.)
   CURVE ()
   GEOMETRIC_REPRESENTATION_ITEM ()
   RATIONAL_B_SPLINE_CURVE ((1., 0.707106781186548, 1., 0.707106781186548, 1., 0.707106781186548, 1., 0.707106781186548, 1.))
   REPRESENTATION_ITEM ('')
);
#83 = CARTESIAN_POINT('', (-5.4, -9.91963907309356E-16, -8.09870282637403E-32));
#84 = CARTESIAN_POINT('', (-5.4, 5.4, 3.30654635769785E-16));
#85 = CARTESIAN_POINT('', (-1.32261854307914E-15, 5.4, 3.30654635769785E-16));
#86 = CARTESIAN_POINT('', (5.4, 5.4, 3.30654635769786E-16));
#87 = CARTESIAN_POINT('', (5.4, 1.65327317884893E-15, 1.2148054239561E-31));
#88 = CARTESIAN_POINT('', (5.4, -5.4, -3.30654635769785E-16));
#89 = CARTESIAN_POINT('', (1.98392781461871E-15, -5.4, -3.30654635769785E-16));
#90 = CARTESIAN_POINT('', (-5.4, -5.4, -3.30654635769786E-16));
#91 = CARTESIAN_POINT('', (-5.4, -9.91963907309356E-16, -8.09870282637403E-32));
#92 = ORIENTED_EDGE('', *, *, #72, .F.);
#93 = ORIENTED_EDGE('', *, *, #94, .F.);
#94 = EDGE_CURVE('', #73, #73, #95, .T.);
#95 = (
   BOUNDED_CURVE ()
   B_SPLINE_CURVE (2, (#96, #97, #98, #99, #100, #101, #102, #103, #104), .UNSPECIFIED., .T., .U.)
   B_SPLINE_CURVE_WITH_KNOTS ((3, 2, 2, 2, 3), (6.28318530717959, 7.85398163397448, 9.42477796076938, 10.9955742875643, 12.5663706143592), .UNSPECIFIED.)
   CURVE ()
   GEOMETRIC_REPRESENTATION_ITEM ()
   RATIONAL_B_SPLINE_CURVE ((1., 0.707106781186548, 1., 0.707106781186548, 1., 0.707106781186548, 1., 0.707106781186548, 1.))
   REPRESENTATION_ITEM ('')
);
#96 = CARTESIAN_POINT('', (-6., -1.0654427152582E-15, -0.600000000000001));
#97 = CARTESIAN_POINT('', (-6., 6., -0.600000000000001));
#98 = CARTESIAN_POINT('', (-1.46957615897682E-15, 6., -0.600000000000001));
#99 = CARTESIAN_POINT('', (6., 6., -0.600000000000001));
#100 = CARTESIAN_POINT('', (6., 1.87370960269545E-15, -0.600000000000001));
#101 = CARTESIAN_POINT('', (6., -6., -0.600000000000002));
#102 = CARTESIAN_POINT('', (2.20436423846524E-15, -6., -0.600000000000002));
#103 = CARTESIAN_POINT('', (-6., -6., -0.600000000000002));
#104 = CARTESIAN_POINT('', (-6., -1.0654427152582E-15, -0.600000000000001));
#105 = (
   BOUNDED_SURFACE ()
   B_SPLINE_SURFACE (1, 2, ((#106, #107, #108, #109, #110, #111, #112, #113, #114), (#115, #116, #117, #118, #119, #120, #121, #122, #123)), .UNSPECIFIED., .F., .T., .U.)
   B_SPLINE_SURFACE_WITH_KNOTS ((2, 2), (3, 2, 2, 2, 3), (0., 1.), (0., 0.25, 0.5, 0.75, 1.), .UNSPECIFIED.)
   GEOMETRIC_REPRESENTATION_ITEM ()
   RATIONAL_B_SPLINE_SURFACE (((1., 0.707106781186548, 1., 0.707106781186548, 1., 0.707106781186548, 1., 0.707106781186548, 1.), (1., 0.707106781186548, 1., 0.707106781186548, 1., 0.707106781186548, 1., 0.707106781186548, 1.)))
   REPRESENTATION_ITEM ('')
   SURFACE ()
);
#106 = CARTESIAN_POINT('', (-6., 4.04133443718627E-16, -0.600000000000001));
#107 = CARTESIAN_POINT('', (-6., 6., -0.600000000000001));
#108 = CARTESIAN_POINT('', (0., 6., -0.600000000000001));
#109 = CARTESIAN_POINT('', (6., 6., -0.600000000000001));
#110 = CARTESIAN_POINT('', (6., 4.04133443718627E-16, -0.600000000000001));
#111 = CARTESIAN_POINT('', (6., -6., -0.600000000000002));
#112 = CARTESIAN_POINT('', (7.34788079488412E-16, -6., -0.600000000000002));
#113 = CARTESIAN_POINT('', (-6., -6., -0.600000000000002));
#114 = CARTESIAN_POINT('', (-6., 4.04133443718627E-16, -0.600000000000001));
#115 = CARTESIAN_POINT('', (-5.4, 3.30654635769785E-16, -7.44237865339621E-80));
#116 = CARTESIAN_POINT('', (-5.4, 5.4, 3.30654635769785E-16));
#117 = CARTESIAN_POINT('', (0., 5.4, 3.30654635769785E-16));
#118 = CARTESIAN_POINT('', (5.4, 5.4, 3.30654635769785E-16));
#119 = CARTESIAN_POINT('', (5.4, 3.30654635769785E-16, 4.04935141318702E-32));
#120 = CARTESIAN_POINT('', (5.4, -5.4, -3.30654635769785E-16));
#121 = CARTESIAN_POINT('', (6.61309271539571E-16, -5.4, -3.30654635769785E-16));
#122 = CARTESIAN_POINT('', (-5.4, -5.4, -3.30654635769785E-16));
#123 = CARTESIAN_POINT('', (-5.4, 3.30654635769785E-16, -7.44237865339621E-80));
#124 = ADVANCED_FACE('', (#125), #128, .T.);
#125 = FACE_OUTER_BOUND('', #126, .T.);
#126 = EDGE_LOOP('', (#127));
#127 = ORIENTED_EDGE('', *, *, #81, .F.);
#128 = PLANE('', #129);
#129 = AXIS2_PLACEMENT_3D('', #130, #131, #132);
#130 = CARTESIAN_POINT('', (8.40042856049619, -8.40042856049619, -1.15678288065377E-14));
#131 = DIRECTION('', (0., -1.37705222099459E-15, 1.));
#132 = DIRECTION('', (0., 1., 1.37705222099459E-15));
#133 = ADVANCED_FACE('', (#134), #157, .T.);
#134 = FACE_OUTER_BOUND('', #135, .T.);
#135 = EDGE_LOOP('', (#136, #143, #144, #145));
#136 = ORIENTED_EDGE('', *, *, #137, .T.);
#137 = EDGE_CURVE('', #138, #73, #140, .T.);
#138 = VERTEX_POINT('', #139);
#139 = CARTESIAN_POINT('', (-6., 4.04133443718627E-15, -60.));
#140 = B_SPLINE_CURVE_WITH_KNOTS('', 1, (#141, #142), .UNSPECIFIED., .F., .U., (2, 2), (0., 1.), .UNSPECIFIED.);
#141 = CARTESIAN_POINT('', (-6., 4.04133443718627E-15, -60.));
#142 = CARTESIAN_POINT('', (-6., 4.04133443718626E-16, -0.600000000000001));
#143 = ORIENTED_EDGE('', *, *, #94, .T.);
#144 = ORIENTED_EDGE('', *, *, #137, .F.);
#145 = ORIENTED_EDGE('', *, *, #146, .F.);
#146 = EDGE_CURVE('', #138, #138, #147, .T.);
#147 = (
   BOUNDED_CURVE ()
   B_SPLINE_CURVE (2, (#148, #149, #150, #151, #152, #153, #154, #155, #156), .UNSPECIFIED., .T., .U.)
   B_SPLINE_CURVE_WITH_KNOTS ((3, 2, 2, 2, 3), (0., 1.5707963267949, 3.14159265358979, 4.71238898038469, 6.28318530717959), .UNSPECIFIED.)
   CURVE ()
   GEOMETRIC_REPRESENTATION_ITEM ()
   RATIONAL_B_SPLINE_CURVE ((1., 0.707106781186548, 1., 0.707106781186548, 1., 0.707106781186548, 1., 0.707106781186548, 1.))
   REPRESENTATION_ITEM ('')
);
#148 = CARTESIAN_POINT('', (-6., 4.04133443718627E-15, -60.));
#149 = CARTESIAN_POINT('', (-6., 6., -60.));
#150 = CARTESIAN_POINT('', (2.46519032881566E-31, 6., -60.));
#151 = CARTESIAN_POINT('', (6., 6., -60.));
#152 = CARTESIAN_POINT('', (6., 4.04133443718627E-15, -60.));
#153 = CARTESIAN_POINT('', (6., -6., -60.));
#154 = CARTESIAN_POINT('', (7.34788079488412E-16, -6., -60.));
#155 = CARTESIAN_POINT('', (-6., -6., -60.));
#156 = CARTESIAN_POINT('', (-6., 4.04133443718627E-15, -60.));
#157 = (
   BOUNDED_SURFACE ()
   B_SPLINE_SURFACE (1, 2, ((#158, #159, #160, #161, #162, #163, #164, #165, #166), (#167, #168, #169, #170, #171, #172, #173, #174, #175)), .UNSPECIFIED., .F., .T., .U.)
   B_SPLINE_SURFACE_WITH_KNOTS ((2, 2), (3, 2, 2, 2, 3), (0., 1.), (0., 9.42477796076938, 18.8495559215388, 28.2743338823081, 37.6991118430775), .UNSPECIFIED.)
   GEOMETRIC_REPRESENTATION_ITEM ()
   RATIONAL_B_SPLINE_SURFACE (((1., 0.707106781186548, 1., 0.707106781186548, 1., 0.707106781186548, 1., 0.707106781186548, 1.), (1., 0.707106781186548, 1., 0.707106781186548, 1., 0.707106781186548, 1., 0.707106781186548, 1.)))
   REPRESENTATION_ITEM ('')
   SURFACE ()
);
#158 = CARTESIAN_POINT('', (-6., 4.04133443718627E-15, -60.));
#159 = CARTESIAN_POINT('', (-6., 6., -60.));
#160 = CARTESIAN_POINT('', (1.97215226305253E-31, 6., -60.));
#161 = CARTESIAN_POINT('', (6., 6., -60.));
#162 = CARTESIAN_POINT('', (6., 4.04133443718627E-15, -60.));
#163 = CARTESIAN_POINT('', (6., -6., -60.));
#164 = CARTESIAN_POINT('', (7.34788079488412E-16, -6., -60.));
#165 = CARTESIAN_POINT('', (-6., -6., -60.));
#166 = CARTESIAN_POINT('', (-6., 4.04133443718627E-15, -60.));
#167 = CARTESIAN_POINT('', (-6., 4.04133443718627E-16, -0.600000000000001));
#168 = CARTESIAN_POINT('', (-6., 6., -0.600000000000001));
#169 = CARTESIAN_POINT('', (0., 6., -0.600000000000001));
#170 = CARTESIAN_POINT('', (6., 6., -0.600000000000001));
#171 = CARTESIAN_POINT('', (6., 4.04133443718627E-16, -0.600000000000001));
#172 = CARTESIAN_POINT('', (6., -6., -0.600000000000002));
#173 = CARTESIAN_POINT('', (7.34788079488412E-16, -6., -0.600000000000002));
#174 = CARTESIAN_POINT('', (-6., -6., -0.600000000000002));
#175 = CARTESIAN_POINT('', (-6., 4.04133443718627E-16, -0.600000000000001));
#176 = ADVANCED_FACE('', (#177), #180, .T.);
#177 = FACE_OUTER_BOUND('', #178, .T.);
#178 = EDGE_LOOP('', (#179));
#179 = ORIENTED_EDGE('', *, *, #146, .T.);
#180 = PLANE('', #181);
#181 = AXIS2_PLACEMENT_3D('', #182, #183, #184);
#182 = CARTESIAN_POINT('', (9.33380951166243, -9.33380951166242, -60.));
#183 = DIRECTION('', (0., 0., -1.));
#184 = DIRECTION('', (-1., 0., 0.));
#185 = PRESENTATION_LAYER_ASSIGNMENT('NOCUT', '', (#66));
#186 = DRAUGHTING_MODEL('', (#187, #303), #311);
#187 = STYLED_ITEM('', (#188), #66);
#188 = PRESENTATION_STYLE_ASSIGNMENT((#189));
#189 = SURFACE_STYLE_USAGE(.POSITIVE., #190);
#190 = SURFACE_SIDE_STYLE('', (#191));
#191 = SURFACE_STYLE_FILL_AREA(#192);
#192 = FILL_AREA_STYLE('', (#193));
#193 = FILL_AREA_STYLE_COLOUR('', #194);
#194 = COLOUR_RGB('', 0.50196078431373, 0.50196078431373, 0.50196078431373);
#195 = MANIFOLD_SOLID_BREP('CUT', #196);
#196 = CLOSED_SHELL('', (#197, #219, #262));
#197 = ADVANCED_FACE('', (#198), #214, .T.);
#198 = FACE_OUTER_BOUND('', #199, .T.);
#199 = EDGE_LOOP('', (#200));
#200 = ORIENTED_EDGE('', *, *, #201, .F.);
#201 = EDGE_CURVE('', #202, #202, #204, .T.);
#202 = VERTEX_POINT('', #203);
#203 = CARTESIAN_POINT('', (-5.89216943818117, 4.03473171956718E-15, -60.));
#204 = (
   BOUNDED_CURVE ()
   B_SPLINE_CURVE (2, (#205, #206, #207, #208, #209, #210, #211, #212, #213), .UNSPECIFIED., .T., .U.)
   B_SPLINE_CURVE_WITH_KNOTS ((3, 2, 2, 2, 3), (0., 1.5707963267949, 3.14159265358979, 4.71238898038469, 6.28318530717959), .UNSPECIFIED.)
   CURVE ()
   GEOMETRIC_REPRESENTATION_ITEM ()
   RATIONAL_B_SPLINE_CURVE ((1., 0.707106781186548, 1., 0.707106781186548, 1., 0.707106781186548, 1., 0.707106781186548, 1.))
   REPRESENTATION_ITEM ('')
);
#205 = CARTESIAN_POINT('', (-5.89216943818117, 4.03473171956718E-15, -60.));
#206 = CARTESIAN_POINT('', (-5.89216943818117, 5.89216943818118, -60.));
#207 = CARTESIAN_POINT('', (2.46519032881566E-31, 5.89216943818118, -60.));
#208 = CARTESIAN_POINT('', (5.89216943818117, 5.89216943818118, -60.));
#209 = CARTESIAN_POINT('', (5.89216943818117, 4.03473171956718E-15, -60.));
#210 = CARTESIAN_POINT('', (5.89216943818117, -5.89216943818117, -60.));
#211 = CARTESIAN_POINT('', (7.21582644250243E-16, -5.89216943818117, -60.));
#212 = CARTESIAN_POINT('', (-5.89216943818117, -5.89216943818117, -60.));
#213 = CARTESIAN_POINT('', (-5.89216943818117, 4.03473171956718E-15, -60.));
#214 = PLANE('', #215);
#215 = AXIS2_PLACEMENT_3D('', #216, #217, #218);
#216 = CARTESIAN_POINT('', (-102.629782993027, 100.229782145027, -60.));
#217 = DIRECTION('', (0., 0., 1.));
#218 = DIRECTION('', (0., -1., 0.));
#219 = ADVANCED_FACE('', (#220), #243, .T.);
#220 = FACE_OUTER_BOUND('', #221, .T.);
#221 = EDGE_LOOP('', (#222, #229, #230, #231));
#222 = ORIENTED_EDGE('', *, *, #223, .F.);
#223 = EDGE_CURVE('', #202, #224, #226, .T.);
#224 = VERTEX_POINT('', #225);
#225 = CARTESIAN_POINT('', (-3.99451813901829, 6.13571694082018E-15, -96.2093438249718));
#226 = B_SPLINE_CURVE_WITH_KNOTS('', 1, (#227, #228), .UNSPECIFIED., .F., .U., (2, 2), (0., 1.), .UNSPECIFIED.);
#227 = CARTESIAN_POINT('', (-5.89216943818117, 4.03473171956718E-15, -60.));
#228 = CARTESIAN_POINT('', (-3.99451813901829, 6.13571694082018E-15, -96.2093438249718));
#229 = ORIENTED_EDGE('', *, *, #201, .T.);
#230 = ORIENTED_EDGE('', *, *, #223, .T.);
#231 = ORIENTED_EDGE('', *, *, #232, .F.);
#232 = EDGE_CURVE('', #224, #224, #233, .T.);
#233 = (
   BOUNDED_CURVE ()
   B_SPLINE_CURVE (2, (#234, #235, #236, #237, #238, #239, #240, #241, #242), .UNSPECIFIED., .T., .U.)
   B_SPLINE_CURVE_WITH_KNOTS ((3, 2, 2, 2, 3), (0., 1.5707963267949, 3.14159265358979, 4.71238898038469, 6.28318530717959), .UNSPECIFIED.)
   CURVE ()
   GEOMETRIC_REPRESENTATION_ITEM ()
   RATIONAL_B_SPLINE_CURVE ((1., 0.707106781186548, 1., 0.707106781186548, 1., 0.707106781186548, 1., 0.707106781186548, 1.))
   REPRESENTATION_ITEM ('')
);
#234 = CARTESIAN_POINT('', (-3.9945181390183, 6.13571694082018E-15, -96.2093438249718));
#235 = CARTESIAN_POINT('', (-3.9945181390183, 3.99451813901831, -96.2093438249718));
#236 = CARTESIAN_POINT('', (3.45126646034193E-31, 3.99451813901831, -96.2093438249718));
#237 = CARTESIAN_POINT('', (3.9945181390183, 3.99451813901831, -96.2093438249718));
#238 = CARTESIAN_POINT('', (3.9945181390183, 6.13571694082018E-15, -96.2093438249718));
#239 = CARTESIAN_POINT('', (3.9945181390183, -3.9945181390183, -96.2093438249718));
#240 = CARTESIAN_POINT('', (4.89187385308481E-16, -3.9945181390183, -96.2093438249718));
#241 = CARTESIAN_POINT('', (-3.9945181390183, -3.9945181390183, -96.2093438249718));
#242 = CARTESIAN_POINT('', (-3.9945181390183, 6.13571694082018E-15, -96.2093438249718));
#243 = (
   BOUNDED_SURFACE ()
   B_SPLINE_SURFACE (2, 1, ((#244, #245), (#246, #247), (#248, #249), (#250, #251), (#252, #253), (#254, #255), (#256, #257), (#258, #259), (#260, #261)), .UNSPECIFIED., .T., .F., .U.)
   B_SPLINE_SURFACE_WITH_KNOTS ((3, 2, 2, 2, 3), (2, 2), (0., 0.25, 0.5, 0.75, 1.), (0., 1.), .UNSPECIFIED.)
   GEOMETRIC_REPRESENTATION_ITEM ()
   RATIONAL_B_SPLINE_SURFACE (((1., 1.), (0.707106781186548, 0.707106781186548), (1., 1.), (0.707106781186548, 0.707106781186548), (1., 1.), (0.707106781186548, 0.707106781186548), (1., 1.), (0.707106781186548, 0.707106781186548), (1., 1.)))
   REPRESENTATION_ITEM ('')
   SURFACE ()
);
#244 = CARTESIAN_POINT('', (-5.89216943818117, 4.03473171956718E-15, -60.));
#245 = CARTESIAN_POINT('', (-3.99451813901829, 6.13571694082018E-15, -96.2093438249718));
#246 = CARTESIAN_POINT('', (-5.89216943818117, 5.89216943818118, -60.));
#247 = CARTESIAN_POINT('', (-3.99451813901829, 3.9945181390183, -96.2093438249718));
#248 = CARTESIAN_POINT('', (1.97215226305253E-31, 5.89216943818118, -60.));
#249 = CARTESIAN_POINT('', (3.45126646034193E-31, 3.9945181390183, -96.2093438249718));
#250 = CARTESIAN_POINT('', (5.89216943818117, 5.89216943818118, -60.));
#251 = CARTESIAN_POINT('', (3.9945181390183, 3.9945181390183, -96.2093438249718));
#252 = CARTESIAN_POINT('', (5.89216943818117, 4.03473171956718E-15, -60.));
#253 = CARTESIAN_POINT('', (3.99451813901829, 6.13571694082018E-15, -96.2093438249718));
#254 = CARTESIAN_POINT('', (5.89216943818117, -5.89216943818117, -60.));
#255 = CARTESIAN_POINT('', (3.99451813901829, -3.99451813901829, -96.2093438249718));
#256 = CARTESIAN_POINT('', (7.21582644250243E-16, -5.89216943818117, -60.));
#257 = CARTESIAN_POINT('', (4.8918738530848E-16, -3.99451813901829, -96.2093438249718));
#258 = CARTESIAN_POINT('', (-5.89216943818117, -5.89216943818117, -60.));
#259 = CARTESIAN_POINT('', (-3.9945181390183, -3.99451813901829, -96.2093438249718));
#260 = CARTESIAN_POINT('', (-5.89216943818117, 4.03473171956718E-15, -60.));
#261 = CARTESIAN_POINT('', (-3.99451813901829, 6.13571694082018E-15, -96.2093438249718));
#262 = ADVANCED_FACE('', (#263), #275, .T.);
#263 = FACE_OUTER_BOUND('', #264, .T.);
#264 = EDGE_LOOP('', (#265, #273, #274));
#265 = ORIENTED_EDGE('', *, *, #266, .F.);
#266 = EDGE_CURVE('', #224, #267, #269, .T.);
#267 = VERTEX_POINT('', #268);
#268 = CARTESIAN_POINT('', (2.22044604925032E-16, 6.12323399573677E-15, -100.));
#269 = (
   BOUNDED_CURVE ()
   B_SPLINE_CURVE (2, (#270, #271, #272), .UNSPECIFIED., .F., .U.)
   B_SPLINE_CURVE_WITH_KNOTS ((3, 3), (0., 1.51843644923508), .UNSPECIFIED.)
   CURVE ()
   GEOMETRIC_REPRESENTATION_ITEM ()
   RATIONAL_B_SPLINE_CURVE ((1., 0.725374371012284, 1.))
   REPRESENTATION_ITEM ('')
);
#270 = CARTESIAN_POINT('', (-3.99451813901831, 6.13571694082018E-15, -96.2093438249718));
#271 = CARTESIAN_POINT('', (-3.79585826685954, 6.35566327956309E-15, -100.));
#272 = CARTESIAN_POINT('', (-1.27675647831893E-15, 6.12323399573677E-15, -100.));
#273 = ORIENTED_EDGE('', *, *, #232, .T.);
#274 = ORIENTED_EDGE('', *, *, #266, .T.);
#275 = (
   BOUNDED_SURFACE ()
   B_SPLINE_SURFACE (2, 2, ((#276, #277, #278), (#279, #280, #281), (#282, #283, #284), (#285, #286, #287), (#288, #289, #290), (#291, #292, #293), (#294, #295, #296), (#297, #298, #299), (#300, #301, #302)), .UNSPECIFIED., .T., .F., .U.)
   B_SPLINE_SURFACE_WITH_KNOTS ((3, 2, 2, 2, 3), (3, 3), (0., 0.25, 0.5, 0.75, 1.), (0., 1.), .UNSPECIFIED.)
   GEOMETRIC_REPRESENTATION_ITEM ()
   RATIONAL_B_SPLINE_SURFACE (((1., 0.725374371012288, 1.), (0.707106781186548, 0.512917136641716, 0.707106781186548), (1., 0.725374371012288, 1.), (0.707106781186548, 0.512917136641716, 0.707106781186548), (1., 0.725374371012288, 1.), (0.707106781186548, 0.512917136641716, 0.707106781186548), (1., 0.725374371012288, 1.), (0.707106781186548, 0.512917136641716, 0.707106781186548), (1., 0.725374371012288, 1.)))
   REPRESENTATION_ITEM ('')
   SURFACE ()
);
#276 = CARTESIAN_POINT('', (-3.9945181390183, 6.13571694082018E-15, -96.2093438249718));
#277 = CARTESIAN_POINT('', (-3.79585826685951, 6.35566327956309E-15, -100.));
#278 = CARTESIAN_POINT('', (2.22044604925032E-16, 6.12323399573677E-15, -100.));
#279 = CARTESIAN_POINT('', (-3.9945181390183, 3.9945181390183, -96.2093438249718));
#280 = CARTESIAN_POINT('', (-3.79585826685951, 3.79585826685952, -100.));
#281 = CARTESIAN_POINT('', (2.22044604925032E-16, 6.12323399573676E-15, -100.));
#282 = CARTESIAN_POINT('', (3.94430452610506E-31, 3.9945181390183, -96.2093438249718));
#283 = CARTESIAN_POINT('', (3.45126646034193E-31, 3.79585826685952, -100.));
#284 = CARTESIAN_POINT('', (2.22044604925032E-16, 6.12323399573677E-15, -100.));
#285 = CARTESIAN_POINT('', (3.9945181390183, 3.9945181390183, -96.2093438249718));
#286 = CARTESIAN_POINT('', (3.79585826685951, 3.79585826685952, -100.));
#287 = CARTESIAN_POINT('', (2.22044604925032E-16, 6.12323399573676E-15, -100.));
#288 = CARTESIAN_POINT('', (3.9945181390183, 6.13571694082018E-15, -96.2093438249718));
#289 = CARTESIAN_POINT('', (3.79585826685951, 6.35566327956309E-15, -100.));
#290 = CARTESIAN_POINT('', (2.22044604925032E-16, 6.12323399573677E-15, -100.));
#291 = CARTESIAN_POINT('', (3.9945181390183, -3.99451813901829, -96.2093438249718));
#292 = CARTESIAN_POINT('', (3.79585826685951, -3.79585826685951, -100.));
#293 = CARTESIAN_POINT('', (2.22044604925032E-16, 6.12323399573676E-15, -100.));
#294 = CARTESIAN_POINT('', (4.8918738530848E-16, -3.99451813901829, -96.2093438249718));
#295 = CARTESIAN_POINT('', (4.64858567652652E-16, -3.79585826685951, -100.));
#296 = CARTESIAN_POINT('', (2.22044604925032E-16, 6.12323399573677E-15, -100.));
#297 = CARTESIAN_POINT('', (-3.9945181390183, -3.99451813901829, -96.2093438249718));
#298 = CARTESIAN_POINT('', (-3.79585826685951, -3.79585826685951, -100.));
#299 = CARTESIAN_POINT('', (2.22044604925032E-16, 6.12323399573676E-15, -100.));
#300 = CARTESIAN_POINT('', (-3.9945181390183, 6.13571694082018E-15, -96.2093438249718));
#301 = CARTESIAN_POINT('', (-3.79585826685951, 6.35566327956309E-15, -100.));
#302 = CARTESIAN_POINT('', (2.22044604925032E-16, 6.12323399573677E-15, -100.));
#303 = STYLED_ITEM('', (#304), #195);
#304 = PRESENTATION_STYLE_ASSIGNMENT((#305));
#305 = SURFACE_STYLE_USAGE(.POSITIVE., #306);
#306 = SURFACE_SIDE_STYLE('', (#307));
#307 = SURFACE_STYLE_FILL_AREA(#308);
#308 = FILL_AREA_STYLE('', (#309));
#309 = FILL_AREA_STYLE_COLOUR('', #310);
#310 = COLOUR_RGB('', 0.8, 0.8, 0.8);
#311 = (
   GEOMETRIC_REPRESENTATION_CONTEXT (3)
   GLOBAL_UNCERTAINTY_ASSIGNED_CONTEXT ((#313))
   GLOBAL_UNIT_ASSIGNED_CONTEXT ((#312, #314, #315))
   REPRESENTATION_CONTEXT ('', '3D')
);
#312 = (
   LENGTH_UNIT ()
   NAMED_UNIT (*)
   SI_UNIT (.MILLI., .METRE.)
);
#313 = UNCERTAINTY_MEASURE_WITH_UNIT(LENGTH_MEASURE(1.E-6), #312, 'DISTANCE_ACCURACY_VALUE', '');
#314 = (
   NAMED_UNIT (*)
   SI_UNIT ($, .STERADIAN.)
   SOLID_ANGLE_UNIT ()
);
#315 = (
   NAMED_UNIT (*)
   PLANE_ANGLE_UNIT ()
   SI_UNIT ($, .RADIAN.)
);
#316 = SHAPE_REPRESENTATION('', (), #311);
#317 = PRODUCT_DEFINITION_SHAPE('', '', #318);
#318 = PRODUCT_DEFINITION('', '', #321, #325);
#319 = APPLICATION_CONTEXT('configuration controlled 3D designs of mechanical parts and assemblies');
#320 = APPLICATION_PROTOCOL_DEFINITION('International Standard', 'automotive_design', 2002, #319);
#321 = PRODUCT_DEFINITION_FORMATION_WITH_SPECIFIED_SOURCE('', '', #322, .NOT_KNOWN.);
#322 = PRODUCT('NONE', '', '', (#323));
#323 = PRODUCT_CONTEXT('', #319, 'mechanical');
#324 = PRODUCT_RELATED_PRODUCT_CATEGORY('detail', '', (#322));
#325 = PRODUCT_DEFINITION_CONTEXT('part definition', #319, 'design');
#326 = SHAPE_DEFINITION_REPRESENTATION(#317, #316);
#327 = CONSTRUCTIVE_GEOMETRY_REPRESENTATION('supplement geometry', (#1, #12, #21), #311);
#328 = CONSTRUCTIVE_GEOMETRY_REPRESENTATION_RELATIONSHIP('', '', #316, #327);
#329 = SHAPE_REPRESENTATION_RELATIONSHIP('', '', #316, #330);
#330 = SHAPE_REPRESENTATION('', (#30), #311);
#331 = DRAUGHTING_MODEL('', (), #311);
#332 = SHAPE_REPRESENTATION_RELATIONSHIP('', '', #316, #333);
#333 = ADVANCED_BREP_SHAPE_REPRESENTATION('', (#66, #195), #311);
ENDSEC;
END-ISO-10303-21;
