ISO-10303-21;
HEADER;
FILE_DESCRIPTION(('STEP'), '1');
FILE_NAME('C:\\Users\\ds2002\\OneDrive - Sandvik\\HomeShare\\Documents\\Batchrepair\\CorSRT2\\NEW_MILBN_SLD\\Output2\\MOD000000000000000020084652400000.stp', '2018-11-23T12:39:24', (''), (''), 'Express v3.0.0.0', 'Express Tool', 'Unknown');
FILE_SCHEMA(('AUTOMOTIVE_DESIGN'));
ENDSEC;

DATA;
#1 = MANIFOLD_SOLID_BREP('NOCUT', #2);
#2 = CLOSED_SHELL('', (#3, #50, #89, #128, #175, #184, #215));
#3 = ADVANCED_FACE('', (#4), #31, .T.);
#4 = FACE_OUTER_BOUND('', #5, .T.);
#5 = EDGE_LOOP('', (#6, #16, #23, #24));
#6 = ORIENTED_EDGE('', *, *, #7, .F.);
#7 = EDGE_CURVE('', #8, #10, #12, .T.);
#8 = VERTEX_POINT('', #9);
#9 = CARTESIAN_POINT('', (-7.6, 5.09330603765384E-15, -75.58));
#10 = VERTEX_POINT('', #11);
#11 = CARTESIAN_POINT('', (-8., 5.14351655641888E-15, -76.));
#12 = LINE('', #13, #14);
#13 = CARTESIAN_POINT('', (-7.6, 5.09330603765384E-15, -75.58));
#14 = VECTOR('', #15, 0.580000000000002);
#15 = DIRECTION('', (-0.4, 5.02105187650402E-17, -0.420000000000002));
#16 = ORIENTED_EDGE('', *, *, #17, .T.);
#17 = EDGE_CURVE('', #8, #8, #18, .T.);
#18 = CIRCLE('', #19, 7.6);
#19 = AXIS2_PLACEMENT_3D('', #20, #21, #22);
#20 = CARTESIAN_POINT('', (1.49880108324396E-15, 2.44249065417534E-15, -75.58));
#21 = DIRECTION('', (0., 0., -1.));
#22 = DIRECTION('', (-1., 3.48791497826118E-16, 0.));
#23 = ORIENTED_EDGE('', *, *, #7, .T.);
#24 = ORIENTED_EDGE('', *, *, #25, .F.);
#25 = EDGE_CURVE('', #10, #10, #26, .T.);
#26 = CIRCLE('', #27, 8.);
#27 = AXIS2_PLACEMENT_3D('', #28, #29, #30);
#28 = CARTESIAN_POINT('', (1.74860126378462E-15, 8.88178419700125E-16, -76.));
#29 = DIRECTION('', (0., 0., -1.));
#30 = DIRECTION('', (-1., 5.31917267089844E-16, 0.));
#31 = (
   BOUNDED_SURFACE ()
   B_SPLINE_SURFACE (2, 1, ((#32, #33), (#34, #35), (#36, #37), (#38, #39), (#40, #41), (#42, #43), (#44, #45), (#46, #47), (#48, #49)), .UNSPECIFIED., .T., .F., .U.)
   B_SPLINE_SURFACE_WITH_KNOTS ((3, 2, 2, 2, 3), (2, 2), (0., 0.25, 0.5, 0.75, 1.), (0., 1.), .UNSPECIFIED.)
   GEOMETRIC_REPRESENTATION_ITEM ()
   RATIONAL_B_SPLINE_SURFACE (((1., 1.), (0.707106781186548, 0.707106781186548), (1., 1.), (0.707106781186548, 0.707106781186548), (1., 1.), (0.707106781186548, 0.707106781186548), (1., 1.), (0.707106781186548, 0.707106781186548), (1., 1.)))
   REPRESENTATION_ITEM ('')
   SURFACE ()
);
#32 = CARTESIAN_POINT('', (-7.6, 5.09330603765384E-15, -75.58));
#33 = CARTESIAN_POINT('', (-8., 7.67531329095963E-15, -76.));
#34 = CARTESIAN_POINT('', (-7.59999999999999, 7.6, -75.58));
#35 = CARTESIAN_POINT('', (-7.99999999999999, 8.00000000000001, -76.));
#36 = CARTESIAN_POINT('', (8.84678774755344E-15, 7.6, -75.58));
#37 = CARTESIAN_POINT('', (9.18385601562598E-15, 8., -76.));
#38 = CARTESIAN_POINT('', (7.60000000000001, 7.59999999999999, -75.58));
#39 = CARTESIAN_POINT('', (8.00000000000001, 8., -76.));
#40 = CARTESIAN_POINT('', (7.6, -7.71528814910235E-15, -75.58));
#41 = CARTESIAN_POINT('', (8.00000000000001, -5.80741743194163E-15, -76.));
#42 = CARTESIAN_POINT('', (7.6, -7.60000000000001, -75.58));
#43 = CARTESIAN_POINT('', (8., -8.00000000000001, -76.));
#44 = CARTESIAN_POINT('', (-3.03107487185076E-15, -7.6, -75.58));
#45 = CARTESIAN_POINT('', (-3.3191572679574E-15, -8., -76.));
#46 = CARTESIAN_POINT('', (-7.6, -7.6, -75.58));
#47 = CARTESIAN_POINT('', (-8.00000000000001, -8., -76.));
#48 = CARTESIAN_POINT('', (-7.6, 5.09330603765384E-15, -75.58));
#49 = CARTESIAN_POINT('', (-8., 7.67531329095963E-15, -76.));
#50 = ADVANCED_FACE('', (#51), #70, .T.);
#51 = FACE_OUTER_BOUND('', #52, .T.);
#52 = EDGE_LOOP('', (#53, #61, #68, #69));
#53 = ORIENTED_EDGE('', *, *, #54, .F.);
#54 = EDGE_CURVE('', #55, #8, #57, .T.);
#55 = VERTEX_POINT('', #56);
#56 = CARTESIAN_POINT('', (-7.6, 3.52698278154438E-15, -50.));
#57 = LINE('', #58, #59);
#58 = CARTESIAN_POINT('', (-7.6, 3.52698278154438E-15, -50.));
#59 = VECTOR('', #60, 25.58);
#60 = DIRECTION('', (0., 1.56632325610946E-15, -25.58));
#61 = ORIENTED_EDGE('', *, *, #62, .T.);
#62 = EDGE_CURVE('', #55, #55, #63, .T.);
#63 = CIRCLE('', #64, 7.6);
#64 = AXIS2_PLACEMENT_3D('', #65, #66, #67);
#65 = CARTESIAN_POINT('', (9.15933995315754E-16, 3.10862446895044E-15, -50.));
#66 = DIRECTION('', (0., 0., -1.));
#67 = DIRECTION('', (-1., 5.50471463939397E-17, 0.));
#68 = ORIENTED_EDGE('', *, *, #54, .T.);
#69 = ORIENTED_EDGE('', *, *, #17, .F.);
#70 = (
   BOUNDED_SURFACE ()
   B_SPLINE_SURFACE (2, 1, ((#71, #72), (#73, #74), (#75, #76), (#77, #78), (#79, #80), (#81, #82), (#83, #84), (#85, #86), (#87, #88)), .UNSPECIFIED., .T., .F., .U.)
   B_SPLINE_SURFACE_WITH_KNOTS ((3, 2, 2, 2, 3), (2, 2), (0., 11.9380520836412, 23.8761041672824, 35.8141562509236, 47.7522083345648), (0., 1.), .UNSPECIFIED.)
   GEOMETRIC_REPRESENTATION_ITEM ()
   RATIONAL_B_SPLINE_SURFACE (((1., 1.), (0.707106781186548, 0.707106781186548), (1., 1.), (0.707106781186548, 0.707106781186548), (1., 1.), (0.707106781186548, 0.707106781186548), (1., 1.), (0.707106781186548, 0.707106781186548), (1., 1.)))
   REPRESENTATION_ITEM ('')
   SURFACE ()
);
#71 = CARTESIAN_POINT('', (-7.6, 3.52698278154438E-15, -50.));
#72 = CARTESIAN_POINT('', (-7.6, 3.52698278154438E-15, -75.58));
#73 = CARTESIAN_POINT('', (-7.59999999999999, 7.6, -50.));
#74 = CARTESIAN_POINT('', (-7.59999999999999, 7.6, -75.58));
#75 = CARTESIAN_POINT('', (3.78326196387474E-15, 7.6, -50.));
#76 = CARTESIAN_POINT('', (3.78326196387474E-15, 7.6, -75.58));
#77 = CARTESIAN_POINT('', (7.6, 7.59999999999999, -50.));
#78 = CARTESIAN_POINT('', (7.6, 7.59999999999999, -75.58));
#79 = CARTESIAN_POINT('', (7.6, -3.92851884374258E-15, -50.));
#80 = CARTESIAN_POINT('', (7.6, -3.92851884374258E-15, -75.58));
#81 = CARTESIAN_POINT('', (7.6, -7.6, -50.));
#82 = CARTESIAN_POINT('', (7.6, -7.6, -75.58));
#83 = CARTESIAN_POINT('', (-2.74150809406023E-15, -7.6, -50.));
#84 = CARTESIAN_POINT('', (-2.74150809406023E-15, -7.6, -75.58));
#85 = CARTESIAN_POINT('', (-7.6, -7.6, -50.));
#86 = CARTESIAN_POINT('', (-7.6, -7.6, -75.58));
#87 = CARTESIAN_POINT('', (-7.6, 3.52698278154438E-15, -50.));
#88 = CARTESIAN_POINT('', (-7.6, 3.52698278154438E-15, -75.58));
#89 = ADVANCED_FACE('', (#90), #109, .T.);
#90 = FACE_OUTER_BOUND('', #91, .T.);
#91 = EDGE_LOOP('', (#92, #100, #107, #108));
#92 = ORIENTED_EDGE('', *, *, #93, .F.);
#93 = EDGE_CURVE('', #94, #55, #96, .T.);
#94 = VERTEX_POINT('', #95);
#95 = CARTESIAN_POINT('', (-8., 3.51351166675376E-15, -49.38));
#96 = LINE('', #97, #98);
#97 = CARTESIAN_POINT('', (-8., 3.51351166675376E-15, -49.38));
#98 = VECTOR('', #99, 0.737834669827867);
#99 = DIRECTION('', (0.4, 1.34711147906201E-17, -0.619999999999997));
#100 = ORIENTED_EDGE('', *, *, #101, .T.);
#101 = EDGE_CURVE('', #94, #94, #102, .T.);
#102 = CIRCLE('', #103, 8.);
#103 = AXIS2_PLACEMENT_3D('', #104, #105, #106);
#104 = CARTESIAN_POINT('', (-7.21644966006352E-16, -1.11022302462516E-15, -49.38));
#105 = DIRECTION('', (0., 0., -1.));
#106 = DIRECTION('', (-1., 5.77966836422365E-16, 0.));
#107 = ORIENTED_EDGE('', *, *, #93, .T.);
#108 = ORIENTED_EDGE('', *, *, #62, .F.);
#109 = (
   BOUNDED_SURFACE ()
   B_SPLINE_SURFACE (2, 1, ((#110, #111), (#112, #113), (#114, #115), (#116, #117), (#118, #119), (#120, #121), (#122, #123), (#124, #125), (#126, #127)), .UNSPECIFIED., .T., .F., .U.)
   B_SPLINE_SURFACE_WITH_KNOTS ((3, 2, 2, 2, 3), (2, 2), (0., 0.25, 0.5, 0.75, 1.), (0., 1.), .UNSPECIFIED.)
   GEOMETRIC_REPRESENTATION_ITEM ()
   RATIONAL_B_SPLINE_SURFACE (((1., 1.), (0.707106781186548, 0.707106781186548), (1., 1.), (0.707106781186548, 0.707106781186548), (1., 1.), (0.707106781186548, 0.707106781186548), (1., 1.), (0.707106781186548, 0.707106781186548), (1., 1.)))
   REPRESENTATION_ITEM ('')
   SURFACE ()
);
#110 = CARTESIAN_POINT('', (-8., 3.51351166675376E-15, -49.38));
#111 = CARTESIAN_POINT('', (-7.6, -1.38061177124084E-15, -50.));
#112 = CARTESIAN_POINT('', (-8., 8., -49.3800000000001));
#113 = CARTESIAN_POINT('', (-7.6, 7.6, -50.0000000000001));
#114 = CARTESIAN_POINT('', (-2.51504975549393E-16, 8., -49.3800000000001));
#115 = CARTESIAN_POINT('', (-2.36154169210361E-16, 7.6, -50.0000000000001));
#116 = CARTESIAN_POINT('', (8., 8., -49.3800000000001));
#117 = CARTESIAN_POINT('', (7.6, 7.6, -50.0000000000001));
#118 = CARTESIAN_POINT('', (8., 4.12754392031506E-15, -49.38));
#119 = CARTESIAN_POINT('', (7.6, -7.97281130357607E-16, -50.));
#120 = CARTESIAN_POINT('', (8., -7.99999999999999, -49.3799999999999));
#121 = CARTESIAN_POINT('', (7.6, -7.6, -49.9999999999999));
#122 = CARTESIAN_POINT('', (1.34224471732979E-15, -8., -49.3799999999999));
#123 = CARTESIAN_POINT('', (1.27790803902486E-15, -7.6, -49.9999999999999));
#124 = CARTESIAN_POINT('', (-8., -8., -49.3799999999999));
#125 = CARTESIAN_POINT('', (-7.6, -7.6, -49.9999999999999));
#126 = CARTESIAN_POINT('', (-8., 3.51351166675376E-15, -49.38));
#127 = CARTESIAN_POINT('', (-7.6, -1.38061177124084E-15, -50.));
#128 = ADVANCED_FACE('', (#129), #156, .T.);
#129 = FACE_OUTER_BOUND('', #130, .T.);
#130 = EDGE_LOOP('', (#131, #141, #148, #149));
#131 = ORIENTED_EDGE('', *, *, #132, .T.);
#132 = EDGE_CURVE('', #133, #135, #137, .T.);
#133 = VERTEX_POINT('', #134);
#134 = CARTESIAN_POINT('', (-8., 5.38844591624835E-16, -0.799999999999997));
#135 = VERTEX_POINT('', #136);
#136 = CARTESIAN_POINT('', (-7.2, 4.40872847693047E-16, 0.));
#137 = LINE('', #138, #139);
#138 = CARTESIAN_POINT('', (-8., 5.38844591624835E-16, -0.799999999999997));
#139 = VECTOR('', #140, 1.13137084989847);
#140 = DIRECTION('', (0.8, -9.7971743931788E-17, 0.799999999999997));
#141 = ORIENTED_EDGE('', *, *, #142, .T.);
#142 = EDGE_CURVE('', #135, #135, #143, .T.);
#143 = CIRCLE('', #144, 7.2);
#144 = AXIS2_PLACEMENT_3D('', #145, #146, #147);
#145 = CARTESIAN_POINT('', (-1.4432899320127E-15, -4.44089209850063E-15, -2.83496887813801E-31));
#146 = DIRECTION('', (2.14236152270701E-33, 6.12323399573676E-17, -1.));
#147 = DIRECTION('', (-1., 6.78022909193566E-16, 3.93745677519168E-32));
#148 = ORIENTED_EDGE('', *, *, #132, .F.);
#149 = ORIENTED_EDGE('', *, *, #150, .F.);
#150 = EDGE_CURVE('', #133, #133, #151, .T.);
#151 = CIRCLE('', #152, 8.);
#152 = AXIS2_PLACEMENT_3D('', #153, #154, #155);
#153 = CARTESIAN_POINT('', (-6.66133814775094E-16, -3.5527136788005E-15, -0.799999999999997));
#154 = DIRECTION('', (-1.38777878078144E-17, 1.39615984421496E-16, -1.));
#155 = DIRECTION('', (-1., 5.11444783803167E-16, 1.38777878078145E-17));
#156 = (
   BOUNDED_SURFACE ()
   B_SPLINE_SURFACE (1, 2, ((#157, #158, #159, #160, #161, #162, #163, #164, #165), (#166, #167, #168, #169, #170, #171, #172, #173, #174)), .UNSPECIFIED., .F., .T., .U.)
   B_SPLINE_SURFACE_WITH_KNOTS ((2, 2), (3, 2, 2, 2, 3), (0., 1.), (0., 0.25, 0.5, 0.75, 1.), .UNSPECIFIED.)
   GEOMETRIC_REPRESENTATION_ITEM ()
   RATIONAL_B_SPLINE_SURFACE (((1., 0.707106781186548, 1., 0.707106781186548, 1., 0.707106781186548, 1., 0.707106781186548, 1.), (1., 0.707106781186548, 1., 0.707106781186548, 1., 0.707106781186548, 1., 0.707106781186548, 1.)))
   REPRESENTATION_ITEM ('')
   SURFACE ()
);
#157 = CARTESIAN_POINT('', (-8., -4.09906311545837E-15, -0.799999999999997));
#158 = CARTESIAN_POINT('', (-8., 7.99999999999999, -0.800000000000044));
#159 = CARTESIAN_POINT('', (6.56881956236551E-16, 7.99999999999999, -0.800000000000044));
#160 = CARTESIAN_POINT('', (8., 7.99999999999999, -0.800000000000044));
#161 = CARTESIAN_POINT('', (8., -5.57936048162525E-15, -0.799999999999997));
#162 = CARTESIAN_POINT('', (8., -8.00000000000001, -0.799999999999951));
#163 = CARTESIAN_POINT('', (1.56302029387557E-16, -8.00000000000001, -0.799999999999951));
#164 = CARTESIAN_POINT('', (-8., -8.00000000000001, -0.799999999999951));
#165 = CARTESIAN_POINT('', (-8., -4.09906311545837E-15, -0.799999999999997));
#166 = CARTESIAN_POINT('', (-7.2, 4.40872847693047E-16, 0.));
#167 = CARTESIAN_POINT('', (-7.2, 7.2, -4.19664303308311E-14));
#168 = CARTESIAN_POINT('', (5.82867087928207E-16, 7.2, -4.19664303308311E-14));
#169 = CARTESIAN_POINT('', (7.2, 7.2, -4.19664303308311E-14));
#170 = CARTESIAN_POINT('', (7.2, -8.9139478185714E-16, -5.23801307078189E-30));
#171 = CARTESIAN_POINT('', (7.2, -7.2, 4.19664303308311E-14));
#172 = CARTESIAN_POINT('', (1.32345153764114E-16, -7.2, 4.19664303308311E-14));
#173 = CARTESIAN_POINT('', (-7.2, -7.2, 4.19664303308311E-14));
#174 = CARTESIAN_POINT('', (-7.2, 4.40872847693047E-16, 0.));
#175 = ADVANCED_FACE('', (#176), #179, .T.);
#176 = FACE_OUTER_BOUND('', #177, .T.);
#177 = EDGE_LOOP('', (#178));
#178 = ORIENTED_EDGE('', *, *, #142, .F.);
#179 = B_SPLINE_SURFACE_WITH_KNOTS('', 1, 1, ((#180, #181), (#182, #183)), .UNSPECIFIED., .F., .F., .U., (2, 2), (2, 2), (4.0005714139949, 18.4005714139949), (4.0005714139949, 18.4005714139949), .UNSPECIFIED.);
#180 = CARTESIAN_POINT('', (7.2, -7.2, 1.3769981867509E-14));
#181 = CARTESIAN_POINT('', (-7.2, -7.2, -1.4651727562895E-14));
#182 = CARTESIAN_POINT('', (7.2, 7.2, 1.4651727562895E-14));
#183 = CARTESIAN_POINT('', (-7.2, 7.2, -1.37699818675089E-14));
#184 = ADVANCED_FACE('', (#185), #196, .T.);
#185 = FACE_OUTER_BOUND('', #186, .T.);
#186 = EDGE_LOOP('', (#187, #193, #194, #195));
#187 = ORIENTED_EDGE('', *, *, #188, .T.);
#188 = EDGE_CURVE('', #94, #133, #189, .T.);
#189 = LINE('', #190, #191);
#190 = CARTESIAN_POINT('', (-8., 3.51351166675376E-15, -49.38));
#191 = VECTOR('', #192, 48.58);
#192 = DIRECTION('', (0., -2.97466707512892E-15, 48.58));
#193 = ORIENTED_EDGE('', *, *, #150, .T.);
#194 = ORIENTED_EDGE('', *, *, #188, .F.);
#195 = ORIENTED_EDGE('', *, *, #101, .F.);
#196 = (
   BOUNDED_SURFACE ()
   B_SPLINE_SURFACE (1, 2, ((#197, #198, #199, #200, #201, #202, #203, #204, #205), (#206, #207, #208, #209, #210, #211, #212, #213, #214)), .UNSPECIFIED., .F., .T., .U.)
   B_SPLINE_SURFACE_WITH_KNOTS ((2, 2), (3, 2, 2, 2, 3), (0., 1.), (0., 12.5663706143592, 25.1327412287184, 37.6991118430775, 50.2654824574367), .UNSPECIFIED.)
   GEOMETRIC_REPRESENTATION_ITEM ()
   RATIONAL_B_SPLINE_SURFACE (((1., 0.707106781186548, 1., 0.707106781186548, 1., 0.707106781186548, 1., 0.707106781186548, 1.), (1., 0.707106781186548, 1., 0.707106781186548, 1., 0.707106781186548, 1., 0.707106781186548, 1.)))
   REPRESENTATION_ITEM ('')
   SURFACE ()
);
#197 = CARTESIAN_POINT('', (-8., 7.60889196549866E-16, -49.38));
#198 = CARTESIAN_POINT('', (-8., 8., -49.38));
#199 = CARTESIAN_POINT('', (3.46248086809279E-16, 8., -49.38));
#200 = CARTESIAN_POINT('', (8., 8., -49.38));
#201 = CARTESIAN_POINT('', (8., -2.25260967082046E-16, -49.38));
#202 = CARTESIAN_POINT('', (8., -8., -49.38));
#203 = CARTESIAN_POINT('', (3.39815362495249E-16, -8., -49.38));
#204 = CARTESIAN_POINT('', (-8., -8., -49.38));
#205 = CARTESIAN_POINT('', (-8., 7.60889196549866E-16, -49.38));
#206 = CARTESIAN_POINT('', (-8., 5.38844591624835E-16, -0.799999999999997));
#207 = CARTESIAN_POINT('', (-8., 8., -0.799999999999997));
#208 = CARTESIAN_POINT('', (1.02043101851291E-15, 8., -0.799999999999997));
#209 = CARTESIAN_POINT('', (8., 8., -0.799999999999997));
#210 = CARTESIAN_POINT('', (8., -4.47305572007078E-16, -0.799999999999997));
#211 = CARTESIAN_POINT('', (8., -8., -0.799999999999997));
#212 = CARTESIAN_POINT('', (1.01399829419888E-15, -8., -0.799999999999997));
#213 = CARTESIAN_POINT('', (-8., -8., -0.799999999999997));
#214 = CARTESIAN_POINT('', (-8., 5.38844591624835E-16, -0.799999999999997));
#215 = ADVANCED_FACE('', (#216), #219, .T.);
#216 = FACE_OUTER_BOUND('', #217, .T.);
#217 = EDGE_LOOP('', (#218));
#218 = ORIENTED_EDGE('', *, *, #25, .T.);
#219 = B_SPLINE_SURFACE_WITH_KNOTS('', 1, 1, ((#220, #221), (#222, #223)), .UNSPECIFIED., .F., .F., .U., (2, 2), (2, 2), (91.9591510483594, 107.959151048359), (81.5243659973197, 97.5243659973197), .UNSPECIFIED.);
#220 = CARTESIAN_POINT('', (-8., 8.00000000000001, -76.));
#221 = CARTESIAN_POINT('', (-8., -8., -76.));
#222 = CARTESIAN_POINT('', (8., 8.00000000000001, -76.));
#223 = CARTESIAN_POINT('', (8., -8., -76.));
#224 = DRAUGHTING_MODEL('', (#232, #340, #380, #385, #390, #395, #400), #414);
#225 = PRESENTATION_STYLE_ASSIGNMENT((#226));
#226 = SURFACE_STYLE_USAGE(.POSITIVE., #227);
#227 = SURFACE_SIDE_STYLE('', (#228));
#228 = SURFACE_STYLE_FILL_AREA(#229);
#229 = FILL_AREA_STYLE('', (#230));
#230 = FILL_AREA_STYLE_COLOUR('', #231);
#231 = COLOUR_RGB('', 0.50196078431373, 0.50196078431373, 0.50196078431373);
#232 = STYLED_ITEM('', (#225), #1);
#233 = MANIFOLD_SOLID_BREP('CUT', #234);
#234 = CLOSED_SHELL('', (#235, #252, #291));
#235 = ADVANCED_FACE('', (#236), #247, .T.);
#236 = FACE_OUTER_BOUND('', #237, .T.);
#237 = EDGE_LOOP('', (#238));
#238 = ORIENTED_EDGE('', *, *, #239, .F.);
#239 = EDGE_CURVE('', #240, #240, #242, .T.);
#240 = VERTEX_POINT('', #241);
#241 = CARTESIAN_POINT('', (-8., 5.14351655641888E-15, -76.));
#242 = CIRCLE('', #243, 8.);
#243 = AXIS2_PLACEMENT_3D('', #244, #245, #246);
#244 = CARTESIAN_POINT('', (1.74860126378462E-15, 8.88178419700125E-16, -76.));
#245 = DIRECTION('', (0., 0., -1.));
#246 = DIRECTION('', (-1., 5.31917267089844E-16, 0.));
#247 = B_SPLINE_SURFACE_WITH_KNOTS('', 1, 1, ((#248, #249), (#250, #251)), .UNSPECIFIED., .F., .F., .U., (2, 2), (2, 2), (81.5243659973197, 97.5243659973197), (91.9591510483594, 107.959151048359), .UNSPECIFIED.);
#248 = CARTESIAN_POINT('', (-8., 8.00000000000001, -76.));
#249 = CARTESIAN_POINT('', (8., 8.00000000000001, -76.));
#250 = CARTESIAN_POINT('', (-8., -8., -76.));
#251 = CARTESIAN_POINT('', (8., -8., -76.));
#252 = ADVANCED_FACE('', (#253), #272, .T.);
#253 = FACE_OUTER_BOUND('', #254, .T.);
#254 = EDGE_LOOP('', (#255, #263, #264, #265));
#255 = ORIENTED_EDGE('', *, *, #256, .F.);
#256 = EDGE_CURVE('', #240, #257, #259, .T.);
#257 = VERTEX_POINT('', #258);
#258 = CARTESIAN_POINT('', (-8., 5.63337527607782E-15, -84.));
#259 = LINE('', #260, #261);
#260 = CARTESIAN_POINT('', (-8., 5.14351655641888E-15, -76.));
#261 = VECTOR('', #262, 8.);
#262 = DIRECTION('', (0., 4.8985871965894E-16, -8.));
#263 = ORIENTED_EDGE('', *, *, #239, .T.);
#264 = ORIENTED_EDGE('', *, *, #256, .T.);
#265 = ORIENTED_EDGE('', *, *, #266, .F.);
#266 = EDGE_CURVE('', #257, #257, #267, .T.);
#267 = CIRCLE('', #268, 8.);
#268 = AXIS2_PLACEMENT_3D('', #269, #270, #271);
#269 = CARTESIAN_POINT('', (-1.30451205393456E-15, 7.105427357601E-15, -84.));
#270 = DIRECTION('', (0., 0., -1.));
#271 = DIRECTION('', (-1., -1.84006510190398E-16, 0.));
#272 = (
   BOUNDED_SURFACE ()
   B_SPLINE_SURFACE (2, 1, ((#273, #274), (#275, #276), (#277, #278), (#279, #280), (#281, #282), (#283, #284), (#285, #286), (#287, #288), (#289, #290)), .UNSPECIFIED., .T., .F., .U.)
   B_SPLINE_SURFACE_WITH_KNOTS ((3, 2, 2, 2, 3), (2, 2), (0., 12.5663706143592, 25.1327412287184, 37.6991118430775, 50.2654824574367), (0., 1.), .UNSPECIFIED.)
   GEOMETRIC_REPRESENTATION_ITEM ()
   RATIONAL_B_SPLINE_SURFACE (((1., 1.), (0.707106781186548, 0.707106781186548), (1., 1.), (0.707106781186548, 0.707106781186548), (1., 1.), (0.707106781186548, 0.707106781186548), (1., 1.), (0.707106781186548, 0.707106781186548), (1., 1.)))
   REPRESENTATION_ITEM ('')
   SURFACE ()
);
#273 = CARTESIAN_POINT('', (-8., 5.14351655641888E-15, -76.));
#274 = CARTESIAN_POINT('', (-8., 1.00284978647696E-14, -84.));
#275 = CARTESIAN_POINT('', (-8., 8.00000000000001, -76.));
#276 = CARTESIAN_POINT('', (-8., 8.00000000000001, -84.));
#277 = CARTESIAN_POINT('', (6.06919219315701E-15, 8., -76.));
#278 = CARTESIAN_POINT('', (6.06919219315702E-15, 8.00000000000001, -84.));
#279 = CARTESIAN_POINT('', (8.00000000000001, 8., -76.));
#280 = CARTESIAN_POINT('', (8.00000000000001, 8., -84.));
#281 = CARTESIAN_POINT('', (8.00000000000001, -4.163799117101E-15, -76.));
#282 = CARTESIAN_POINT('', (8.00000000000001, 7.21182191249689E-16, -84.));
#283 = CARTESIAN_POINT('', (8., -8.00000000000001, -76.));
#284 = CARTESIAN_POINT('', (8., -8., -84.));
#285 = CARTESIAN_POINT('', (-2.25840604104498E-15, -8., -76.));
#286 = CARTESIAN_POINT('', (-2.25840604104498E-15, -8., -84.));
#287 = CARTESIAN_POINT('', (-8.00000000000001, -8., -76.));
#288 = CARTESIAN_POINT('', (-8.00000000000001, -7.99999999999999, -84.));
#289 = CARTESIAN_POINT('', (-8., 5.14351655641888E-15, -76.));
#290 = CARTESIAN_POINT('', (-8., 1.00284978647696E-14, -84.));
#291 = ADVANCED_FACE('', (#292), #305, .T.);
#292 = FACE_OUTER_BOUND('', #293, .T.);
#293 = EDGE_LOOP('', (#294, #303, #304));
#294 = ORIENTED_EDGE('', *, *, #295, .F.);
#295 = EDGE_CURVE('', #257, #296, #298, .T.);
#296 = VERTEX_POINT('', #297);
#297 = CARTESIAN_POINT('', (2.35775457867695E-15, 5.63337527607782E-15, -92.));
#298 = CIRCLE('', #299, 7.99999999999998);
#299 = AXIS2_PLACEMENT_3D('', #300, #301, #302);
#300 = CARTESIAN_POINT('', (-1.50990331349021E-14, 5.14351655641887E-15, -84.));
#301 = DIRECTION('', (-6.12323399573687E-17, -1., -6.12323399573686E-17));
#302 = DIRECTION('', (-1., 6.12323399573685E-17, 1.77635683940026E-15));
#303 = ORIENTED_EDGE('', *, *, #266, .T.);
#304 = ORIENTED_EDGE('', *, *, #295, .T.);
#305 = (
   BOUNDED_SURFACE ()
   B_SPLINE_SURFACE (2, 2, ((#306, #307, #308), (#309, #310, #311), (#312, #313, #314), (#315, #316, #317), (#318, #319, #320), (#321, #322, #323), (#324, #325, #326), (#327, #328, #329), (#330, #331, #332)), .UNSPECIFIED., .T., .F., .U.)
   B_SPLINE_SURFACE_WITH_KNOTS ((3, 2, 2, 2, 3), (3, 3), (0., 0.25, 0.5, 0.75, 1.), (0., 1.), .UNSPECIFIED.)
   GEOMETRIC_REPRESENTATION_ITEM ()
   RATIONAL_B_SPLINE_SURFACE (((1., 0.707106781186548, 1.), (0.707106781186548, 0.5, 0.707106781186548), (1., 0.707106781186548, 1.), (0.707106781186548, 0.5, 0.707106781186548), (1., 0.707106781186548, 1.), (0.707106781186548, 0.5, 0.707106781186548), (1., 0.707106781186548, 1.), (0.707106781186548, 0.5, 0.707106781186548), (1., 0.707106781186548, 1.)))
   REPRESENTATION_ITEM ('')
   SURFACE ()
);
#306 = CARTESIAN_POINT('', (-8., 5.63337527607782E-15, -84.));
#307 = CARTESIAN_POINT('', (-8., 6.12323399573677E-15, -92.));
#308 = CARTESIAN_POINT('', (2.35775457867695E-15, 5.63337527607782E-15, -92.));
#309 = CARTESIAN_POINT('', (-8., 8.00000000000002, -84.));
#310 = CARTESIAN_POINT('', (-7.99999999999995, 8.00000000000002, -92.));
#311 = CARTESIAN_POINT('', (2.35775457867695E-15, 5.63337527607782E-15, -92.));
#312 = CARTESIAN_POINT('', (1.77635683940026E-14, 8.00000000000002, -84.));
#313 = CARTESIAN_POINT('', (6.6620606561461E-14, 7.99999999999997, -92.));
#314 = CARTESIAN_POINT('', (2.35775457867695E-15, 5.63337527607782E-15, -92.));
#315 = CARTESIAN_POINT('', (8.00000000000004, 8.00000000000002, -84.));
#316 = CARTESIAN_POINT('', (8.00000000000009, 7.99999999999993, -92.));
#317 = CARTESIAN_POINT('', (2.35775457867695E-15, 5.63337527607782E-15, -92.));
#318 = CARTESIAN_POINT('', (8.00000000000004, 5.63337527607762E-15, -84.));
#319 = CARTESIAN_POINT('', (8.00000000000004, -9.15908423391801E-14, -92.));
#320 = CARTESIAN_POINT('', (2.35775457867695E-15, 5.63337527607782E-15, -92.));
#321 = CARTESIAN_POINT('', (8.00000000000004, -8.00000000000001, -84.));
#322 = CARTESIAN_POINT('', (7.99999999999999, -8.00000000000011, -92.));
#323 = CARTESIAN_POINT('', (2.35775457867695E-15, 5.63337527607782E-15, -92.));
#324 = CARTESIAN_POINT('', (1.87432858333203E-14, -8.00000000000001, -84.));
#325 = CARTESIAN_POINT('', (-3.0113752334138E-14, -8.00000000000006, -92.));
#326 = CARTESIAN_POINT('', (2.35775457867695E-15, 5.63337527607782E-15, -92.));
#327 = CARTESIAN_POINT('', (-8., -8.00000000000001, -84.));
#328 = CARTESIAN_POINT('', (-8.00000000000005, -8.00000000000001, -92.));
#329 = CARTESIAN_POINT('', (2.35775457867695E-15, 5.63337527607782E-15, -92.));
#330 = CARTESIAN_POINT('', (-8., 5.63337527607782E-15, -84.));
#331 = CARTESIAN_POINT('', (-8., 6.12323399573677E-15, -92.));
#332 = CARTESIAN_POINT('', (2.35775457867695E-15, 5.63337527607782E-15, -92.));
#333 = PRESENTATION_STYLE_ASSIGNMENT((#334));
#334 = SURFACE_STYLE_USAGE(.POSITIVE., #335);
#335 = SURFACE_SIDE_STYLE('', (#336));
#336 = SURFACE_STYLE_FILL_AREA(#337);
#337 = FILL_AREA_STYLE('', (#338));
#338 = FILL_AREA_STYLE_COLOUR('', #339);
#339 = COLOUR_RGB('', 0.8, 0.8, 0.8);
#340 = STYLED_ITEM('', (#333), #233);
#341 = TRIMMED_CURVE('cutting part line', #342, (#346), (#347), .T., .CARTESIAN.);
#342 = LINE('', #343, #344);
#343 = CARTESIAN_POINT('', (-8.54863076117259E-31, -4.65365783675994E-15, -76.));
#344 = VECTOR('', #345, 8.);
#345 = DIRECTION('', (8., -1.46957615897682E-15, 0.));
#346 = CARTESIAN_POINT('', (-8.54863076117259E-31, -4.65365783675994E-15, -76.));
#347 = CARTESIAN_POINT('', (8., -6.12323399573676E-15, -76.));
#348 = TRIMMED_CURVE('cutting part line', #349, (#353), (#354), .T., .CARTESIAN.);
#349 = LINE('', #350, #351);
#350 = CARTESIAN_POINT('', (8., -6.12323399573676E-15, -76.));
#351 = VECTOR('', #352, 8.);
#352 = DIRECTION('', (0., -4.8985871965894E-16, -8.));
#353 = CARTESIAN_POINT('', (8., -6.12323399573676E-15, -76.));
#354 = CARTESIAN_POINT('', (8., -6.6130927153957E-15, -84.));
#355 = TRIMMED_CURVE('cutting part line', #356, (#361), (#362), .T., .CARTESIAN.);
#356 = CIRCLE('', #357, 7.99999999999999);
#357 = AXIS2_PLACEMENT_3D('', #358, #359, #360);
#358 = CARTESIAN_POINT('', (3.5527136788005E-15, -5.14351655641887E-15, -84.));
#359 = DIRECTION('', (1.83697019872104E-16, 1., -6.1232339957369E-17));
#360 = DIRECTION('', (1., -1.83697019872104E-16, 1.77635683940025E-15));
#361 = CARTESIAN_POINT('', (7.99999999999999, -6.6130927153957E-15, -84.));
#362 = CARTESIAN_POINT('', (-4.83921179854179E-15, -5.63337527607782E-15, -92.));
#363 = TRIMMED_CURVE('cutting part line', #364, (#368), (#369), .T., .CARTESIAN.);
#364 = LINE('', #365, #366);
#365 = CARTESIAN_POINT('', (-1.03483425003668E-30, -5.63337527607782E-15, -92.));
#366 = VECTOR('', #367, 16.);
#367 = DIRECTION('', (1.79971173919422E-31, 9.7971743931788E-16, 16.));
#368 = CARTESIAN_POINT('', (-1.03483425003668E-30, -5.63337527607782E-15, -92.));
#369 = CARTESIAN_POINT('', (-8.54863076117259E-31, -4.65365783675994E-15, -76.));
#370 = COMPOSITE_CURVE('cutting part line', (#371, #372, #373, #374), .U.);
#371 = COMPOSITE_CURVE_SEGMENT(.CONTINUOUS., .T., #341);
#372 = COMPOSITE_CURVE_SEGMENT(.CONTINUOUS., .T., #348);
#373 = COMPOSITE_CURVE_SEGMENT(.CONTINUOUS., .T., #355);
#374 = COMPOSITE_CURVE_SEGMENT(.CONTINUOUS., .T., #363);
#375 = GEOMETRIC_SET('', (#370, #413));
#376 = PRESENTATION_STYLE_ASSIGNMENT((#377));
#377 = CURVE_STYLE('', #379, POSITIVE_LENGTH_MEASURE(1.E-6), #378);
#378 = COLOUR_RGB('', 0., 0., 1.);
#379 = DRAUGHTING_PRE_DEFINED_CURVE_FONT('continuous');
#380 = STYLED_ITEM('', (#376), #370);
#381 = PRESENTATION_STYLE_ASSIGNMENT((#382));
#382 = CURVE_STYLE('', #384, POSITIVE_LENGTH_MEASURE(1.E-6), #383);
#383 = COLOUR_RGB('', 0., 0., 1.);
#384 = DRAUGHTING_PRE_DEFINED_CURVE_FONT('continuous');
#385 = OVER_RIDING_STYLED_ITEM('', (#381), #341, #380);
#386 = PRESENTATION_STYLE_ASSIGNMENT((#387));
#387 = CURVE_STYLE('', #389, POSITIVE_LENGTH_MEASURE(1.E-6), #388);
#388 = COLOUR_RGB('', 0., 0., 1.);
#389 = DRAUGHTING_PRE_DEFINED_CURVE_FONT('continuous');
#390 = OVER_RIDING_STYLED_ITEM('', (#386), #348, #380);
#391 = PRESENTATION_STYLE_ASSIGNMENT((#392));
#392 = CURVE_STYLE('', #394, POSITIVE_LENGTH_MEASURE(1.E-6), #393);
#393 = COLOUR_RGB('', 0., 0., 1.);
#394 = DRAUGHTING_PRE_DEFINED_CURVE_FONT('continuous');
#395 = OVER_RIDING_STYLED_ITEM('', (#391), #355, #380);
#396 = PRESENTATION_STYLE_ASSIGNMENT((#397));
#397 = CURVE_STYLE('', #399, POSITIVE_LENGTH_MEASURE(1.E-6), #398);
#398 = COLOUR_RGB('', 0., 0., 1.);
#399 = DRAUGHTING_PRE_DEFINED_CURVE_FONT('continuous');
#400 = OVER_RIDING_STYLED_ITEM('', (#396), #363, #380);
#401 = AXIS2_PLACEMENT_3D('CIP', #402, #403, #404);
#402 = CARTESIAN_POINT('', (3.44944750012227E-31, 5.63337527607782E-15, -92.));
#403 = DIRECTION('', (-3.74939945665465E-33, -6.12323399573677E-17, 1.));
#404 = DIRECTION('', (1., -6.12323399573677E-17, 0.));
#405 = AXIS2_PLACEMENT_3D('MCS', #406, #407, #408);
#406 = CARTESIAN_POINT('', (1.79971173919423E-31, 2.93915231795365E-15, -48.));
#407 = DIRECTION('', (-3.74939945665465E-33, -6.12323399573677E-17, 1.));
#408 = DIRECTION('', (1., -6.12323399573677E-17, 0.));
#409 = AXIS2_PLACEMENT_3D('PCS', #410, #411, #412);
#410 = CARTESIAN_POINT('', (0., 0., 0.));
#411 = DIRECTION('', (0., 0., 1.));
#412 = DIRECTION('', (1., 0., 0.));
#413 = CARTESIAN_POINT('CRP', (8., 0., -92.));
#414 = (
   GEOMETRIC_REPRESENTATION_CONTEXT (3)
   GLOBAL_UNCERTAINTY_ASSIGNED_CONTEXT ((#416))
   GLOBAL_UNIT_ASSIGNED_CONTEXT ((#415, #417, #418))
   REPRESENTATION_CONTEXT ('', '3D')
);
#415 = (
   LENGTH_UNIT ()
   NAMED_UNIT (*)
   SI_UNIT (.MILLI., .METRE.)
);
#416 = UNCERTAINTY_MEASURE_WITH_UNIT(LENGTH_MEASURE(1.E-6), #415, 'DISTANCE_ACCURACY_VALUE', '');
#417 = (
   NAMED_UNIT (*)
   SI_UNIT ($, .STERADIAN.)
   SOLID_ANGLE_UNIT ()
);
#418 = (
   NAMED_UNIT (*)
   PLANE_ANGLE_UNIT ()
   SI_UNIT ($, .RADIAN.)
);
#419 = SHAPE_REPRESENTATION('', (), #414);
#420 = PRODUCT_DEFINITION_SHAPE('', '', #421);
#421 = PRODUCT_DEFINITION('', '', #424, #428);
#422 = APPLICATION_CONTEXT('configuration controlled 3D designs of mechanical parts and assemblies');
#423 = APPLICATION_PROTOCOL_DEFINITION('International Standard', 'automotive_design', 2002, #422);
#424 = PRODUCT_DEFINITION_FORMATION_WITH_SPECIFIED_SOURCE('', '', #425, .NOT_KNOWN.);
#425 = PRODUCT('EmptyName', 'EmptyName', '', (#426));
#426 = PRODUCT_CONTEXT('', #422, 'mechanical');
#427 = PRODUCT_RELATED_PRODUCT_CATEGORY('detail', '', (#425));
#428 = PRODUCT_DEFINITION_CONTEXT('part definition', #422, 'design');
#429 = SHAPE_DEFINITION_REPRESENTATION(#420, #419);
#430 = CONSTRUCTIVE_GEOMETRY_REPRESENTATION('supplemental geometry', (#401, #405, #409), #414);
#431 = CONSTRUCTIVE_GEOMETRY_REPRESENTATION_RELATIONSHIP('', '', #419, #430);
#432 = SHAPE_REPRESENTATION_RELATIONSHIP('', '', #419, #433);
#433 = SHAPE_REPRESENTATION('', (#375), #414);
#434 = SHAPE_REPRESENTATION_RELATIONSHIP('', '', #419, #435);
#435 = ADVANCED_BREP_SHAPE_REPRESENTATION('', (#1, #233), #414);
ENDSEC;
END-ISO-10303-21;
