ISO-10303-21;
HEADER;
FILE_DESCRIPTION(('STEP'), '1');
FILE_NAME('C:\\Users\\ds2002\\OneDrive - Sandvik\\HomeShare\\Documents\\Batchrepair\\CorSRT2\\NEW_MILBN_SLD\\Output2\\MOD000000000000000020084652000000.stp', '2018-11-23T12:39:07', (''), (''), 'Express v3.0.0.0', 'Express Tool', 'Unknown');
FILE_SCHEMA(('AUTOMOTIVE_DESIGN'));
ENDSEC;

DATA;
#1 = MANIFOLD_SOLID_BREP('NOCUT', #2);
#2 = CLOSED_SHELL('', (#3, #50, #89, #128, #175, #184, #215));
#3 = ADVANCED_FACE('', (#4), #31, .T.);
#4 = FACE_OUTER_BOUND('', #5, .T.);
#5 = EDGE_LOOP('', (#6, #16, #23, #24));
#6 = ORIENTED_EDGE('', *, *, #7, .F.);
#7 = EDGE_CURVE('', #8, #10, #12, .T.);
#8 = VERTEX_POINT('', #9);
#9 = CARTESIAN_POINT('', (-4.85, 4.06766434336793E-15, -61.58));
#10 = VERTEX_POINT('', #11);
#11 = CARTESIAN_POINT('', (-5., 4.10256677714363E-15, -62.));
#12 = LINE('', #13, #14);
#13 = CARTESIAN_POINT('', (-4.85, 4.06766434336793E-15, -61.58));
#14 = VECTOR('', #15, 0.445982062419557);
#15 = DIRECTION('', (-0.15, 3.49024337756999E-17, -0.420000000000002));
#16 = ORIENTED_EDGE('', *, *, #17, .T.);
#17 = EDGE_CURVE('', #8, #8, #18, .T.);
#18 = CIRCLE('', #19, 4.85);
#19 = AXIS2_PLACEMENT_3D('', #20, #21, #22);
#20 = CARTESIAN_POINT('', (-1.48492329543615E-15, 8.88178419700125E-16, -61.58));
#21 = DIRECTION('', (0., 0., -1.));
#22 = DIRECTION('', (-1., 6.55564107972744E-16, 0.));
#23 = ORIENTED_EDGE('', *, *, #7, .T.);
#24 = ORIENTED_EDGE('', *, *, #25, .F.);
#25 = EDGE_CURVE('', #10, #10, #26, .T.);
#26 = CIRCLE('', #27, 4.99999999999999);
#27 = AXIS2_PLACEMENT_3D('', #28, #29, #30);
#28 = CARTESIAN_POINT('', (-4.30211422042248E-16, 1.22124532708767E-15, -62.));
#29 = DIRECTION('', (2.78722783243302E-30, 4.83671794477997E-15, -1.));
#30 = DIRECTION('', (-1., 5.76264290011193E-16, 0.));
#31 = (
   BOUNDED_SURFACE ()
   B_SPLINE_SURFACE (2, 1, ((#32, #33), (#34, #35), (#36, #37), (#38, #39), (#40, #41), (#42, #43), (#44, #45), (#46, #47), (#48, #49)), .UNSPECIFIED., .T., .F., .U.)
   B_SPLINE_SURFACE_WITH_KNOTS ((3, 2, 2, 2, 3), (2, 2), (0., 0.25, 0.5, 0.75, 1.), (0., 1.), .UNSPECIFIED.)
   GEOMETRIC_REPRESENTATION_ITEM ()
   RATIONAL_B_SPLINE_SURFACE (((1., 1.), (0.707106781186548, 0.707106781186548), (1., 1.), (0.707106781186548, 0.707106781186548), (1., 1.), (0.707106781186548, 0.707106781186548), (1., 1.), (0.707106781186548, 0.707106781186548), (1., 1.)))
   REPRESENTATION_ITEM ('')
   SURFACE ()
);
#32 = CARTESIAN_POINT('', (-4.85, 4.06766434336793E-15, -61.58));
#33 = CARTESIAN_POINT('', (-5., 1.65369015641722E-15, -62.));
#34 = CARTESIAN_POINT('', (-4.85, 4.85, -61.58));
#35 = CARTESIAN_POINT('', (-5., 5., -62.));
#36 = CARTESIAN_POINT('', (4.54784361181231E-15, 4.85, -61.58));
#37 = CARTESIAN_POINT('', (4.67819753050585E-15, 5., -62.));
#38 = CARTESIAN_POINT('', (4.85, 4.85, -61.58));
#39 = CARTESIAN_POINT('', (5., 4.99999999999999, -62.));
#40 = CARTESIAN_POINT('', (4.85, -4.36188906548159E-15, -61.58));
#41 = CARTESIAN_POINT('', (5., -7.03657108981939E-15, -62.));
#42 = CARTESIAN_POINT('', (4.85, -4.85, -61.58));
#43 = CARTESIAN_POINT('', (5., -5.00000000000001, -62.));
#44 = CARTESIAN_POINT('', (-3.28775609945075E-15, -4.85, -61.58));
#45 = CARTESIAN_POINT('', (-3.39974031615709E-15, -5., -62.));
#46 = CARTESIAN_POINT('', (-4.85, -4.85, -61.58));
#47 = CARTESIAN_POINT('', (-5., -5., -62.));
#48 = CARTESIAN_POINT('', (-4.85, 4.06766434336793E-15, -61.58));
#49 = CARTESIAN_POINT('', (-5., 1.65369015641722E-15, -62.));
#50 = ADVANCED_FACE('', (#51), #70, .T.);
#51 = FACE_OUTER_BOUND('', #52, .T.);
#52 = EDGE_LOOP('', (#53, #61, #68, #69));
#53 = ORIENTED_EDGE('', *, *, #54, .F.);
#54 = EDGE_CURVE('', #55, #8, #57, .T.);
#55 = VERTEX_POINT('', #56);
#56 = CARTESIAN_POINT('', (-4.85, 2.74627044708794E-15, -40.));
#57 = LINE('', #58, #59);
#58 = CARTESIAN_POINT('', (-4.85, 2.74627044708794E-15, -40.));
#59 = VECTOR('', #60, 21.58);
#60 = DIRECTION('', (0., 1.32139389627999E-15, -21.58));
#61 = ORIENTED_EDGE('', *, *, #62, .T.);
#62 = EDGE_CURVE('', #55, #55, #63, .T.);
#63 = CIRCLE('', #64, 4.85);
#64 = AXIS2_PLACEMENT_3D('', #65, #66, #67);
#65 = CARTESIAN_POINT('', (-1.4432899320127E-15, -1.11022302462516E-16, -40.));
#66 = DIRECTION('', (0., 0., -1.));
#67 = DIRECTION('', (-1., 5.89132525680507E-16, 0.));
#68 = ORIENTED_EDGE('', *, *, #54, .T.);
#69 = ORIENTED_EDGE('', *, *, #17, .F.);
#70 = (
   BOUNDED_SURFACE ()
   B_SPLINE_SURFACE (2, 1, ((#71, #72), (#73, #74), (#75, #76), (#77, #78), (#79, #80), (#81, #82), (#83, #84), (#85, #86), (#87, #88)), .UNSPECIFIED., .T., .F., .U.)
   B_SPLINE_SURFACE_WITH_KNOTS ((3, 2, 2, 2, 3), (2, 2), (0., 7.61836218495525, 15.2367243699105, 22.8550865548658, 30.473448739821), (0., 1.), .UNSPECIFIED.)
   GEOMETRIC_REPRESENTATION_ITEM ()
   RATIONAL_B_SPLINE_SURFACE (((1., 1.), (0.707106781186548, 0.707106781186548), (1., 1.), (0.707106781186548, 0.707106781186548), (1., 1.), (0.707106781186548, 0.707106781186548), (1., 1.), (0.707106781186548, 0.707106781186548), (1., 1.)))
   REPRESENTATION_ITEM ('')
   SURFACE ()
);
#71 = CARTESIAN_POINT('', (-4.85, 2.74627044708794E-15, -40.));
#72 = CARTESIAN_POINT('', (-4.85, 2.30218123723788E-15, -61.58));
#73 = CARTESIAN_POINT('', (-4.85, 4.85, -40.));
#74 = CARTESIAN_POINT('', (-4.85, 4.85, -61.58));
#75 = CARTESIAN_POINT('', (1.17253711997578E-15, 4.85, -40.));
#76 = CARTESIAN_POINT('', (1.17253711997578E-15, 4.85, -61.58));
#77 = CARTESIAN_POINT('', (4.85, 4.85, -40.));
#78 = CARTESIAN_POINT('', (4.85, 4.85, -61.58));
#79 = CARTESIAN_POINT('', (4.85, 1.62244153422406E-15, -40.));
#80 = CARTESIAN_POINT('', (4.85, 1.178352324374E-15, -61.58));
#81 = CARTESIAN_POINT('', (4.85, -4.85, -40.));
#82 = CARTESIAN_POINT('', (4.85, -4.85, -61.58));
#83 = CARTESIAN_POINT('', (6.42661904698362E-16, -4.85, -40.));
#84 = CARTESIAN_POINT('', (6.42661904698361E-16, -4.85, -61.58));
#85 = CARTESIAN_POINT('', (-4.85, -4.85, -40.));
#86 = CARTESIAN_POINT('', (-4.85, -4.85, -61.58));
#87 = CARTESIAN_POINT('', (-4.85, 2.74627044708794E-15, -40.));
#88 = CARTESIAN_POINT('', (-4.85, 2.30218123723788E-15, -61.58));
#89 = ADVANCED_FACE('', (#90), #109, .T.);
#90 = FACE_OUTER_BOUND('', #91, .T.);
#91 = EDGE_LOOP('', (#92, #100, #107, #108));
#92 = ORIENTED_EDGE('', *, *, #93, .F.);
#93 = EDGE_CURVE('', #94, #55, #96, .T.);
#94 = VERTEX_POINT('', #95);
#95 = CARTESIAN_POINT('', (-5., 2.74137185989135E-15, -39.77));
#96 = LINE('', #97, #98);
#97 = CARTESIAN_POINT('', (-5., 2.74137185989135E-15, -39.77));
#98 = VECTOR('', #99, 0.274590604354917);
#99 = DIRECTION('', (0.15, 4.8985871965899E-18, -0.229999999999997));
#100 = ORIENTED_EDGE('', *, *, #101, .T.);
#101 = EDGE_CURVE('', #94, #94, #102, .T.);
#102 = CIRCLE('', #103, 5.);
#103 = AXIS2_PLACEMENT_3D('', #104, #105, #106);
#104 = CARTESIAN_POINT('', (1.38777878078145E-16, 9.99200722162641E-16, -39.77));
#105 = DIRECTION('', (0., 0., -1.));
#106 = DIRECTION('', (-1., 3.48434227545742E-16, 0.));
#107 = ORIENTED_EDGE('', *, *, #93, .T.);
#108 = ORIENTED_EDGE('', *, *, #62, .F.);
#109 = (
   BOUNDED_SURFACE ()
   B_SPLINE_SURFACE (2, 1, ((#110, #111), (#112, #113), (#114, #115), (#116, #117), (#118, #119), (#120, #121), (#122, #123), (#124, #125), (#126, #127)), .UNSPECIFIED., .T., .F., .U.)
   B_SPLINE_SURFACE_WITH_KNOTS ((3, 2, 2, 2, 3), (2, 2), (0., 0.25, 0.5, 0.75, 1.), (0., 1.), .UNSPECIFIED.)
   GEOMETRIC_REPRESENTATION_ITEM ()
   RATIONAL_B_SPLINE_SURFACE (((1., 1.), (0.707106781186548, 0.707106781186548), (1., 1.), (0.707106781186548, 0.707106781186548), (1., 1.), (0.707106781186548, 0.707106781186548), (1., 1.), (0.707106781186548, 0.707106781186548), (1., 1.)))
   REPRESENTATION_ITEM ('')
   SURFACE ()
);
#110 = CARTESIAN_POINT('', (-5., 2.74137185989135E-15, -39.77));
#111 = CARTESIAN_POINT('', (-4.85, 5.0860782359252E-15, -40.));
#112 = CARTESIAN_POINT('', (-4.99999999999999, 5., -39.7699999999999));
#113 = CARTESIAN_POINT('', (-4.84999999999999, 4.85, -39.9999999999999));
#114 = CARTESIAN_POINT('', (7.45896934653334E-15, 5., -39.7699999999999));
#115 = CARTESIAN_POINT('', (7.25934761692294E-15, 4.85, -39.9999999999999));
#116 = CARTESIAN_POINT('', (5.00000000000001, 4.99999999999999, -39.7699999999999));
#117 = CARTESIAN_POINT('', (4.85000000000001, 4.84999999999999, -39.9999999999999));
#118 = CARTESIAN_POINT('', (5., -1.05667434474689E-14, -39.77));
#119 = CARTESIAN_POINT('', (4.85, -7.8227936122142E-15, -40.));
#120 = CARTESIAN_POINT('', (4.99999999999999, -5.00000000000001, -39.7700000000001));
#121 = CARTESIAN_POINT('', (4.84999999999999, -4.85000000000001, -40.0000000000001));
#122 = CARTESIAN_POINT('', (-5.23682256125319E-15, -5., -39.7700000000001));
#123 = CARTESIAN_POINT('', (-5.05557053362999E-15, -4.85, -40.0000000000001));
#124 = CARTESIAN_POINT('', (-5.00000000000001, -5., -39.7700000000001));
#125 = CARTESIAN_POINT('', (-4.85, -4.85, -40.0000000000001));
#126 = CARTESIAN_POINT('', (-5., 2.74137185989135E-15, -39.77));
#127 = CARTESIAN_POINT('', (-4.85, 5.0860782359252E-15, -40.));
#128 = ADVANCED_FACE('', (#129), #156, .T.);
#129 = FACE_OUTER_BOUND('', #130, .T.);
#130 = EDGE_LOOP('', (#131, #141, #148, #149));
#131 = ORIENTED_EDGE('', *, *, #132, .T.);
#132 = EDGE_CURVE('', #133, #135, #137, .T.);
#133 = VERTEX_POINT('', #134);
#134 = CARTESIAN_POINT('', (-5., 3.36777869765522E-16, -0.5));
#135 = VERTEX_POINT('', #136);
#136 = CARTESIAN_POINT('', (-4.5, 2.75545529808154E-16, 0.));
#137 = LINE('', #138, #139);
#138 = CARTESIAN_POINT('', (-5., 3.36777869765522E-16, -0.5));
#139 = VECTOR('', #140, 0.707106781186548);
#140 = DIRECTION('', (0.5, -6.1232339957368E-17, 0.5));
#141 = ORIENTED_EDGE('', *, *, #142, .T.);
#142 = EDGE_CURVE('', #135, #135, #143, .T.);
#143 = CIRCLE('', #144, 4.5);
#144 = AXIS2_PLACEMENT_3D('', #145, #146, #147);
#145 = CARTESIAN_POINT('', (-9.0205620750794E-16, -5.55111512312578E-16, -1.17096540618744E-31));
#146 = DIRECTION('', (-1.47185480505835E-32, 6.12323399573677E-17, -1.));
#147 = DIRECTION('', (-1., 1.84590453804607E-16, 2.6021453470832E-32));
#148 = ORIENTED_EDGE('', *, *, #132, .F.);
#149 = ORIENTED_EDGE('', *, *, #150, .F.);
#150 = EDGE_CURVE('', #133, #133, #151, .T.);
#151 = CIRCLE('', #152, 5.);
#152 = AXIS2_PLACEMENT_3D('', #153, #154, #155);
#153 = CARTESIAN_POINT('', (3.33066907387547E-16, -2.22044604925031E-15, -0.5));
#154 = DIRECTION('', (0., 0., -1.));
#155 = DIRECTION('', (-1., 2.66515423973696E-16, 0.));
#156 = (
   BOUNDED_SURFACE ()
   B_SPLINE_SURFACE (1, 2, ((#157, #158, #159, #160, #161, #162, #163, #164, #165), (#166, #167, #168, #169, #170, #171, #172, #173, #174)), .UNSPECIFIED., .F., .T., .U.)
   B_SPLINE_SURFACE_WITH_KNOTS ((2, 2), (3, 2, 2, 2, 3), (0., 1.), (0., 0.25, 0.5, 0.75, 1.), .UNSPECIFIED.)
   GEOMETRIC_REPRESENTATION_ITEM ()
   RATIONAL_B_SPLINE_SURFACE (((1., 0.707106781186548, 1., 0.707106781186548, 1., 0.707106781186548, 1., 0.707106781186548, 1.), (1., 0.707106781186548, 1., 0.707106781186548, 1., 0.707106781186548, 1., 0.707106781186548, 1.)))
   REPRESENTATION_ITEM ('')
   SURFACE ()
);
#157 = CARTESIAN_POINT('', (-5., -2.69144046670109E-15, -0.5));
#158 = CARTESIAN_POINT('', (-5., 5., -0.50000000000003));
#159 = CARTESIAN_POINT('', (2.28983498828938E-15, 5., -0.50000000000003));
#160 = CARTESIAN_POINT('', (5., 5., -0.50000000000003));
#161 = CARTESIAN_POINT('', (5., -2.69144046670108E-15, -0.5));
#162 = CARTESIAN_POINT('', (5., -5., -0.49999999999997));
#163 = CARTESIAN_POINT('', (2.90215838786306E-15, -5., -0.49999999999997));
#164 = CARTESIAN_POINT('', (-5., -5., -0.49999999999997));
#165 = CARTESIAN_POINT('', (-5., -2.69144046670109E-15, -0.5));
#166 = CARTESIAN_POINT('', (-4.5, 2.75545529808154E-16, -5.47382212626882E-48));
#167 = CARTESIAN_POINT('', (-4.5, 4.5, -2.69784194983913E-14));
#168 = CARTESIAN_POINT('', (2.28983498828938E-15, 4.5, -2.69784194983913E-14));
#169 = CARTESIAN_POINT('', (4.5, 4.5, -2.69784194983913E-14));
#170 = CARTESIAN_POINT('', (4.5, 2.75545529808155E-16, -3.34088136340818E-30));
#171 = CARTESIAN_POINT('', (4.5, -4.5, 2.69784194983913E-14));
#172 = CARTESIAN_POINT('', (2.8409260479057E-15, -4.5, 2.69784194983913E-14));
#173 = CARTESIAN_POINT('', (-4.5, -4.5, 2.69784194983913E-14));
#174 = CARTESIAN_POINT('', (-4.5, 2.75545529808154E-16, -5.47382212626882E-48));
#175 = ADVANCED_FACE('', (#176), #179, .T.);
#176 = FACE_OUTER_BOUND('', #177, .T.);
#177 = EDGE_LOOP('', (#178));
#178 = ORIENTED_EDGE('', *, *, #142, .F.);
#179 = B_SPLINE_SURFACE_WITH_KNOTS('', 1, 1, ((#180, #181), (#182, #183)), .UNSPECIFIED., .F., .F., .U., (2, 2), (2, 2), (2.50035713374682, 11.5003571337468), (2.50035713374682, 11.5003571337468), .UNSPECIFIED.);
#180 = CARTESIAN_POINT('', (4.5, -4.5, -2.75545529808145E-16));
#181 = CARTESIAN_POINT('', (-4.5, -4.5, 1.39353091853939E-14));
#182 = CARTESIAN_POINT('', (4.5, 4.5, 2.75545529808165E-16));
#183 = CARTESIAN_POINT('', (-4.5, 4.5, 1.44864002450102E-14));
#184 = ADVANCED_FACE('', (#185), #196, .T.);
#185 = FACE_OUTER_BOUND('', #186, .T.);
#186 = EDGE_LOOP('', (#187, #193, #194, #195));
#187 = ORIENTED_EDGE('', *, *, #188, .T.);
#188 = EDGE_CURVE('', #94, #133, #189, .T.);
#189 = LINE('', #190, #191);
#190 = CARTESIAN_POINT('', (-5., 2.74137185989135E-15, -39.77));
#191 = VECTOR('', #192, 39.27);
#192 = DIRECTION('', (0., -2.40459399012583E-15, 39.27));
#193 = ORIENTED_EDGE('', *, *, #150, .T.);
#194 = ORIENTED_EDGE('', *, *, #188, .F.);
#195 = ORIENTED_EDGE('', *, *, #101, .F.);
#196 = (
   BOUNDED_SURFACE ()
   B_SPLINE_SURFACE (1, 2, ((#197, #198, #199, #200, #201, #202, #203, #204, #205), (#206, #207, #208, #209, #210, #211, #212, #213, #214)), .UNSPECIFIED., .F., .T., .U.)
   B_SPLINE_SURFACE_WITH_KNOTS ((2, 2), (3, 2, 2, 2, 3), (0., 1.), (0., 7.85398163397447, 15.707963267949, 23.5619449019234, 31.4159265358979), .UNSPECIFIED.)
   GEOMETRIC_REPRESENTATION_ITEM ()
   RATIONAL_B_SPLINE_SURFACE (((1., 0.707106781186548, 1., 0.707106781186548, 1., 0.707106781186548, 1., 0.707106781186548, 1.), (1., 0.707106781186548, 1., 0.707106781186548, 1., 0.707106781186548, 1., 0.707106781186548, 1.)))
   REPRESENTATION_ITEM ('')
   SURFACE ()
);
#197 = CARTESIAN_POINT('', (-5., 2.55722391901583E-15, -39.77));
#198 = CARTESIAN_POINT('', (-5., 5., -39.77));
#199 = CARTESIAN_POINT('', (2.91719603400409E-15, 5., -39.77));
#200 = CARTESIAN_POINT('', (5., 5., -39.77));
#201 = CARTESIAN_POINT('', (5., -1.5008113095921E-15, -39.77));
#202 = CARTESIAN_POINT('', (5., -5., -39.77));
#203 = CARTESIAN_POINT('', (-5.28515795030162E-16, -5., -39.77));
#204 = CARTESIAN_POINT('', (-5., -5., -39.77));
#205 = CARTESIAN_POINT('', (-5., 2.55722391901583E-15, -39.77));
#206 = CARTESIAN_POINT('', (-5., 3.36777869765522E-16, -0.5));
#207 = CARTESIAN_POINT('', (-5., 5., -0.5));
#208 = CARTESIAN_POINT('', (2.91719603400409E-15, 5., -0.5));
#209 = CARTESIAN_POINT('', (5., 5., -0.5));
#210 = CARTESIAN_POINT('', (5., -3.72125735884241E-15, -0.5));
#211 = CARTESIAN_POINT('', (5., -5., -0.5));
#212 = CARTESIAN_POINT('', (-5.28515795030163E-16, -5., -0.5));
#213 = CARTESIAN_POINT('', (-5., -5., -0.5));
#214 = CARTESIAN_POINT('', (-5., 3.36777869765522E-16, -0.5));
#215 = ADVANCED_FACE('', (#216), #219, .T.);
#216 = FACE_OUTER_BOUND('', #217, .T.);
#217 = EDGE_LOOP('', (#218));
#218 = ORIENTED_EDGE('', *, *, #25, .T.);
#219 = B_SPLINE_SURFACE_WITH_KNOTS('', 1, 1, ((#220, #221), (#222, #223)), .UNSPECIFIED., .F., .F., .U., (2, 2), (2, 2), (71.9868618199443, 81.9868618199443), (64.7646368708703, 74.7646368708703), .UNSPECIFIED.);
#220 = CARTESIAN_POINT('', (-4.99999999999998, 5., -62.));
#221 = CARTESIAN_POINT('', (-4.99999999999998, -4.99999999999999, -62.));
#222 = CARTESIAN_POINT('', (5., 5., -62.));
#223 = CARTESIAN_POINT('', (5., -4.99999999999999, -62.));
#224 = DRAUGHTING_MODEL('', (#232, #340, #380, #385, #390, #395, #400), #414);
#225 = PRESENTATION_STYLE_ASSIGNMENT((#226));
#226 = SURFACE_STYLE_USAGE(.POSITIVE., #227);
#227 = SURFACE_SIDE_STYLE('', (#228));
#228 = SURFACE_STYLE_FILL_AREA(#229);
#229 = FILL_AREA_STYLE('', (#230));
#230 = FILL_AREA_STYLE_COLOUR('', #231);
#231 = COLOUR_RGB('', 0.50196078431373, 0.50196078431373, 0.50196078431373);
#232 = STYLED_ITEM('', (#225), #1);
#233 = MANIFOLD_SOLID_BREP('CUT', #234);
#234 = CLOSED_SHELL('', (#235, #252, #291));
#235 = ADVANCED_FACE('', (#236), #247, .T.);
#236 = FACE_OUTER_BOUND('', #237, .T.);
#237 = EDGE_LOOP('', (#238));
#238 = ORIENTED_EDGE('', *, *, #239, .F.);
#239 = EDGE_CURVE('', #240, #240, #242, .T.);
#240 = VERTEX_POINT('', #241);
#241 = CARTESIAN_POINT('', (-5., 4.10256677714363E-15, -62.));
#242 = CIRCLE('', #243, 4.99999999999999);
#243 = AXIS2_PLACEMENT_3D('', #244, #245, #246);
#244 = CARTESIAN_POINT('', (-4.30211422042248E-16, 1.22124532708767E-15, -62.));
#245 = DIRECTION('', (2.78722783243302E-30, 4.83671794477997E-15, -1.));
#246 = DIRECTION('', (-1., 5.76264290011193E-16, 0.));
#247 = B_SPLINE_SURFACE_WITH_KNOTS('', 1, 1, ((#248, #249), (#250, #251)), .UNSPECIFIED., .F., .F., .U., (2, 2), (2, 2), (64.7646368708703, 74.7646368708703), (71.9868618199443, 81.9868618199443), .UNSPECIFIED.);
#248 = CARTESIAN_POINT('', (-4.99999999999999, 5., -62.));
#249 = CARTESIAN_POINT('', (4.99999999999999, 5., -62.));
#250 = CARTESIAN_POINT('', (-4.99999999999999, -4.99999999999999, -62.));
#251 = CARTESIAN_POINT('', (4.99999999999999, -4.99999999999999, -62.));
#252 = ADVANCED_FACE('', (#253), #272, .T.);
#253 = FACE_OUTER_BOUND('', #254, .T.);
#254 = EDGE_LOOP('', (#255, #263, #264, #265));
#255 = ORIENTED_EDGE('', *, *, #256, .F.);
#256 = EDGE_CURVE('', #240, #257, #259, .T.);
#257 = VERTEX_POINT('', #258);
#258 = CARTESIAN_POINT('', (-5., 4.40872847693047E-15, -67.));
#259 = LINE('', #260, #261);
#260 = CARTESIAN_POINT('', (-5., 4.10256677714363E-15, -62.));
#261 = VECTOR('', #262, 5.);
#262 = DIRECTION('', (0., 3.0616169978684E-16, -5.));
#263 = ORIENTED_EDGE('', *, *, #239, .T.);
#264 = ORIENTED_EDGE('', *, *, #256, .T.);
#265 = ORIENTED_EDGE('', *, *, #266, .F.);
#266 = EDGE_CURVE('', #257, #257, #267, .T.);
#267 = CIRCLE('', #268, 5.);
#268 = AXIS2_PLACEMENT_3D('', #269, #270, #271);
#269 = CARTESIAN_POINT('', (8.32667268468867E-17, 2.55351295663786E-15, -67.));
#270 = DIRECTION('', (0., 0., -1.));
#271 = DIRECTION('', (-1., 3.71043104058522E-16, 0.));
#272 = (
   BOUNDED_SURFACE ()
   B_SPLINE_SURFACE (2, 1, ((#273, #274), (#275, #276), (#277, #278), (#279, #280), (#281, #282), (#283, #284), (#285, #286), (#287, #288), (#289, #290)), .UNSPECIFIED., .T., .F., .U.)
   B_SPLINE_SURFACE_WITH_KNOTS ((3, 2, 2, 2, 3), (2, 2), (0., 7.85398163397448, 15.707963267949, 23.5619449019234, 31.4159265358979), (0., 1.), .UNSPECIFIED.)
   GEOMETRIC_REPRESENTATION_ITEM ()
   RATIONAL_B_SPLINE_SURFACE (((1., 1.), (0.707106781186548, 0.707106781186548), (1., 1.), (0.707106781186548, 0.707106781186548), (1., 1.), (0.707106781186548, 0.707106781186548), (1., 1.), (0.707106781186548, 0.707106781186548), (1., 1.)))
   REPRESENTATION_ITEM ('')
   SURFACE ()
);
#273 = CARTESIAN_POINT('', (-5., 4.10256677714363E-15, -62.));
#274 = CARTESIAN_POINT('', (-4.99999999999999, 4.32461138206865E-15, -67.));
#275 = CARTESIAN_POINT('', (-4.99999999999999, 5., -62.));
#276 = CARTESIAN_POINT('', (-4.99999999999999, 5.00000000000001, -67.));
#277 = CARTESIAN_POINT('', (7.90423026846987E-15, 5., -62.));
#278 = CARTESIAN_POINT('', (1.50096576260709E-14, 5., -67.));
#279 = CARTESIAN_POINT('', (5.00000000000001, 4.99999999999999, -62.));
#280 = CARTESIAN_POINT('', (5.00000000000002, 4.99999999999999, -67.));
#281 = CARTESIAN_POINT('', (5., -7.26500166129548E-15, -62.));
#282 = CARTESIAN_POINT('', (5.00000000000001, -7.04295705637046E-15, -67.));
#283 = CARTESIAN_POINT('', (5., -5.00000000000001, -62.));
#284 = CARTESIAN_POINT('', (5.00000000000001, -5.00000000000001, -67.));
#285 = CARTESIAN_POINT('', (-2.85101477039557E-15, -5., -62.));
#286 = CARTESIAN_POINT('', (4.25441258720547E-15, -5., -67.));
#287 = CARTESIAN_POINT('', (-5., -5., -62.));
#288 = CARTESIAN_POINT('', (-5., -5., -67.));
#289 = CARTESIAN_POINT('', (-5., 4.10256677714363E-15, -62.));
#290 = CARTESIAN_POINT('', (-4.99999999999999, 4.32461138206865E-15, -67.));
#291 = ADVANCED_FACE('', (#292), #305, .T.);
#292 = FACE_OUTER_BOUND('', #293, .T.);
#293 = EDGE_LOOP('', (#294, #303, #304));
#294 = ORIENTED_EDGE('', *, *, #295, .F.);
#295 = EDGE_CURVE('', #257, #296, #298, .T.);
#296 = VERTEX_POINT('', #297);
#297 = CARTESIAN_POINT('', (1.80666351906064E-15, 4.40872847693047E-15, -72.));
#298 = CIRCLE('', #299, 5.);
#299 = AXIS2_PLACEMENT_3D('', #300, #301, #302);
#300 = CARTESIAN_POINT('', (-5.32907051820075E-15, 4.10256677714364E-15, -67.));
#301 = DIRECTION('', (-6.1232339957367E-17, -1., -6.12323399573672E-17));
#302 = DIRECTION('', (-1., 6.1232339957367E-17, 0.));
#303 = ORIENTED_EDGE('', *, *, #266, .T.);
#304 = ORIENTED_EDGE('', *, *, #295, .T.);
#305 = (
   BOUNDED_SURFACE ()
   B_SPLINE_SURFACE (2, 2, ((#306, #307, #308), (#309, #310, #311), (#312, #313, #314), (#315, #316, #317), (#318, #319, #320), (#321, #322, #323), (#324, #325, #326), (#327, #328, #329), (#330, #331, #332)), .UNSPECIFIED., .T., .F., .U.)
   B_SPLINE_SURFACE_WITH_KNOTS ((3, 2, 2, 2, 3), (3, 3), (0., 0.25, 0.5, 0.75, 1.), (0., 1.), .UNSPECIFIED.)
   GEOMETRIC_REPRESENTATION_ITEM ()
   RATIONAL_B_SPLINE_SURFACE (((1., 0.707106781186548, 1.), (0.707106781186548, 0.5, 0.707106781186548), (1., 0.707106781186548, 1.), (0.707106781186548, 0.5, 0.707106781186548), (1., 0.707106781186548, 1.), (0.707106781186548, 0.5, 0.707106781186548), (1., 0.707106781186548, 1.), (0.707106781186548, 0.5, 0.707106781186548), (1., 0.707106781186548, 1.)))
   REPRESENTATION_ITEM ('')
   SURFACE ()
);
#306 = CARTESIAN_POINT('', (-5., 4.40872847693047E-15, -67.));
#307 = CARTESIAN_POINT('', (-5., 4.71489017671731E-15, -72.));
#308 = CARTESIAN_POINT('', (1.80666351906064E-15, 4.40872847693047E-15, -72.));
#309 = CARTESIAN_POINT('', (-5., 5.00000000000001, -67.));
#310 = CARTESIAN_POINT('', (-5., 5.00000000000001, -72.));
#311 = CARTESIAN_POINT('', (1.80666351906064E-15, 4.40872847693047E-15, -72.));
#312 = CARTESIAN_POINT('', (7.105427357601E-15, 5.00000000000001, -67.));
#313 = CARTESIAN_POINT('', (7.41158905738784E-15, 5.00000000000001, -72.));
#314 = CARTESIAN_POINT('', (1.80666351906064E-15, 4.40872847693047E-15, -72.));
#315 = CARTESIAN_POINT('', (5.00000000000001, 5.00000000000001, -67.));
#316 = CARTESIAN_POINT('', (5.00000000000001, 5.00000000000001, -72.));
#317 = CARTESIAN_POINT('', (1.80666351906064E-15, 4.40872847693047E-15, -72.));
#318 = CARTESIAN_POINT('', (5.00000000000001, 4.40872847693047E-15, -67.));
#319 = CARTESIAN_POINT('', (5.00000000000001, 4.10256677714363E-15, -72.));
#320 = CARTESIAN_POINT('', (1.80666351906064E-15, 4.40872847693047E-15, -72.));
#321 = CARTESIAN_POINT('', (5.00000000000001, -5., -67.));
#322 = CARTESIAN_POINT('', (5.00000000000001, -5., -72.));
#323 = CARTESIAN_POINT('', (1.80666351906064E-15, 4.40872847693047E-15, -72.));
#324 = CARTESIAN_POINT('', (7.71775075717468E-15, -5., -67.));
#325 = CARTESIAN_POINT('', (7.41158905738784E-15, -5., -72.));
#326 = CARTESIAN_POINT('', (1.80666351906064E-15, 4.40872847693047E-15, -72.));
#327 = CARTESIAN_POINT('', (-5., -5., -67.));
#328 = CARTESIAN_POINT('', (-5., -5., -72.));
#329 = CARTESIAN_POINT('', (1.80666351906064E-15, 4.40872847693047E-15, -72.));
#330 = CARTESIAN_POINT('', (-5., 4.40872847693047E-15, -67.));
#331 = CARTESIAN_POINT('', (-5., 4.71489017671731E-15, -72.));
#332 = CARTESIAN_POINT('', (1.80666351906064E-15, 4.40872847693047E-15, -72.));
#333 = PRESENTATION_STYLE_ASSIGNMENT((#334));
#334 = SURFACE_STYLE_USAGE(.POSITIVE., #335);
#335 = SURFACE_SIDE_STYLE('', (#336));
#336 = SURFACE_STYLE_FILL_AREA(#337);
#337 = FILL_AREA_STYLE('', (#338));
#338 = FILL_AREA_STYLE_COLOUR('', #339);
#339 = COLOUR_RGB('', 0.8, 0.8, 0.8);
#340 = STYLED_ITEM('', (#333), #233);
#341 = TRIMMED_CURVE('cutting part line', #342, (#346), (#347), .T., .CARTESIAN.);
#342 = LINE('', #343, #344);
#343 = CARTESIAN_POINT('', (-6.97388298937764E-31, -3.7964050773568E-15, -62.));
#344 = VECTOR('', #345, 5.);
#345 = DIRECTION('', (5., -9.18485099360507E-16, 0.));
#346 = CARTESIAN_POINT('', (-6.97388298937764E-31, -3.7964050773568E-15, -62.));
#347 = CARTESIAN_POINT('', (5., -4.71489017671731E-15, -62.));
#348 = TRIMMED_CURVE('cutting part line', #349, (#353), (#354), .T., .CARTESIAN.);
#349 = LINE('', #350, #351);
#350 = CARTESIAN_POINT('', (5., -4.71489017671731E-15, -62.));
#351 = VECTOR('', #352, 5.);
#352 = DIRECTION('', (0., -3.0616169978684E-16, -5.));
#353 = CARTESIAN_POINT('', (5., -4.71489017671731E-15, -62.));
#354 = CARTESIAN_POINT('', (5., -5.02105187650415E-15, -67.));
#355 = TRIMMED_CURVE('cutting part line', #356, (#361), (#362), .T., .CARTESIAN.);
#356 = CIRCLE('', #357, 5.);
#357 = AXIS2_PLACEMENT_3D('', #358, #359, #360);
#358 = CARTESIAN_POINT('', (-8.88178419700125E-15, -4.10256677714363E-15, -67.));
#359 = DIRECTION('', (1.83697019872104E-16, 1., -6.12323399573682E-17));
#360 = DIRECTION('', (1., -1.83697019872104E-16, 0.));
#361 = CARTESIAN_POINT('', (5., -5.02105187650415E-15, -67.));
#362 = CARTESIAN_POINT('', (-3.02450737408863E-15, -4.40872847693047E-15, -72.));
#363 = TRIMMED_CURVE('cutting part line', #364, (#368), (#369), .T., .CARTESIAN.);
#364 = LINE('', #365, #366);
#365 = CARTESIAN_POINT('', (-8.09870282637403E-31, -4.40872847693047E-15, -72.));
#366 = VECTOR('', #367, 10.);
#367 = DIRECTION('', (1.12481983699638E-31, 6.1232339957367E-16, 10.));
#368 = CARTESIAN_POINT('', (-8.09870282637403E-31, -4.40872847693047E-15, -72.));
#369 = CARTESIAN_POINT('', (-6.97388298937764E-31, -3.7964050773568E-15, -62.));
#370 = COMPOSITE_CURVE('cutting part line', (#371, #372, #373, #374), .U.);
#371 = COMPOSITE_CURVE_SEGMENT(.CONTINUOUS., .T., #341);
#372 = COMPOSITE_CURVE_SEGMENT(.CONTINUOUS., .T., #348);
#373 = COMPOSITE_CURVE_SEGMENT(.CONTINUOUS., .T., #355);
#374 = COMPOSITE_CURVE_SEGMENT(.CONTINUOUS., .T., #363);
#375 = GEOMETRIC_SET('', (#370, #413));
#376 = PRESENTATION_STYLE_ASSIGNMENT((#377));
#377 = CURVE_STYLE('', #379, POSITIVE_LENGTH_MEASURE(1.E-6), #378);
#378 = COLOUR_RGB('', 0., 0., 1.);
#379 = DRAUGHTING_PRE_DEFINED_CURVE_FONT('continuous');
#380 = STYLED_ITEM('', (#376), #370);
#381 = PRESENTATION_STYLE_ASSIGNMENT((#382));
#382 = CURVE_STYLE('', #384, POSITIVE_LENGTH_MEASURE(1.E-6), #383);
#383 = COLOUR_RGB('', 0., 0., 1.);
#384 = DRAUGHTING_PRE_DEFINED_CURVE_FONT('continuous');
#385 = OVER_RIDING_STYLED_ITEM('', (#381), #341, #380);
#386 = PRESENTATION_STYLE_ASSIGNMENT((#387));
#387 = CURVE_STYLE('', #389, POSITIVE_LENGTH_MEASURE(1.E-6), #388);
#388 = COLOUR_RGB('', 0., 0., 1.);
#389 = DRAUGHTING_PRE_DEFINED_CURVE_FONT('continuous');
#390 = OVER_RIDING_STYLED_ITEM('', (#386), #348, #380);
#391 = PRESENTATION_STYLE_ASSIGNMENT((#392));
#392 = CURVE_STYLE('', #394, POSITIVE_LENGTH_MEASURE(1.E-6), #393);
#393 = COLOUR_RGB('', 0., 0., 1.);
#394 = DRAUGHTING_PRE_DEFINED_CURVE_FONT('continuous');
#395 = OVER_RIDING_STYLED_ITEM('', (#391), #355, #380);
#396 = PRESENTATION_STYLE_ASSIGNMENT((#397));
#397 = CURVE_STYLE('', #399, POSITIVE_LENGTH_MEASURE(1.E-6), #398);
#398 = COLOUR_RGB('', 0., 0., 1.);
#399 = DRAUGHTING_PRE_DEFINED_CURVE_FONT('continuous');
#400 = OVER_RIDING_STYLED_ITEM('', (#396), #363, #380);
#401 = AXIS2_PLACEMENT_3D('CIP', #402, #403, #404);
#402 = CARTESIAN_POINT('', (2.69956760879134E-31, 4.40872847693047E-15, -72.));
#403 = DIRECTION('', (-3.74939945665465E-33, -6.12323399573677E-17, 1.));
#404 = DIRECTION('', (1., -6.12323399573677E-17, 0.));
#405 = AXIS2_PLACEMENT_3D('MCS', #406, #407, #408);
#406 = CARTESIAN_POINT('', (1.49113616391155E-31, 2.43521016010451E-15, -39.77));
#407 = DIRECTION('', (-3.74939945665465E-33, -6.12323399573677E-17, 1.));
#408 = DIRECTION('', (1., -6.12323399573677E-17, 0.));
#409 = AXIS2_PLACEMENT_3D('PCS', #410, #411, #412);
#410 = CARTESIAN_POINT('', (0., 0., 0.));
#411 = DIRECTION('', (0., 0., 1.));
#412 = DIRECTION('', (1., 0., 0.));
#413 = CARTESIAN_POINT('CRP', (5., 0., -72.));
#414 = (
   GEOMETRIC_REPRESENTATION_CONTEXT (3)
   GLOBAL_UNCERTAINTY_ASSIGNED_CONTEXT ((#416))
   GLOBAL_UNIT_ASSIGNED_CONTEXT ((#415, #417, #418))
   REPRESENTATION_CONTEXT ('', '3D')
);
#415 = (
   LENGTH_UNIT ()
   NAMED_UNIT (*)
   SI_UNIT (.MILLI., .METRE.)
);
#416 = UNCERTAINTY_MEASURE_WITH_UNIT(LENGTH_MEASURE(1.E-6), #415, 'DISTANCE_ACCURACY_VALUE', '');
#417 = (
   NAMED_UNIT (*)
   SI_UNIT ($, .STERADIAN.)
   SOLID_ANGLE_UNIT ()
);
#418 = (
   NAMED_UNIT (*)
   PLANE_ANGLE_UNIT ()
   SI_UNIT ($, .RADIAN.)
);
#419 = SHAPE_REPRESENTATION('', (), #414);
#420 = PRODUCT_DEFINITION_SHAPE('', '', #421);
#421 = PRODUCT_DEFINITION('', '', #424, #428);
#422 = APPLICATION_CONTEXT('configuration controlled 3D designs of mechanical parts and assemblies');
#423 = APPLICATION_PROTOCOL_DEFINITION('International Standard', 'automotive_design', 2002, #422);
#424 = PRODUCT_DEFINITION_FORMATION_WITH_SPECIFIED_SOURCE('', '', #425, .NOT_KNOWN.);
#425 = PRODUCT('EmptyName', 'EmptyName', '', (#426));
#426 = PRODUCT_CONTEXT('', #422, 'mechanical');
#427 = PRODUCT_RELATED_PRODUCT_CATEGORY('detail', '', (#425));
#428 = PRODUCT_DEFINITION_CONTEXT('part definition', #422, 'design');
#429 = SHAPE_DEFINITION_REPRESENTATION(#420, #419);
#430 = CONSTRUCTIVE_GEOMETRY_REPRESENTATION('supplemental geometry', (#401, #405, #409), #414);
#431 = CONSTRUCTIVE_GEOMETRY_REPRESENTATION_RELATIONSHIP('', '', #419, #430);
#432 = SHAPE_REPRESENTATION_RELATIONSHIP('', '', #419, #433);
#433 = SHAPE_REPRESENTATION('', (#375), #414);
#434 = SHAPE_REPRESENTATION_RELATIONSHIP('', '', #419, #435);
#435 = ADVANCED_BREP_SHAPE_REPRESENTATION('', (#1, #233), #414);
ENDSEC;
END-ISO-10303-21;
