ISO-10303-21;
HEADER;
FILE_DESCRIPTION(('STEP'), '1');
FILE_NAME('C:\\Users\\ds2002\\OneDrive - Sandvik\\HomeShare\\Documents\\Batchrepair\\CorSRT2\\NEW_MILBN_SLD\\Output2\\MOD000000000000000020084651700000.stp', '2018-11-23T12:38:57', (''), (''), 'Express v3.0.0.0', 'Express Tool', 'Unknown');
FILE_SCHEMA(('AUTOMOTIVE_DESIGN'));
ENDSEC;

DATA;
#1 = MANIFOLD_SOLID_BREP('NOCUT', #2);
#2 = CLOSED_SHELL('', (#3, #50, #89, #128, #175, #184, #215));
#3 = ADVANCED_FACE('', (#4), #31, .T.);
#4 = FACE_OUTER_BOUND('', #5, .T.);
#5 = EDGE_LOOP('', (#6, #16, #23, #24));
#6 = ORIENTED_EDGE('', *, *, #7, .F.);
#7 = EDGE_CURVE('', #8, #10, #12, .T.);
#8 = VERTEX_POINT('', #9);
#9 = CARTESIAN_POINT('', (-3.85, 3.57780562370899E-15, -54.58));
#10 = VERTEX_POINT('', #11);
#11 = CARTESIAN_POINT('', (-4., 3.61270805748469E-15, -55.));
#12 = LINE('', #13, #14);
#13 = CARTESIAN_POINT('', (-3.85, 3.57780562370899E-15, -54.58));
#14 = VECTOR('', #15, 0.445982062419557);
#15 = DIRECTION('', (-0.15, 3.49024337756999E-17, -0.420000000000002));
#16 = ORIENTED_EDGE('', *, *, #17, .T.);
#17 = EDGE_CURVE('', #8, #8, #18, .T.);
#18 = CIRCLE('', #19, 3.85);
#19 = AXIS2_PLACEMENT_3D('', #20, #21, #22);
#20 = CARTESIAN_POINT('', (1.62370117351429E-15, 0., -54.58));
#21 = DIRECTION('', (-1.84556554742883E-15, 6.00420898078105E-15, -1.));
#22 = DIRECTION('', (-1., 6.84370802172865E-16, 1.84556554742883E-15));
#23 = ORIENTED_EDGE('', *, *, #7, .T.);
#24 = ORIENTED_EDGE('', *, *, #25, .F.);
#25 = EDGE_CURVE('', #10, #10, #26, .T.);
#26 = CIRCLE('', #27, 4.);
#27 = AXIS2_PLACEMENT_3D('', #28, #29, #30);
#28 = CARTESIAN_POINT('', (8.18789480661053E-16, 4.44089209850063E-16, -55.));
#29 = DIRECTION('', (-1.77635683940025E-15, 5.77905114400177E-15, -1.));
#30 = DIRECTION('', (-1., 5.47225352079187E-16, 1.77635683940025E-15));
#31 = (
   BOUNDED_SURFACE ()
   B_SPLINE_SURFACE (2, 1, ((#32, #33), (#34, #35), (#36, #37), (#38, #39), (#40, #41), (#42, #43), (#44, #45), (#46, #47), (#48, #49)), .UNSPECIFIED., .T., .F., .U.)
   B_SPLINE_SURFACE_WITH_KNOTS ((3, 2, 2, 2, 3), (2, 2), (0., 0.25, 0.5, 0.75, 1.), (0., 1.), .UNSPECIFIED.)
   GEOMETRIC_REPRESENTATION_ITEM ()
   RATIONAL_B_SPLINE_SURFACE (((1., 1.), (0.707106781186548, 0.707106781186548), (1., 1.), (0.707106781186548, 0.707106781186548), (1., 1.), (0.707106781186548, 0.707106781186548), (1., 1.), (0.707106781186548, 0.707106781186548), (1., 1.)))
   REPRESENTATION_ITEM ('')
   SURFACE ()
);
#32 = CARTESIAN_POINT('', (-3.85, 3.57780562370899E-15, -54.58));
#33 = CARTESIAN_POINT('', (-4., 5.60457978987211E-15, -55.));
#34 = CARTESIAN_POINT('', (-3.85, 3.85, -54.58));
#35 = CARTESIAN_POINT('', (-4., 4.00000000000001, -55.));
#36 = CARTESIAN_POINT('', (3.74451696129974E-15, 3.85, -54.58));
#37 = CARTESIAN_POINT('', (3.87472713460649E-15, 4., -55.));
#38 = CARTESIAN_POINT('', (3.85, 3.85, -54.58));
#39 = CARTESIAN_POINT('', (4., 4., -55.));
#40 = CARTESIAN_POINT('', (3.85, -3.10631660603726E-15, -54.58));
#41 = CARTESIAN_POINT('', (4., -1.33996278648763E-15, -55.));
#42 = CARTESIAN_POINT('', (3.85, -3.85, -54.58));
#43 = CARTESIAN_POINT('', (4., -4., -55.));
#44 = CARTESIAN_POINT('', (-2.46811625077477E-15, -3.85, -54.58));
#45 = CARTESIAN_POINT('', (-2.57995672209431E-15, -4., -55.));
#46 = CARTESIAN_POINT('', (-3.85, -3.85, -54.58));
#47 = CARTESIAN_POINT('', (-4., -4., -55.));
#48 = CARTESIAN_POINT('', (-3.85, 3.57780562370899E-15, -54.58));
#49 = CARTESIAN_POINT('', (-4., 5.60457978987211E-15, -55.));
#50 = ADVANCED_FACE('', (#51), #70, .T.);
#51 = FACE_OUTER_BOUND('', #52, .T.);
#52 = EDGE_LOOP('', (#53, #61, #68, #69));
#53 = ORIENTED_EDGE('', *, *, #54, .F.);
#54 = EDGE_CURVE('', #55, #8, #57, .T.);
#55 = VERTEX_POINT('', #56);
#56 = CARTESIAN_POINT('', (-3.85, 2.4401087473011E-15, -36.));
#57 = LINE('', #58, #59);
#58 = CARTESIAN_POINT('', (-3.85, 2.4401087473011E-15, -36.));
#59 = VECTOR('', #60, 18.58);
#60 = DIRECTION('', (0., 1.13769687640789E-15, -18.58));
#61 = ORIENTED_EDGE('', *, *, #62, .T.);
#62 = EDGE_CURVE('', #55, #55, #63, .T.);
#63 = CIRCLE('', #64, 3.85);
#64 = AXIS2_PLACEMENT_3D('', #65, #66, #67);
#65 = CARTESIAN_POINT('', (5.27355936696949E-16, -2.33146835171283E-15, -36.));
#66 = DIRECTION('', (0., 0., -1.));
#67 = DIRECTION('', (-1., 1.23937067506855E-15, 0.));
#68 = ORIENTED_EDGE('', *, *, #54, .T.);
#69 = ORIENTED_EDGE('', *, *, #17, .F.);
#70 = (
   BOUNDED_SURFACE ()
   B_SPLINE_SURFACE (2, 1, ((#71, #72), (#73, #74), (#75, #76), (#77, #78), (#79, #80), (#81, #82), (#83, #84), (#85, #86), (#87, #88)), .UNSPECIFIED., .T., .F., .U.)
   B_SPLINE_SURFACE_WITH_KNOTS ((3, 2, 2, 2, 3), (2, 2), (0., 6.04756585816035, 12.0951317163207, 18.1426975744811, 24.1902634326414), (0., 1.), .UNSPECIFIED.)
   GEOMETRIC_REPRESENTATION_ITEM ()
   RATIONAL_B_SPLINE_SURFACE (((1., 1.), (0.707106781186548, 0.707106781186548), (1., 1.), (0.707106781186548, 0.707106781186548), (1., 1.), (0.707106781186548, 0.707106781186548), (1., 1.), (0.707106781186548, 0.707106781186548), (1., 1.)))
   REPRESENTATION_ITEM ('')
   SURFACE ()
);
#71 = CARTESIAN_POINT('', (-3.85, 2.4401087473011E-15, -36.));
#72 = CARTESIAN_POINT('', (-3.85, 1.88499723498852E-15, -54.58));
#73 = CARTESIAN_POINT('', (-3.85, 3.85, -36.));
#74 = CARTESIAN_POINT('', (-3.85, 3.85, -54.58));
#75 = CARTESIAN_POINT('', (2.12109751161835E-15, 3.85, -36.));
#76 = CARTESIAN_POINT('', (2.12109751161835E-15, 3.85, -54.58));
#77 = CARTESIAN_POINT('', (3.85, 3.85, -36.));
#78 = CARTESIAN_POINT('', (3.85, 3.85, -54.58));
#79 = CARTESIAN_POINT('', (3.85, -1.30248591485428E-15, -36.));
#80 = CARTESIAN_POINT('', (3.85, -1.85759742716685E-15, -54.58));
#81 = CARTESIAN_POINT('', (3.85, -3.85, -36.));
#82 = CARTESIAN_POINT('', (3.85, -3.85, -54.58));
#83 = CARTESIAN_POINT('', (-1.1500081328653E-15, -3.85, -36.));
#84 = CARTESIAN_POINT('', (-1.1500081328653E-15, -3.85, -54.58));
#85 = CARTESIAN_POINT('', (-3.85, -3.85, -36.));
#86 = CARTESIAN_POINT('', (-3.85, -3.85, -54.58));
#87 = CARTESIAN_POINT('', (-3.85, 2.4401087473011E-15, -36.));
#88 = CARTESIAN_POINT('', (-3.85, 1.88499723498852E-15, -54.58));
#89 = ADVANCED_FACE('', (#90), #109, .T.);
#90 = FACE_OUTER_BOUND('', #91, .T.);
#91 = EDGE_LOOP('', (#92, #100, #107, #108));
#92 = ORIENTED_EDGE('', *, *, #93, .F.);
#93 = EDGE_CURVE('', #94, #55, #96, .T.);
#94 = VERTEX_POINT('', #95);
#95 = CARTESIAN_POINT('', (-4., 2.43521016010451E-15, -35.77));
#96 = LINE('', #97, #98);
#97 = CARTESIAN_POINT('', (-4., 2.43521016010451E-15, -35.77));
#98 = VECTOR('', #99, 0.274590604354917);
#99 = DIRECTION('', (0.15, 4.89858719659029E-18, -0.229999999999997));
#100 = ORIENTED_EDGE('', *, *, #101, .T.);
#101 = EDGE_CURVE('', #94, #94, #102, .T.);
#102 = CIRCLE('', #103, 4.);
#103 = AXIS2_PLACEMENT_3D('', #104, #105, #106);
#104 = CARTESIAN_POINT('', (-4.02455846426619E-16, 2.22044604925031E-16, -35.77));
#105 = DIRECTION('', (0., 0., -1.));
#106 = DIRECTION('', (-1., 5.5329138879487E-16, 0.));
#107 = ORIENTED_EDGE('', *, *, #93, .T.);
#108 = ORIENTED_EDGE('', *, *, #62, .F.);
#109 = (
   BOUNDED_SURFACE ()
   B_SPLINE_SURFACE (2, 1, ((#110, #111), (#112, #113), (#114, #115), (#116, #117), (#118, #119), (#120, #121), (#122, #123), (#124, #125), (#126, #127)), .UNSPECIFIED., .T., .F., .U.)
   B_SPLINE_SURFACE_WITH_KNOTS ((3, 2, 2, 2, 3), (2, 2), (0., 0.25, 0.5, 0.75, 1.), (0., 1.), .UNSPECIFIED.)
   GEOMETRIC_REPRESENTATION_ITEM ()
   RATIONAL_B_SPLINE_SURFACE (((1., 1.), (0.707106781186548, 0.707106781186548), (1., 1.), (0.707106781186548, 0.707106781186548), (1., 1.), (0.707106781186548, 0.707106781186548), (1., 1.), (0.707106781186548, 0.707106781186548), (1., 1.)))
   REPRESENTATION_ITEM ('')
   SURFACE ()
);
#110 = CARTESIAN_POINT('', (-4., 2.43521016010451E-15, -35.77));
#111 = CARTESIAN_POINT('', (-3.85, 6.54963002889571E-16, -36.));
#112 = CARTESIAN_POINT('', (-4., 4., -35.77));
#113 = CARTESIAN_POINT('', (-3.85, 3.85, -36.));
#114 = CARTESIAN_POINT('', (-1.4118755143779E-16, 4., -35.77));
#115 = CARTESIAN_POINT('', (-1.35893018258873E-16, 3.85, -36.));
#116 = CARTESIAN_POINT('', (4., 4., -35.77));
#117 = CARTESIAN_POINT('', (3.85, 3.85, -36.));
#118 = CARTESIAN_POINT('', (4., 2.71758526298009E-15, -35.77));
#119 = CARTESIAN_POINT('', (3.85, 9.26749039407316E-16, -36.));
#120 = CARTESIAN_POINT('', (4., -4., -35.77));
#121 = CARTESIAN_POINT('', (3.85, -3.85, -36.));
#122 = CARTESIAN_POINT('', (6.31046271096731E-16, -4., -35.77));
#123 = CARTESIAN_POINT('', (6.07382035930604E-16, -3.85, -36.));
#124 = CARTESIAN_POINT('', (-4., -4., -35.77));
#125 = CARTESIAN_POINT('', (-3.85, -3.85, -36.));
#126 = CARTESIAN_POINT('', (-4., 2.43521016010451E-15, -35.77));
#127 = CARTESIAN_POINT('', (-3.85, 6.54963002889571E-16, -36.));
#128 = ADVANCED_FACE('', (#129), #156, .T.);
#129 = FACE_OUTER_BOUND('', #130, .T.);
#130 = EDGE_LOOP('', (#131, #141, #148, #149));
#131 = ORIENTED_EDGE('', *, *, #132, .T.);
#132 = EDGE_CURVE('', #133, #135, #137, .T.);
#133 = VERTEX_POINT('', #134);
#134 = CARTESIAN_POINT('', (-4., 2.69422295812418E-16, -0.399999999999999));
#135 = VERTEX_POINT('', #136);
#136 = CARTESIAN_POINT('', (-3.6, 2.20436423846524E-16, 0.));
#137 = LINE('', #138, #139);
#138 = CARTESIAN_POINT('', (-4., 2.69422295812418E-16, -0.399999999999999));
#139 = VECTOR('', #140, 0.565685424949237);
#140 = DIRECTION('', (0.4, -4.8985871965894E-17, 0.399999999999999));
#141 = ORIENTED_EDGE('', *, *, #142, .T.);
#142 = EDGE_CURVE('', #135, #135, #143, .T.);
#143 = CIRCLE('', #144, 3.6);
#144 = AXIS2_PLACEMENT_3D('', #145, #146, #147);
#145 = CARTESIAN_POINT('', (7.91033905045424E-16, -3.33066907387547E-16, -2.46519032881566E-32));
#146 = DIRECTION('', (2.56677801597317E-33, 6.12323399573678E-17, -1.));
#147 = DIRECTION('', (-1., -9.11784344866733E-17, -8.14984691324174E-33));
#148 = ORIENTED_EDGE('', *, *, #132, .F.);
#149 = ORIENTED_EDGE('', *, *, #150, .F.);
#150 = EDGE_CURVE('', #133, #133, #151, .T.);
#151 = CIRCLE('', #152, 4.);
#152 = AXIS2_PLACEMENT_3D('', #153, #154, #155);
#153 = CARTESIAN_POINT('', (-3.33066907387547E-16, -1.77635683940025E-15, -0.399999999999999));
#154 = DIRECTION('', (2.77555756156289E-17, 5.14030469134514E-17, -1.));
#155 = DIRECTION('', (-1., 5.11444783803167E-16, -2.77555756156289E-17));
#156 = (
   BOUNDED_SURFACE ()
   B_SPLINE_SURFACE (1, 2, ((#157, #158, #159, #160, #161, #162, #163, #164, #165), (#166, #167, #168, #169, #170, #171, #172, #173, #174)), .UNSPECIFIED., .F., .T., .U.)
   B_SPLINE_SURFACE_WITH_KNOTS ((2, 2), (3, 2, 2, 2, 3), (0., 1.), (0., 0.25, 0.5, 0.75, 1.), .UNSPECIFIED.)
   GEOMETRIC_REPRESENTATION_ITEM ()
   RATIONAL_B_SPLINE_SURFACE (((1., 0.707106781186548, 1., 0.707106781186548, 1., 0.707106781186548, 1., 0.707106781186548, 1.), (1., 0.707106781186548, 1., 0.707106781186548, 1., 0.707106781186548, 1., 0.707106781186548, 1.)))
   REPRESENTATION_ITEM ('')
   SURFACE ()
);
#157 = CARTESIAN_POINT('', (-4., -2.04953155772919E-15, -0.399999999999999));
#158 = CARTESIAN_POINT('', (-4., 4., -0.400000000000022));
#159 = CARTESIAN_POINT('', (3.28440978118275E-16, 4., -0.400000000000022));
#160 = CARTESIAN_POINT('', (4., 4., -0.400000000000022));
#161 = CARTESIAN_POINT('', (4., -2.78968024081262E-15, -0.399999999999999));
#162 = CARTESIAN_POINT('', (4., -4., -0.399999999999976));
#163 = CARTESIAN_POINT('', (7.81510146937783E-17, -4., -0.399999999999976));
#164 = CARTESIAN_POINT('', (-4., -4., -0.399999999999976));
#165 = CARTESIAN_POINT('', (-4., -2.04953155772919E-15, -0.399999999999999));
#166 = CARTESIAN_POINT('', (-3.6, 2.20436423846524E-16, 0.));
#167 = CARTESIAN_POINT('', (-3.6, 3.6, -2.09832151654155E-14));
#168 = CARTESIAN_POINT('', (2.91433543964104E-16, 3.6, -2.09832151654155E-14));
#169 = CARTESIAN_POINT('', (3.6, 3.6, -2.09832151654155E-14));
#170 = CARTESIAN_POINT('', (3.6, -4.45697390928571E-16, -2.60668058374687E-30));
#171 = CARTESIAN_POINT('', (3.6, -3.6, 2.09832151654155E-14));
#172 = CARTESIAN_POINT('', (6.61725768820564E-17, -3.6, 2.09832151654155E-14));
#173 = CARTESIAN_POINT('', (-3.6, -3.6, 2.09832151654155E-14));
#174 = CARTESIAN_POINT('', (-3.6, 2.20436423846524E-16, 0.));
#175 = ADVANCED_FACE('', (#176), #179, .T.);
#176 = FACE_OUTER_BOUND('', #177, .T.);
#177 = EDGE_LOOP('', (#178));
#178 = ORIENTED_EDGE('', *, *, #142, .F.);
#179 = B_SPLINE_SURFACE_WITH_KNOTS('', 1, 1, ((#180, #181), (#182, #183)), .UNSPECIFIED., .F., .F., .U., (2, 2), (2, 2), (2.00028570699746, 9.20028570699746), (2.00028570699746, 9.20028570699746), .UNSPECIFIED.);
#180 = CARTESIAN_POINT('', (3.6, -3.6, 6.88499093375446E-15));
#181 = CARTESIAN_POINT('', (-3.6, -3.6, -7.32586378144752E-15));
#182 = CARTESIAN_POINT('', (3.6, 3.6, 7.3258637814475E-15));
#183 = CARTESIAN_POINT('', (-3.6, 3.6, -6.88499093375447E-15));
#184 = ADVANCED_FACE('', (#185), #196, .T.);
#185 = FACE_OUTER_BOUND('', #186, .T.);
#186 = EDGE_LOOP('', (#187, #193, #194, #195));
#187 = ORIENTED_EDGE('', *, *, #188, .T.);
#188 = EDGE_CURVE('', #94, #133, #189, .T.);
#189 = LINE('', #190, #191);
#190 = CARTESIAN_POINT('', (-4., 2.43521016010451E-15, -35.77));
#191 = VECTOR('', #192, 35.37);
#192 = DIRECTION('', (0., -2.16578786429209E-15, 35.37));
#193 = ORIENTED_EDGE('', *, *, #150, .T.);
#194 = ORIENTED_EDGE('', *, *, #188, .F.);
#195 = ORIENTED_EDGE('', *, *, #101, .F.);
#196 = (
   BOUNDED_SURFACE ()
   B_SPLINE_SURFACE (1, 2, ((#197, #198, #199, #200, #201, #202, #203, #204, #205), (#206, #207, #208, #209, #210, #211, #212, #213, #214)), .UNSPECIFIED., .F., .T., .U.)
   B_SPLINE_SURFACE_WITH_KNOTS ((2, 2), (3, 2, 2, 2, 3), (0., 1.), (0., 6.28318530717958, 12.5663706143592, 18.8495559215387, 25.1327412287183), .UNSPECIFIED.)
   GEOMETRIC_REPRESENTATION_ITEM ()
   RATIONAL_B_SPLINE_SURFACE (((1., 0.707106781186548, 1., 0.707106781186548, 1., 0.707106781186548, 1., 0.707106781186548, 1.), (1., 0.707106781186548, 1., 0.707106781186548, 1., 0.707106781186548, 1., 0.707106781186548, 1.)))
   REPRESENTATION_ITEM ('')
   SURFACE ()
);
#197 = CARTESIAN_POINT('', (-4., 2.2678237401377E-15, -35.77));
#198 = CARTESIAN_POINT('', (-4., 4., -35.77));
#199 = CARTESIAN_POINT('', (3.80077777636734E-15, 4., -35.77));
#200 = CARTESIAN_POINT('', (4., 4., -35.77));
#201 = CARTESIAN_POINT('', (4., -2.2365278600354E-16, -35.77));
#202 = CARTESIAN_POINT('', (4., -4., -35.77));
#203 = CARTESIAN_POINT('', (1.79915996988504E-15, -4., -35.77));
#204 = CARTESIAN_POINT('', (-4., -4., -35.77));
#205 = CARTESIAN_POINT('', (-4., 2.2678237401377E-15, -35.77));
#206 = CARTESIAN_POINT('', (-4., 2.69422295812418E-16, -0.399999999999999));
#207 = CARTESIAN_POINT('', (-4., 4., -0.399999999999999));
#208 = CARTESIAN_POINT('', (2.32820571208015E-15, 4., -0.399999999999999));
#209 = CARTESIAN_POINT('', (4., 4., -0.399999999999998));
#210 = CARTESIAN_POINT('', (4., -2.22205423032882E-15, -0.399999999999999));
#211 = CARTESIAN_POINT('', (4., -4., -0.399999999999999));
#212 = CARTESIAN_POINT('', (3.2658790559785E-16, -4., -0.399999999999999));
#213 = CARTESIAN_POINT('', (-4., -4., -0.399999999999999));
#214 = CARTESIAN_POINT('', (-4., 2.69422295812418E-16, -0.399999999999999));
#215 = ADVANCED_FACE('', (#216), #219, .T.);
#216 = FACE_OUTER_BOUND('', #217, .T.);
#217 = EDGE_LOOP('', (#218));
#218 = ORIENTED_EDGE('', *, *, #25, .T.);
#219 = B_SPLINE_SURFACE_WITH_KNOTS('', 1, 1, ((#220, #221), (#222, #223)), .UNSPECIFIED., .F., .F., .U., (2, 2), (2, 2), (62.991944373445, 70.991944373445), (57.0236875782826, 65.0236875782826), .UNSPECIFIED.);
#220 = CARTESIAN_POINT('', (-4.00000000000001, 4., -55.));
#221 = CARTESIAN_POINT('', (-4.00000000000001, -4., -55.));
#222 = CARTESIAN_POINT('', (3.99999999999999, 4., -55.));
#223 = CARTESIAN_POINT('', (3.99999999999999, -4., -55.));
#224 = DRAUGHTING_MODEL('', (#232, #340, #380, #385, #390, #395, #400), #414);
#225 = PRESENTATION_STYLE_ASSIGNMENT((#226));
#226 = SURFACE_STYLE_USAGE(.POSITIVE., #227);
#227 = SURFACE_SIDE_STYLE('', (#228));
#228 = SURFACE_STYLE_FILL_AREA(#229);
#229 = FILL_AREA_STYLE('', (#230));
#230 = FILL_AREA_STYLE_COLOUR('', #231);
#231 = COLOUR_RGB('', 0.50196078431373, 0.50196078431373, 0.50196078431373);
#232 = STYLED_ITEM('', (#225), #1);
#233 = MANIFOLD_SOLID_BREP('CUT', #234);
#234 = CLOSED_SHELL('', (#235, #252, #291));
#235 = ADVANCED_FACE('', (#236), #247, .T.);
#236 = FACE_OUTER_BOUND('', #237, .T.);
#237 = EDGE_LOOP('', (#238));
#238 = ORIENTED_EDGE('', *, *, #239, .F.);
#239 = EDGE_CURVE('', #240, #240, #242, .T.);
#240 = VERTEX_POINT('', #241);
#241 = CARTESIAN_POINT('', (-4., 3.61270805748469E-15, -55.));
#242 = CIRCLE('', #243, 4.);
#243 = AXIS2_PLACEMENT_3D('', #244, #245, #246);
#244 = CARTESIAN_POINT('', (8.18789480661053E-16, 4.44089209850063E-16, -55.));
#245 = DIRECTION('', (-1.77635683940025E-15, 5.77905114400177E-15, -1.));
#246 = DIRECTION('', (-1., 5.47225352079187E-16, 1.77635683940025E-15));
#247 = B_SPLINE_SURFACE_WITH_KNOTS('', 1, 1, ((#248, #249), (#250, #251)), .UNSPECIFIED., .F., .F., .U., (2, 2), (2, 2), (57.0236875782825, 65.0236875782825), (62.991944373445, 70.991944373445), .UNSPECIFIED.);
#248 = CARTESIAN_POINT('', (-4., 4., -55.));
#249 = CARTESIAN_POINT('', (4., 4., -55.));
#250 = CARTESIAN_POINT('', (-4., -4., -55.));
#251 = CARTESIAN_POINT('', (4., -4., -55.));
#252 = ADVANCED_FACE('', (#253), #272, .T.);
#253 = FACE_OUTER_BOUND('', #254, .T.);
#254 = EDGE_LOOP('', (#255, #263, #264, #265));
#255 = ORIENTED_EDGE('', *, *, #256, .F.);
#256 = EDGE_CURVE('', #240, #257, #259, .T.);
#257 = VERTEX_POINT('', #258);
#258 = CARTESIAN_POINT('', (-4., 3.85763741731416E-15, -59.));
#259 = LINE('', #260, #261);
#260 = CARTESIAN_POINT('', (-4., 3.61270805748469E-15, -55.));
#261 = VECTOR('', #262, 4.);
#262 = DIRECTION('', (0., 2.4492935982947E-16, -4.));
#263 = ORIENTED_EDGE('', *, *, #239, .T.);
#264 = ORIENTED_EDGE('', *, *, #256, .T.);
#265 = ORIENTED_EDGE('', *, *, #266, .F.);
#266 = EDGE_CURVE('', #257, #257, #267, .T.);
#267 = CIRCLE('', #268, 4.);
#268 = AXIS2_PLACEMENT_3D('', #269, #270, #271);
#269 = CARTESIAN_POINT('', (8.60422844084496E-16, 1.88737914186277E-15, -59.));
#270 = DIRECTION('', (0., 0., -1.));
#271 = DIRECTION('', (-1., 4.92564568862848E-16, 0.));
#272 = (
   BOUNDED_SURFACE ()
   B_SPLINE_SURFACE (2, 1, ((#273, #274), (#275, #276), (#277, #278), (#279, #280), (#281, #282), (#283, #284), (#285, #286), (#287, #288), (#289, #290)), .UNSPECIFIED., .T., .F., .U.)
   B_SPLINE_SURFACE_WITH_KNOTS ((3, 2, 2, 2, 3), (2, 2), (0., 6.28318530717958, 12.5663706143592, 18.8495559215387, 25.1327412287183), (0., 1.), .UNSPECIFIED.)
   GEOMETRIC_REPRESENTATION_ITEM ()
   RATIONAL_B_SPLINE_SURFACE (((1., 1.), (0.707106781186548, 0.707106781186548), (1., 1.), (0.707106781186548, 0.707106781186548), (1., 1.), (0.707106781186548, 0.707106781186548), (1., 1.), (0.707106781186548, 0.707106781186548), (1., 1.)))
   REPRESENTATION_ITEM ('')
   SURFACE ()
);
#273 = CARTESIAN_POINT('', (-4., 3.61270805748469E-15, -55.));
#274 = CARTESIAN_POINT('', (-4., 3.94577496487224E-15, -59.));
#275 = CARTESIAN_POINT('', (-4., 4., -55.));
#276 = CARTESIAN_POINT('', (-4., 4., -59.));
#277 = CARTESIAN_POINT('', (4.10330145146938E-15, 4., -55.));
#278 = CARTESIAN_POINT('', (4.10330145146939E-15, 4., -59.));
#279 = CARTESIAN_POINT('', (4., 4., -55.));
#280 = CARTESIAN_POINT('', (4., 4., -59.));
#281 = CARTESIAN_POINT('', (4., -2.23467091812562E-15, -55.));
#282 = CARTESIAN_POINT('', (4., -1.90160401073808E-15, -59.));
#283 = CARTESIAN_POINT('', (4., -4., -55.));
#284 = CARTESIAN_POINT('', (4., -4., -59.));
#285 = CARTESIAN_POINT('', (-1.25421880448199E-15, -4., -55.));
#286 = CARTESIAN_POINT('', (-1.25421880448199E-15, -4., -59.));
#287 = CARTESIAN_POINT('', (-4., -4., -55.));
#288 = CARTESIAN_POINT('', (-4., -4., -59.));
#289 = CARTESIAN_POINT('', (-4., 3.61270805748469E-15, -55.));
#290 = CARTESIAN_POINT('', (-4., 3.94577496487224E-15, -59.));
#291 = ADVANCED_FACE('', (#292), #305, .T.);
#292 = FACE_OUTER_BOUND('', #293, .T.);
#293 = EDGE_LOOP('', (#294, #303, #304));
#294 = ORIENTED_EDGE('', *, *, #295, .F.);
#295 = EDGE_CURVE('', #257, #296, #298, .T.);
#296 = VERTEX_POINT('', #297);
#297 = CARTESIAN_POINT('', (1.17887728933847E-15, 3.85763741731416E-15, -63.));
#298 = CIRCLE('', #299, 3.99999999999999);
#299 = AXIS2_PLACEMENT_3D('', #300, #301, #302);
#300 = CARTESIAN_POINT('', (-7.99360577730113E-15, 3.61270805748468E-15, -59.));
#301 = DIRECTION('', (-6.12323399573695E-17, -1., -6.12323399573696E-17));
#302 = DIRECTION('', (-1., 6.12323399573695E-17, 0.));
#303 = ORIENTED_EDGE('', *, *, #266, .T.);
#304 = ORIENTED_EDGE('', *, *, #295, .T.);
#305 = (
   BOUNDED_SURFACE ()
   B_SPLINE_SURFACE (2, 2, ((#306, #307, #308), (#309, #310, #311), (#312, #313, #314), (#315, #316, #317), (#318, #319, #320), (#321, #322, #323), (#324, #325, #326), (#327, #328, #329), (#330, #331, #332)), .UNSPECIFIED., .T., .F., .U.)
   B_SPLINE_SURFACE_WITH_KNOTS ((3, 2, 2, 2, 3), (3, 3), (0., 0.25, 0.5, 0.75, 1.), (0., 1.), .UNSPECIFIED.)
   GEOMETRIC_REPRESENTATION_ITEM ()
   RATIONAL_B_SPLINE_SURFACE (((1., 0.707106781186548, 1.), (0.707106781186548, 0.5, 0.707106781186548), (1., 0.707106781186548, 1.), (0.707106781186548, 0.5, 0.707106781186548), (1., 0.707106781186548, 1.), (0.707106781186548, 0.5, 0.707106781186548), (1., 0.707106781186548, 1.), (0.707106781186548, 0.5, 0.707106781186548), (1., 0.707106781186548, 1.)))
   REPRESENTATION_ITEM ('')
   SURFACE ()
);
#306 = CARTESIAN_POINT('', (-4., 3.85763741731416E-15, -59.));
#307 = CARTESIAN_POINT('', (-4., 4.10256677714363E-15, -63.));
#308 = CARTESIAN_POINT('', (1.17887728933847E-15, 3.85763741731416E-15, -63.));
#309 = CARTESIAN_POINT('', (-4., 3.99999999999997, -59.));
#310 = CARTESIAN_POINT('', (-4., 3.99999999999997, -63.));
#311 = CARTESIAN_POINT('', (1.17887728933847E-15, 3.85763741731416E-15, -63.));
#312 = CARTESIAN_POINT('', (-3.33066907387547E-14, 3.99999999999997, -59.));
#313 = CARTESIAN_POINT('', (-3.30617613789252E-14, 3.99999999999997, -63.));
#314 = CARTESIAN_POINT('', (1.17887728933847E-15, 3.85763741731416E-15, -63.));
#315 = CARTESIAN_POINT('', (3.99999999999993, 3.99999999999997, -59.));
#316 = CARTESIAN_POINT('', (3.99999999999993, 3.99999999999997, -63.));
#317 = CARTESIAN_POINT('', (1.17887728933847E-15, 3.85763741731416E-15, -63.));
#318 = CARTESIAN_POINT('', (3.99999999999993, 3.85763741731416E-15, -59.));
#319 = CARTESIAN_POINT('', (3.99999999999993, 3.61270805748469E-15, -63.));
#320 = CARTESIAN_POINT('', (1.17887728933847E-15, 3.85763741731416E-15, -63.));
#321 = CARTESIAN_POINT('', (3.99999999999993, -3.99999999999996, -59.));
#322 = CARTESIAN_POINT('', (3.99999999999993, -3.99999999999996, -63.));
#323 = CARTESIAN_POINT('', (1.17887728933847E-15, 3.85763741731416E-15, -63.));
#324 = CARTESIAN_POINT('', (-3.28168320190958E-14, -3.99999999999996, -59.));
#325 = CARTESIAN_POINT('', (-3.30617613789252E-14, -3.99999999999996, -63.));
#326 = CARTESIAN_POINT('', (1.17887728933847E-15, 3.85763741731416E-15, -63.));
#327 = CARTESIAN_POINT('', (-4., -3.99999999999996, -59.));
#328 = CARTESIAN_POINT('', (-4., -3.99999999999996, -63.));
#329 = CARTESIAN_POINT('', (1.17887728933847E-15, 3.85763741731416E-15, -63.));
#330 = CARTESIAN_POINT('', (-4., 3.85763741731416E-15, -59.));
#331 = CARTESIAN_POINT('', (-4., 4.10256677714363E-15, -63.));
#332 = CARTESIAN_POINT('', (1.17887728933847E-15, 3.85763741731416E-15, -63.));
#333 = PRESENTATION_STYLE_ASSIGNMENT((#334));
#334 = SURFACE_STYLE_USAGE(.POSITIVE., #335);
#335 = SURFACE_SIDE_STYLE('', (#336));
#336 = SURFACE_STYLE_FILL_AREA(#337);
#337 = FILL_AREA_STYLE('', (#338));
#338 = FILL_AREA_STYLE_COLOUR('', #339);
#339 = COLOUR_RGB('', 0.8, 0.8, 0.8);
#340 = STYLED_ITEM('', (#333), #233);
#341 = TRIMMED_CURVE('cutting part line', #342, (#346), (#347), .T., .CARTESIAN.);
#342 = LINE('', #343, #344);
#343 = CARTESIAN_POINT('', (-6.18650910348016E-31, -3.36777869765522E-15, -55.));
#344 = VECTOR('', #345, 4.);
#345 = DIRECTION('', (4., -7.34788079488411E-16, 0.));
#346 = CARTESIAN_POINT('', (-6.18650910348016E-31, -3.36777869765522E-15, -55.));
#347 = CARTESIAN_POINT('', (4., -4.10256677714363E-15, -55.));
#348 = TRIMMED_CURVE('cutting part line', #349, (#353), (#354), .T., .CARTESIAN.);
#349 = LINE('', #350, #351);
#350 = CARTESIAN_POINT('', (4., -4.10256677714363E-15, -55.));
#351 = VECTOR('', #352, 4.);
#352 = DIRECTION('', (0., -2.4492935982947E-16, -4.));
#353 = CARTESIAN_POINT('', (4., -4.10256677714363E-15, -55.));
#354 = CARTESIAN_POINT('', (4., -4.3474961369731E-15, -59.));
#355 = TRIMMED_CURVE('cutting part line', #356, (#361), (#362), .T., .CARTESIAN.);
#356 = CIRCLE('', #357, 3.99999999999998);
#357 = AXIS2_PLACEMENT_3D('', #358, #359, #360);
#358 = CARTESIAN_POINT('', (1.59872115546023E-14, -3.6127080574847E-15, -59.));
#359 = DIRECTION('', (1.83697019872102E-16, 1., -6.12323399573671E-17));
#360 = DIRECTION('', (1., -1.83697019872102E-16, 3.55271367880052E-15));
#361 = CARTESIAN_POINT('', (4., -4.3474961369731E-15, -59.));
#362 = CARTESIAN_POINT('', (-1.53142747957064E-15, -3.85763741731416E-15, -63.));
#363 = TRIMMED_CURVE('cutting part line', #364, (#368), (#369), .T., .CARTESIAN.);
#364 = LINE('', #365, #366);
#365 = CARTESIAN_POINT('', (-7.08636497307728E-31, -3.85763741731416E-15, -63.));
#366 = VECTOR('', #367, 8.);
#367 = DIRECTION('', (8.99855869597122E-32, 4.8985871965894E-16, 8.));
#368 = CARTESIAN_POINT('', (-7.08636497307728E-31, -3.85763741731416E-15, -63.));
#369 = CARTESIAN_POINT('', (-6.18650910348016E-31, -3.36777869765522E-15, -55.));
#370 = COMPOSITE_CURVE('cutting part line', (#371, #372, #373, #374), .U.);
#371 = COMPOSITE_CURVE_SEGMENT(.CONTINUOUS., .T., #341);
#372 = COMPOSITE_CURVE_SEGMENT(.CONTINUOUS., .T., #348);
#373 = COMPOSITE_CURVE_SEGMENT(.CONTINUOUS., .T., #355);
#374 = COMPOSITE_CURVE_SEGMENT(.CONTINUOUS., .T., #363);
#375 = GEOMETRIC_SET('', (#370, #413));
#376 = PRESENTATION_STYLE_ASSIGNMENT((#377));
#377 = CURVE_STYLE('', #379, POSITIVE_LENGTH_MEASURE(1.E-6), #378);
#378 = COLOUR_RGB('', 0., 0., 1.);
#379 = DRAUGHTING_PRE_DEFINED_CURVE_FONT('continuous');
#380 = STYLED_ITEM('', (#376), #370);
#381 = PRESENTATION_STYLE_ASSIGNMENT((#382));
#382 = CURVE_STYLE('', #384, POSITIVE_LENGTH_MEASURE(1.E-6), #383);
#383 = COLOUR_RGB('', 0., 0., 1.);
#384 = DRAUGHTING_PRE_DEFINED_CURVE_FONT('continuous');
#385 = OVER_RIDING_STYLED_ITEM('', (#381), #341, #380);
#386 = PRESENTATION_STYLE_ASSIGNMENT((#387));
#387 = CURVE_STYLE('', #389, POSITIVE_LENGTH_MEASURE(1.E-6), #388);
#388 = COLOUR_RGB('', 0., 0., 1.);
#389 = DRAUGHTING_PRE_DEFINED_CURVE_FONT('continuous');
#390 = OVER_RIDING_STYLED_ITEM('', (#386), #348, #380);
#391 = PRESENTATION_STYLE_ASSIGNMENT((#392));
#392 = CURVE_STYLE('', #394, POSITIVE_LENGTH_MEASURE(1.E-6), #393);
#393 = COLOUR_RGB('', 0., 0., 1.);
#394 = DRAUGHTING_PRE_DEFINED_CURVE_FONT('continuous');
#395 = OVER_RIDING_STYLED_ITEM('', (#391), #355, #380);
#396 = PRESENTATION_STYLE_ASSIGNMENT((#397));
#397 = CURVE_STYLE('', #399, POSITIVE_LENGTH_MEASURE(1.E-6), #398);
#398 = COLOUR_RGB('', 0., 0., 1.);
#399 = DRAUGHTING_PRE_DEFINED_CURVE_FONT('continuous');
#400 = OVER_RIDING_STYLED_ITEM('', (#396), #363, #380);
#401 = AXIS2_PLACEMENT_3D('CIP', #402, #403, #404);
#402 = CARTESIAN_POINT('', (2.36212165769243E-31, 3.85763741731416E-15, -63.));
#403 = DIRECTION('', (-3.74939945665465E-33, -6.12323399573677E-17, 1.));
#404 = DIRECTION('', (1., -6.12323399573677E-17, 0.));
#405 = AXIS2_PLACEMENT_3D('MCS', #406, #407, #408);
#406 = CARTESIAN_POINT('', (1.34116018564537E-31, 2.19028080027504E-15, -35.77));
#407 = DIRECTION('', (-3.74939945665465E-33, -6.12323399573677E-17, 1.));
#408 = DIRECTION('', (1., -6.12323399573677E-17, 0.));
#409 = AXIS2_PLACEMENT_3D('PCS', #410, #411, #412);
#410 = CARTESIAN_POINT('', (0., 0., 0.));
#411 = DIRECTION('', (0., 0., 1.));
#412 = DIRECTION('', (1., 0., 0.));
#413 = CARTESIAN_POINT('CRP', (4., 0., -63.));
#414 = (
   GEOMETRIC_REPRESENTATION_CONTEXT (3)
   GLOBAL_UNCERTAINTY_ASSIGNED_CONTEXT ((#416))
   GLOBAL_UNIT_ASSIGNED_CONTEXT ((#415, #417, #418))
   REPRESENTATION_CONTEXT ('', '3D')
);
#415 = (
   LENGTH_UNIT ()
   NAMED_UNIT (*)
   SI_UNIT (.MILLI., .METRE.)
);
#416 = UNCERTAINTY_MEASURE_WITH_UNIT(LENGTH_MEASURE(1.E-6), #415, 'DISTANCE_ACCURACY_VALUE', '');
#417 = (
   NAMED_UNIT (*)
   SI_UNIT ($, .STERADIAN.)
   SOLID_ANGLE_UNIT ()
);
#418 = (
   NAMED_UNIT (*)
   PLANE_ANGLE_UNIT ()
   SI_UNIT ($, .RADIAN.)
);
#419 = SHAPE_REPRESENTATION('', (), #414);
#420 = PRODUCT_DEFINITION_SHAPE('', '', #421);
#421 = PRODUCT_DEFINITION('', '', #424, #428);
#422 = APPLICATION_CONTEXT('configuration controlled 3D designs of mechanical parts and assemblies');
#423 = APPLICATION_PROTOCOL_DEFINITION('International Standard', 'automotive_design', 2002, #422);
#424 = PRODUCT_DEFINITION_FORMATION_WITH_SPECIFIED_SOURCE('', '', #425, .NOT_KNOWN.);
#425 = PRODUCT('EmptyName', 'EmptyName', '', (#426));
#426 = PRODUCT_CONTEXT('', #422, 'mechanical');
#427 = PRODUCT_RELATED_PRODUCT_CATEGORY('detail', '', (#425));
#428 = PRODUCT_DEFINITION_CONTEXT('part definition', #422, 'design');
#429 = SHAPE_DEFINITION_REPRESENTATION(#420, #419);
#430 = CONSTRUCTIVE_GEOMETRY_REPRESENTATION('supplemental geometry', (#401, #405, #409), #414);
#431 = CONSTRUCTIVE_GEOMETRY_REPRESENTATION_RELATIONSHIP('', '', #419, #430);
#432 = SHAPE_REPRESENTATION_RELATIONSHIP('', '', #419, #433);
#433 = SHAPE_REPRESENTATION('', (#375), #414);
#434 = SHAPE_REPRESENTATION_RELATIONSHIP('', '', #419, #435);
#435 = ADVANCED_BREP_SHAPE_REPRESENTATION('', (#1, #233), #414);
ENDSEC;
END-ISO-10303-21;
