ISO-10303-21;
HEADER;
FILE_DESCRIPTION(('STEP'), '1');
FILE_NAME('C:\\Users\\ds2002\\OneDrive - Sandvik\\HomeShare\\Documents\\Batchrepair\\CorSRT2\\NEW_MILBN_SLD\\Output2\\MOD000000000000000020084649800000.stp', '2018-11-23T12:39:26', (''), (''), 'Express v3.0.0.0', 'Express Tool', 'Unknown');
FILE_SCHEMA(('AUTOMOTIVE_DESIGN'));
ENDSEC;

DATA;
#1 = MANIFOLD_SOLID_BREP('NOCUT', #2);
#2 = CLOSED_SHELL('', (#3, #50, #89, #128, #175, #184, #215));
#3 = ADVANCED_FACE('', (#4), #31, .T.);
#4 = FACE_OUTER_BOUND('', #5, .T.);
#5 = EDGE_LOOP('', (#6, #16, #23, #24));
#6 = ORIENTED_EDGE('', *, *, #7, .F.);
#7 = EDGE_CURVE('', #8, #10, #12, .T.);
#8 = VERTEX_POINT('', #9);
#9 = CARTESIAN_POINT('', (-5.7, 4.670802891948E-15, -70.58));
#10 = VERTEX_POINT('', #11);
#11 = CARTESIAN_POINT('', (-6., 4.71489017671731E-15, -71.));
#12 = LINE('', #13, #14);
#13 = CARTESIAN_POINT('', (-5.7, 4.670802891948E-15, -70.58));
#14 = VECTOR('', #15, 0.516139516022559);
#15 = DIRECTION('', (-0.3, 4.40872847693102E-17, -0.420000000000002));
#16 = ORIENTED_EDGE('', *, *, #17, .T.);
#17 = EDGE_CURVE('', #8, #8, #18, .T.);
#18 = CIRCLE('', #19, 5.7);
#19 = AXIS2_PLACEMENT_3D('', #20, #21, #22);
#20 = CARTESIAN_POINT('', (6.38378239159465E-16, 3.66373598126302E-15, -70.58));
#21 = DIRECTION('', (0., 0., -1.));
#22 = DIRECTION('', (-1., 1.7667840538333E-16, 0.));
#23 = ORIENTED_EDGE('', *, *, #7, .T.);
#24 = ORIENTED_EDGE('', *, *, #25, .F.);
#25 = EDGE_CURVE('', #10, #10, #26, .T.);
#26 = CIRCLE('', #27, 6.);
#27 = AXIS2_PLACEMENT_3D('', #28, #29, #30);
#28 = CARTESIAN_POINT('', (-1.19348975147204E-15, 3.44169137633799E-15, -71.));
#29 = DIRECTION('', (0., 0., -1.));
#30 = DIRECTION('', (-1., -3.27295597662492E-17, 0.));
#31 = (
   BOUNDED_SURFACE ()
   B_SPLINE_SURFACE (2, 1, ((#32, #33), (#34, #35), (#36, #37), (#38, #39), (#40, #41), (#42, #43), (#44, #45), (#46, #47), (#48, #49)), .UNSPECIFIED., .T., .F., .U.)
   B_SPLINE_SURFACE_WITH_KNOTS ((3, 2, 2, 2, 3), (2, 2), (0., 0.25, 0.5, 0.75, 1.), (0., 1.), .UNSPECIFIED.)
   GEOMETRIC_REPRESENTATION_ITEM ()
   RATIONAL_B_SPLINE_SURFACE (((1., 1.), (0.707106781186548, 0.707106781186548), (1., 1.), (0.707106781186548, 0.707106781186548), (1., 1.), (0.707106781186548, 0.707106781186548), (1., 1.), (0.707106781186548, 0.707106781186548), (1., 1.)))
   REPRESENTATION_ITEM ('')
   SURFACE ()
);
#32 = CARTESIAN_POINT('', (-5.7, 4.670802891948E-15, -70.58));
#33 = CARTESIAN_POINT('', (-6., 7.04358820712188E-15, -71.));
#34 = CARTESIAN_POINT('', (-5.7, 5.7, -70.58));
#35 = CARTESIAN_POINT('', (-6., 6.00000000000001, -71.));
#36 = CARTESIAN_POINT('', (2.37888826109698E-15, 5.7, -70.58));
#37 = CARTESIAN_POINT('', (2.51285782503334E-15, 6., -71.));
#38 = CARTESIAN_POINT('', (5.7, 5.7, -70.58));
#39 = CARTESIAN_POINT('', (6., 6., -71.));
#40 = CARTESIAN_POINT('', (5.7, -4.20040537633508E-16, -70.58));
#41 = CARTESIAN_POINT('', (6., 1.68480564966766E-15, -71.));
#42 = CARTESIAN_POINT('', (5.7, -5.7, -70.58));
#43 = CARTESIAN_POINT('', (6., -6., -71.));
#44 = CARTESIAN_POINT('', (-2.01390649297054E-15, -5.7, -70.58));
#45 = CARTESIAN_POINT('', (-2.11113665293247E-15, -6., -71.));
#46 = CARTESIAN_POINT('', (-5.7, -5.7, -70.58));
#47 = CARTESIAN_POINT('', (-6., -6., -71.));
#48 = CARTESIAN_POINT('', (-5.7, 4.670802891948E-15, -70.58));
#49 = CARTESIAN_POINT('', (-6., 7.04358820712188E-15, -71.));
#50 = ADVANCED_FACE('', (#51), #70, .T.);
#51 = FACE_OUTER_BOUND('', #52, .T.);
#52 = EDGE_LOOP('', (#53, #61, #68, #69));
#53 = ORIENTED_EDGE('', *, *, #54, .F.);
#54 = EDGE_CURVE('', #55, #8, #57, .T.);
#55 = VERTEX_POINT('', #56);
#56 = CARTESIAN_POINT('', (-5.7, 3.22694431575328E-15, -47.));
#57 = LINE('', #58, #59);
#58 = CARTESIAN_POINT('', (-5.7, 3.22694431575328E-15, -47.));
#59 = VECTOR('', #60, 23.58);
#60 = DIRECTION('', (0., 1.44385857619472E-15, -23.58));
#61 = ORIENTED_EDGE('', *, *, #62, .T.);
#62 = EDGE_CURVE('', #55, #55, #63, .T.);
#63 = CIRCLE('', #64, 5.7);
#64 = AXIS2_PLACEMENT_3D('', #65, #66, #67);
#65 = CARTESIAN_POINT('', (1.41553435639707E-15, 5.55111512312578E-16, -47.));
#66 = DIRECTION('', (0., 0., -1.));
#67 = DIRECTION('', (-1., 4.6874259709486E-16, 0.));
#68 = ORIENTED_EDGE('', *, *, #54, .T.);
#69 = ORIENTED_EDGE('', *, *, #17, .F.);
#70 = (
   BOUNDED_SURFACE ()
   B_SPLINE_SURFACE (2, 1, ((#71, #72), (#73, #74), (#75, #76), (#77, #78), (#79, #80), (#81, #82), (#83, #84), (#85, #86), (#87, #88)), .UNSPECIFIED., .T., .F., .U.)
   B_SPLINE_SURFACE_WITH_KNOTS ((3, 2, 2, 2, 3), (2, 2), (0., 8.95353906273093, 17.9070781254619, 26.8606171881928, 35.8141562509237), (0., 1.), .UNSPECIFIED.)
   GEOMETRIC_REPRESENTATION_ITEM ()
   RATIONAL_B_SPLINE_SURFACE (((1., 1.), (0.707106781186548, 0.707106781186548), (1., 1.), (0.707106781186548, 0.707106781186548), (1., 1.), (0.707106781186548, 0.707106781186548), (1., 1.), (0.707106781186548, 0.707106781186548), (1., 1.)))
   REPRESENTATION_ITEM ('')
   SURFACE ()
);
#71 = CARTESIAN_POINT('', (-5.7, 3.22694431575328E-15, -47.));
#72 = CARTESIAN_POINT('', (-5.7, 1.78365438374058E-15, -70.58));
#73 = CARTESIAN_POINT('', (-5.7, 5.7, -47.));
#74 = CARTESIAN_POINT('', (-5.7, 5.7, -70.58));
#75 = CARTESIAN_POINT('', (-1.00786060819176E-15, 5.7, -47.));
#76 = CARTESIAN_POINT('', (-1.00786060819176E-15, 5.7, -70.58));
#77 = CARTESIAN_POINT('', (5.7, 5.7, -47.));
#78 = CARTESIAN_POINT('', (5.7, 5.7, -70.58));
#79 = CARTESIAN_POINT('', (5.7, 5.46471013706184E-15, -47.));
#80 = CARTESIAN_POINT('', (5.7, 4.02142020504913E-15, -70.58));
#81 = CARTESIAN_POINT('', (5.7, -5.69999999999999, -47.));
#82 = CARTESIAN_POINT('', (5.7, -5.69999999999999, -70.58));
#83 = CARTESIAN_POINT('', (1.92795388863079E-15, -5.7, -47.));
#84 = CARTESIAN_POINT('', (1.92795388863079E-15, -5.7, -70.58));
#85 = CARTESIAN_POINT('', (-5.7, -5.7, -47.));
#86 = CARTESIAN_POINT('', (-5.7, -5.7, -70.58));
#87 = CARTESIAN_POINT('', (-5.7, 3.22694431575328E-15, -47.));
#88 = CARTESIAN_POINT('', (-5.7, 1.78365438374058E-15, -70.58));
#89 = ADVANCED_FACE('', (#90), #109, .T.);
#90 = FACE_OUTER_BOUND('', #91, .T.);
#91 = EDGE_LOOP('', (#92, #100, #107, #108));
#92 = ORIENTED_EDGE('', *, *, #93, .F.);
#93 = EDGE_CURVE('', #94, #55, #96, .T.);
#94 = VERTEX_POINT('', #95);
#95 = CARTESIAN_POINT('', (-6., 3.2146978477618E-15, -46.5));
#96 = LINE('', #97, #98);
#97 = CARTESIAN_POINT('', (-6., 3.2146978477618E-15, -46.5));
#98 = VECTOR('', #99, 0.58309518948453);
#99 = DIRECTION('', (0.3, 1.22464679914801E-17, -0.5));
#100 = ORIENTED_EDGE('', *, *, #101, .T.);
#101 = EDGE_CURVE('', #94, #94, #102, .T.);
#102 = CIRCLE('', #103, 6.);
#103 = AXIS2_PLACEMENT_3D('', #104, #105, #106);
#104 = CARTESIAN_POINT('', (-1.33226762955019E-15, 2.22044604925031E-16, -46.5));
#105 = DIRECTION('', (0., 0., -1.));
#106 = DIRECTION('', (-1., 4.98775540472795E-16, 0.));
#107 = ORIENTED_EDGE('', *, *, #93, .T.);
#108 = ORIENTED_EDGE('', *, *, #62, .F.);
#109 = (
   BOUNDED_SURFACE ()
   B_SPLINE_SURFACE (2, 1, ((#110, #111), (#112, #113), (#114, #115), (#116, #117), (#118, #119), (#120, #121), (#122, #123), (#124, #125), (#126, #127)), .UNSPECIFIED., .T., .F., .U.)
   B_SPLINE_SURFACE_WITH_KNOTS ((3, 2, 2, 2, 3), (2, 2), (0., 0.25, 0.5, 0.75, 1.), (0., 1.), .UNSPECIFIED.)
   GEOMETRIC_REPRESENTATION_ITEM ()
   RATIONAL_B_SPLINE_SURFACE (((1., 1.), (0.707106781186548, 0.707106781186548), (1., 1.), (0.707106781186548, 0.707106781186548), (1., 1.), (0.707106781186548, 0.707106781186548), (1., 1.), (0.707106781186548, 0.707106781186548), (1., 1.)))
   REPRESENTATION_ITEM ('')
   SURFACE ()
);
#110 = CARTESIAN_POINT('', (-6., 3.2146978477618E-15, -46.5));
#111 = CARTESIAN_POINT('', (-5.7, 3.95324360532009E-15, -47.));
#112 = CARTESIAN_POINT('', (-6., 6., -46.5));
#113 = CARTESIAN_POINT('', (-5.7, 5.7, -47.));
#114 = CARTESIAN_POINT('', (9.59924666154828E-16, 6., -46.5));
#115 = CARTESIAN_POINT('', (9.39684008462716E-16, 5.7, -47.));
#116 = CARTESIAN_POINT('', (6., 6., -46.5));
#117 = CARTESIAN_POINT('', (5.7, 5.7, -47.));
#118 = CARTESIAN_POINT('', (6., 2.4050715400773E-15, -46.5));
#119 = CARTESIAN_POINT('', (5.7, 3.18409861301981E-15, -47.));
#120 = CARTESIAN_POINT('', (6., -6., -46.5));
#121 = CARTESIAN_POINT('', (5.7, -5.7, -47.));
#122 = CARTESIAN_POINT('', (8.85086437958741E-16, -6., -46.5));
#123 = CARTESIAN_POINT('', (8.68587691676432E-16, -5.7, -47.));
#124 = CARTESIAN_POINT('', (-6., -6., -46.5));
#125 = CARTESIAN_POINT('', (-5.7, -5.7, -47.));
#126 = CARTESIAN_POINT('', (-6., 3.2146978477618E-15, -46.5));
#127 = CARTESIAN_POINT('', (-5.7, 3.95324360532009E-15, -47.));
#128 = ADVANCED_FACE('', (#129), #156, .T.);
#129 = FACE_OUTER_BOUND('', #130, .T.);
#130 = EDGE_LOOP('', (#131, #141, #148, #149));
#131 = ORIENTED_EDGE('', *, *, #132, .T.);
#132 = EDGE_CURVE('', #133, #135, #137, .T.);
#133 = VERTEX_POINT('', #134);
#134 = CARTESIAN_POINT('', (-6., 4.04133443718627E-16, -0.600000000000001));
#135 = VERTEX_POINT('', #136);
#136 = CARTESIAN_POINT('', (-5.4, 3.30654635769785E-16, 0.));
#137 = LINE('', #138, #139);
#138 = CARTESIAN_POINT('', (-6., 4.04133443718627E-16, -0.600000000000001));
#139 = VECTOR('', #140, 0.848528137423857);
#140 = DIRECTION('', (0.6, -7.3478807948842E-17, 0.600000000000001));
#141 = ORIENTED_EDGE('', *, *, #142, .T.);
#142 = EDGE_CURVE('', #135, #135, #143, .T.);
#143 = CIRCLE('', #144, 5.4);
#144 = AXIS2_PLACEMENT_3D('', #145, #146, #147);
#145 = CARTESIAN_POINT('', (6.93889390390723E-16, -1.11022302462516E-16, 1.23259516440783E-32));
#146 = DIRECTION('', (7.29090075504589E-33, 6.12323399573677E-17, -1.));
#147 = DIRECTION('', (-1., -1.63137334230896E-16, -1.72801814644108E-32));
#148 = ORIENTED_EDGE('', *, *, #132, .F.);
#149 = ORIENTED_EDGE('', *, *, #150, .F.);
#150 = EDGE_CURVE('', #133, #133, #151, .T.);
#151 = CIRCLE('', #152, 6.);
#152 = AXIS2_PLACEMENT_3D('', #153, #154, #155);
#153 = CARTESIAN_POINT('', (-1.22124532708767E-15, -2.1094237467878E-15, -0.600000000000001));
#154 = DIRECTION('', (-1.85037170770859E-17, 1.2317654765601E-16, -1.));
#155 = DIRECTION('', (-1., 1.73996838588266E-16, 1.85037170770859E-17));
#156 = (
   BOUNDED_SURFACE ()
   B_SPLINE_SURFACE (1, 2, ((#157, #158, #159, #160, #161, #162, #163, #164, #165), (#166, #167, #168, #169, #170, #171, #172, #173, #174)), .UNSPECIFIED., .F., .T., .U.)
   B_SPLINE_SURFACE_WITH_KNOTS ((2, 2), (3, 2, 2, 2, 3), (0., 1.), (0., 0.25, 0.5, 0.75, 1.), .UNSPECIFIED.)
   GEOMETRIC_REPRESENTATION_ITEM ()
   RATIONAL_B_SPLINE_SURFACE (((1., 0.707106781186548, 1., 0.707106781186548, 1., 0.707106781186548, 1., 0.707106781186548, 1.), (1., 0.707106781186548, 1., 0.707106781186548, 1., 0.707106781186548, 1., 0.707106781186548, 1.)))
   REPRESENTATION_ITEM ('')
   SURFACE ()
);
#157 = CARTESIAN_POINT('', (-6., 2.98258605330568E-15, -0.600000000000001));
#158 = CARTESIAN_POINT('', (-6., 6., -0.599999999999978));
#159 = CARTESIAN_POINT('', (4.68298239692583E-15, 6., -0.599999999999978));
#160 = CARTESIAN_POINT('', (6., 6., -0.599999999999978));
#161 = CARTESIAN_POINT('', (6., -2.69188718366733E-15, -0.600000000000001));
#162 = CARTESIAN_POINT('', (6., -6., -0.600000000000024));
#163 = CARTESIAN_POINT('', (-2.56702760558774E-16, -6., -0.600000000000024));
#164 = CARTESIAN_POINT('', (-6., -6., -0.600000000000024));
#165 = CARTESIAN_POINT('', (-6., 2.98258605330568E-15, -0.600000000000001));
#166 = CARTESIAN_POINT('', (-5.4, 3.30654635769784E-16, -6.56858655152258E-47));
#167 = CARTESIAN_POINT('', (-5.4, 5.4, 2.09832151654154E-14));
#168 = CARTESIAN_POINT('', (4.39925873507718E-15, 5.4, 2.09832151654154E-14));
#169 = CARTESIAN_POINT('', (5.4, 5.4, 2.09832151654154E-14));
#170 = CARTESIAN_POINT('', (5.4, -4.77637127750593E-15, 2.27387988935674E-30));
#171 = CARTESIAN_POINT('', (5.4, -5.40000000000001, -2.09832151654154E-14));
#172 = CARTESIAN_POINT('', (-4.64579066589654E-17, -5.4, -2.09832151654154E-14));
#173 = CARTESIAN_POINT('', (-5.4, -5.4, -2.09832151654154E-14));
#174 = CARTESIAN_POINT('', (-5.4, 3.30654635769784E-16, -6.56858655152258E-47));
#175 = ADVANCED_FACE('', (#176), #179, .T.);
#176 = FACE_OUTER_BOUND('', #177, .T.);
#177 = EDGE_LOOP('', (#178));
#178 = ORIENTED_EDGE('', *, *, #142, .F.);
#179 = B_SPLINE_SURFACE_WITH_KNOTS('', 1, 1, ((#180, #181), (#182, #183)), .UNSPECIFIED., .F., .F., .U., (2, 2), (2, 2), (3.00042856049618, 13.8004285604962), (3.00042856049619, 13.8004285604962), .UNSPECIFIED.);
#180 = CARTESIAN_POINT('', (5.4, -5.4, -7.43608199337083E-15));
#181 = CARTESIAN_POINT('', (-5.4, -5.4, -7.43608199337083E-15));
#182 = CARTESIAN_POINT('', (5.4, 5.4, 7.43608199337074E-15));
#183 = CARTESIAN_POINT('', (-5.4, 5.4, 7.43608199337074E-15));
#184 = ADVANCED_FACE('', (#185), #196, .T.);
#185 = FACE_OUTER_BOUND('', #186, .T.);
#186 = EDGE_LOOP('', (#187, #193, #194, #195));
#187 = ORIENTED_EDGE('', *, *, #188, .T.);
#188 = EDGE_CURVE('', #94, #133, #189, .T.);
#189 = LINE('', #190, #191);
#190 = CARTESIAN_POINT('', (-6., 3.2146978477618E-15, -46.5));
#191 = VECTOR('', #192, 45.9);
#192 = DIRECTION('', (0., -2.81056440404317E-15, 45.9));
#193 = ORIENTED_EDGE('', *, *, #150, .T.);
#194 = ORIENTED_EDGE('', *, *, #188, .F.);
#195 = ORIENTED_EDGE('', *, *, #101, .F.);
#196 = (
   BOUNDED_SURFACE ()
   B_SPLINE_SURFACE (1, 2, ((#197, #198, #199, #200, #201, #202, #203, #204, #205), (#206, #207, #208, #209, #210, #211, #212, #213, #214)), .UNSPECIFIED., .F., .T., .U.)
   B_SPLINE_SURFACE_WITH_KNOTS ((2, 2), (3, 2, 2, 2, 3), (0., 1.), (0., 9.42477796076938, 18.8495559215388, 28.2743338823081, 37.6991118430775), .UNSPECIFIED.)
   GEOMETRIC_REPRESENTATION_ITEM ()
   RATIONAL_B_SPLINE_SURFACE (((1., 0.707106781186548, 1., 0.707106781186548, 1., 0.707106781186548, 1., 0.707106781186548, 1.), (1., 0.707106781186548, 1., 0.707106781186548, 1., 0.707106781186548, 1., 0.707106781186548, 1.)))
   REPRESENTATION_ITEM ('')
   SURFACE ()
);
#197 = CARTESIAN_POINT('', (-6., 7.10665363310799E-17, -46.5));
#198 = CARTESIAN_POINT('', (-6., 6., -46.5));
#199 = CARTESIAN_POINT('', (1.21357581007709E-15, 6., -46.5));
#200 = CARTESIAN_POINT('', (6., 6., -46.5));
#201 = CARTESIAN_POINT('', (6., -1.11263529624292E-15, -46.5));
#202 = CARTESIAN_POINT('', (6., -6., -46.5));
#203 = CARTESIAN_POINT('', (7.64662056991501E-16, -6., -46.5));
#204 = CARTESIAN_POINT('', (-6., -6., -46.5));
#205 = CARTESIAN_POINT('', (-6., 7.10665363310799E-17, -46.5));
#206 = CARTESIAN_POINT('', (-6., 4.04133443718627E-16, -0.600000000000001));
#207 = CARTESIAN_POINT('', (-6., 6., -0.600000000000001));
#208 = CARTESIAN_POINT('', (2.06289642391533E-15, 6., -0.600000000000001));
#209 = CARTESIAN_POINT('', (6., 6., -0.600000000000001));
#210 = CARTESIAN_POINT('', (6., -7.79568388855371E-16, -0.600000000000001));
#211 = CARTESIAN_POINT('', (6., -6., -0.600000000000001));
#212 = CARTESIAN_POINT('', (1.61398267082975E-15, -6., -0.600000000000001));
#213 = CARTESIAN_POINT('', (-6., -6., -0.600000000000001));
#214 = CARTESIAN_POINT('', (-6., 4.04133443718627E-16, -0.600000000000001));
#215 = ADVANCED_FACE('', (#216), #219, .T.);
#216 = FACE_OUTER_BOUND('', #217, .T.);
#217 = EDGE_LOOP('', (#218));
#218 = ORIENTED_EDGE('', *, *, #25, .T.);
#219 = B_SPLINE_SURFACE_WITH_KNOTS('', 1, 1, ((#220, #221), (#222, #223)), .UNSPECIFIED., .F., .F., .U., (2, 2), (2, 2), (82.9822421877867, 94.9822421877867), (74.4521190262249, 86.4521190262249), .UNSPECIFIED.);
#220 = CARTESIAN_POINT('', (-5.99999999999999, 6.00000000000001, -71.));
#221 = CARTESIAN_POINT('', (-6., -6., -71.));
#222 = CARTESIAN_POINT('', (6.00000000000001, 6.00000000000001, -71.));
#223 = CARTESIAN_POINT('', (6., -6., -71.));
#224 = DRAUGHTING_MODEL('', (#232, #340, #380, #385, #390, #395, #400), #414);
#225 = PRESENTATION_STYLE_ASSIGNMENT((#226));
#226 = SURFACE_STYLE_USAGE(.POSITIVE., #227);
#227 = SURFACE_SIDE_STYLE('', (#228));
#228 = SURFACE_STYLE_FILL_AREA(#229);
#229 = FILL_AREA_STYLE('', (#230));
#230 = FILL_AREA_STYLE_COLOUR('', #231);
#231 = COLOUR_RGB('', 0.50196078431373, 0.50196078431373, 0.50196078431373);
#232 = STYLED_ITEM('', (#225), #1);
#233 = MANIFOLD_SOLID_BREP('CUT', #234);
#234 = CLOSED_SHELL('', (#235, #252, #291));
#235 = ADVANCED_FACE('', (#236), #247, .T.);
#236 = FACE_OUTER_BOUND('', #237, .T.);
#237 = EDGE_LOOP('', (#238));
#238 = ORIENTED_EDGE('', *, *, #239, .F.);
#239 = EDGE_CURVE('', #240, #240, #242, .T.);
#240 = VERTEX_POINT('', #241);
#241 = CARTESIAN_POINT('', (-6., 4.71489017671731E-15, -71.));
#242 = CIRCLE('', #243, 6.);
#243 = AXIS2_PLACEMENT_3D('', #244, #245, #246);
#244 = CARTESIAN_POINT('', (-1.38777878078145E-15, 1.66533453693773E-15, -71.));
#245 = DIRECTION('', (0., 0., -1.));
#246 = DIRECTION('', (-1., 5.08259273296596E-16, 0.));
#247 = B_SPLINE_SURFACE_WITH_KNOTS('', 1, 1, ((#248, #249), (#250, #251)), .UNSPECIFIED., .F., .F., .U., (2, 2), (2, 2), (74.4521190262249, 86.4521190262249), (82.9822421877867, 94.9822421877867), .UNSPECIFIED.);
#248 = CARTESIAN_POINT('', (-6., 6., -71.));
#249 = CARTESIAN_POINT('', (6., 6., -71.));
#250 = CARTESIAN_POINT('', (-6., -6., -71.));
#251 = CARTESIAN_POINT('', (6., -6., -71.));
#252 = ADVANCED_FACE('', (#253), #272, .T.);
#253 = FACE_OUTER_BOUND('', #254, .T.);
#254 = EDGE_LOOP('', (#255, #263, #264, #265));
#255 = ORIENTED_EDGE('', *, *, #256, .F.);
#256 = EDGE_CURVE('', #240, #257, #259, .T.);
#257 = VERTEX_POINT('', #258);
#258 = CARTESIAN_POINT('', (-6., 5.08228421646152E-15, -77.));
#259 = LINE('', #260, #261);
#260 = CARTESIAN_POINT('', (-6., 4.71489017671731E-15, -71.));
#261 = VECTOR('', #262, 6.);
#262 = DIRECTION('', (0., 3.67394039744209E-16, -6.));
#263 = ORIENTED_EDGE('', *, *, #239, .T.);
#264 = ORIENTED_EDGE('', *, *, #256, .T.);
#265 = ORIENTED_EDGE('', *, *, #266, .F.);
#266 = EDGE_CURVE('', #257, #257, #267, .T.);
#267 = CIRCLE('', #268, 6.);
#268 = AXIS2_PLACEMENT_3D('', #269, #270, #271);
#269 = CARTESIAN_POINT('', (-1.41553435639707E-15, 1.99840144432528E-15, -77.));
#270 = DIRECTION('', (0., 0., -1.));
#271 = DIRECTION('', (-1., 5.13980462022706E-16, 0.));
#272 = (
   BOUNDED_SURFACE ()
   B_SPLINE_SURFACE (2, 1, ((#273, #274), (#275, #276), (#277, #278), (#279, #280), (#281, #282), (#283, #284), (#285, #286), (#287, #288), (#289, #290)), .UNSPECIFIED., .T., .F., .U.)
   B_SPLINE_SURFACE_WITH_KNOTS ((3, 2, 2, 2, 3), (2, 2), (0., 9.42477796076938, 18.8495559215388, 28.2743338823081, 37.6991118430775), (0., 1.), .UNSPECIFIED.)
   GEOMETRIC_REPRESENTATION_ITEM ()
   RATIONAL_B_SPLINE_SURFACE (((1., 1.), (0.707106781186548, 0.707106781186548), (1., 1.), (0.707106781186548, 0.707106781186548), (1., 1.), (0.707106781186548, 0.707106781186548), (1., 1.), (0.707106781186548, 0.707106781186548), (1., 1.)))
   REPRESENTATION_ITEM ('')
   SURFACE ()
);
#273 = CARTESIAN_POINT('', (-6., 4.71489017671731E-15, -71.));
#274 = CARTESIAN_POINT('', (-6., 5.15897938656737E-15, -77.));
#275 = CARTESIAN_POINT('', (-5.99999999999999, 6.00000000000001, -71.));
#276 = CARTESIAN_POINT('', (-5.99999999999999, 6.00000000000001, -77.));
#277 = CARTESIAN_POINT('', (7.42836503030791E-15, 6., -71.));
#278 = CARTESIAN_POINT('', (7.42836503030791E-15, 6., -77.));
#279 = CARTESIAN_POINT('', (6.00000000000001, 5.99999999999999, -71.));
#280 = CARTESIAN_POINT('', (6.00000000000001, 5.99999999999999, -77.));
#281 = CARTESIAN_POINT('', (6., -7.75486038095443E-15, -71.));
#282 = CARTESIAN_POINT('', (6., -7.31077117110437E-15, -77.));
#283 = CARTESIAN_POINT('', (6., -6.00000000000001, -71.));
#284 = CARTESIAN_POINT('', (6., -6.00000000000001, -77.));
#285 = CARTESIAN_POINT('', (-4.30659744787542E-15, -6., -71.));
#286 = CARTESIAN_POINT('', (-4.30659744787541E-15, -6., -77.));
#287 = CARTESIAN_POINT('', (-6.00000000000001, -6., -71.));
#288 = CARTESIAN_POINT('', (-6.00000000000001, -6., -77.));
#289 = CARTESIAN_POINT('', (-6., 4.71489017671731E-15, -71.));
#290 = CARTESIAN_POINT('', (-6., 5.15897938656737E-15, -77.));
#291 = ADVANCED_FACE('', (#292), #305, .T.);
#292 = FACE_OUTER_BOUND('', #293, .T.);
#293 = EDGE_LOOP('', (#294, #303, #304));
#294 = ORIENTED_EDGE('', *, *, #295, .F.);
#295 = EDGE_CURVE('', #257, #296, #298, .T.);
#296 = VERTEX_POINT('', #297);
#297 = CARTESIAN_POINT('', (1.10218211923262E-15, 5.08228421646152E-15, -83.));
#298 = CIRCLE('', #299, 5.99999999999998);
#299 = AXIS2_PLACEMENT_3D('', #300, #301, #302);
#300 = CARTESIAN_POINT('', (-1.4210854715202E-14, 4.71489017671732E-15, -77.));
#301 = DIRECTION('', (-6.12323399573666E-17, -1., -6.12323399573665E-17));
#302 = DIRECTION('', (-1., 6.12323399573665E-17, 2.36847578586701E-15));
#303 = ORIENTED_EDGE('', *, *, #266, .T.);
#304 = ORIENTED_EDGE('', *, *, #295, .T.);
#305 = (
   BOUNDED_SURFACE ()
   B_SPLINE_SURFACE (2, 2, ((#306, #307, #308), (#309, #310, #311), (#312, #313, #314), (#315, #316, #317), (#318, #319, #320), (#321, #322, #323), (#324, #325, #326), (#327, #328, #329), (#330, #331, #332)), .UNSPECIFIED., .T., .F., .U.)
   B_SPLINE_SURFACE_WITH_KNOTS ((3, 2, 2, 2, 3), (3, 3), (0., 0.25, 0.5, 0.75, 1.), (0., 1.), .UNSPECIFIED.)
   GEOMETRIC_REPRESENTATION_ITEM ()
   RATIONAL_B_SPLINE_SURFACE (((1., 0.707106781186548, 1.), (0.707106781186548, 0.5, 0.707106781186548), (1., 0.707106781186548, 1.), (0.707106781186548, 0.5, 0.707106781186548), (1., 0.707106781186548, 1.), (0.707106781186548, 0.5, 0.707106781186548), (1., 0.707106781186548, 1.), (0.707106781186548, 0.5, 0.707106781186548), (1., 0.707106781186548, 1.)))
   REPRESENTATION_ITEM ('')
   SURFACE ()
);
#306 = CARTESIAN_POINT('', (-6., 5.08228421646152E-15, -77.));
#307 = CARTESIAN_POINT('', (-6., 5.44967825620572E-15, -83.));
#308 = CARTESIAN_POINT('', (1.10218211923262E-15, 5.08228421646152E-15, -83.));
#309 = CARTESIAN_POINT('', (-6., 5.99999999999994, -77.));
#310 = CARTESIAN_POINT('', (-6.00000000000005, 5.99999999999994, -83.));
#311 = CARTESIAN_POINT('', (1.10218211923262E-15, 5.08228421646152E-15, -83.));
#312 = CARTESIAN_POINT('', (-6.66133814775091E-14, 5.99999999999994, -77.));
#313 = CARTESIAN_POINT('', (-1.14613166885564E-13, 5.99999999999999, -83.));
#314 = CARTESIAN_POINT('', (1.10218211923262E-15, 5.08228421646152E-15, -83.));
#315 = CARTESIAN_POINT('', (5.99999999999987, 5.99999999999994, -77.));
#316 = CARTESIAN_POINT('', (5.99999999999982, 6.00000000000003, -83.));
#317 = CARTESIAN_POINT('', (1.10218211923262E-15, 5.08228421646152E-15, -83.));
#318 = CARTESIAN_POINT('', (5.99999999999987, 5.08228421646086E-15, -77.));
#319 = CARTESIAN_POINT('', (5.99999999999987, 1.01449249072315E-13, -83.));
#320 = CARTESIAN_POINT('', (1.10218211923262E-15, 5.08228421646152E-15, -83.));
#321 = CARTESIAN_POINT('', (5.99999999999987, -5.99999999999993, -77.));
#322 = CARTESIAN_POINT('', (5.99999999999991, -5.99999999999983, -83.));
#323 = CARTESIAN_POINT('', (1.10218211923262E-15, 5.08228421646152E-15, -83.));
#324 = CARTESIAN_POINT('', (-6.58785933980213E-14, -5.99999999999993, -77.));
#325 = CARTESIAN_POINT('', (-1.78788079899662E-14, -5.99999999999988, -83.));
#326 = CARTESIAN_POINT('', (1.10218211923262E-15, 5.08228421646152E-15, -83.));
#327 = CARTESIAN_POINT('', (-6., -5.99999999999993, -77.));
#328 = CARTESIAN_POINT('', (-5.99999999999995, -5.99999999999993, -83.));
#329 = CARTESIAN_POINT('', (1.10218211923262E-15, 5.08228421646152E-15, -83.));
#330 = CARTESIAN_POINT('', (-6., 5.08228421646152E-15, -77.));
#331 = CARTESIAN_POINT('', (-6., 5.44967825620572E-15, -83.));
#332 = CARTESIAN_POINT('', (1.10218211923262E-15, 5.08228421646152E-15, -83.));
#333 = PRESENTATION_STYLE_ASSIGNMENT((#334));
#334 = SURFACE_STYLE_USAGE(.POSITIVE., #335);
#335 = SURFACE_SIDE_STYLE('', (#336));
#336 = SURFACE_STYLE_FILL_AREA(#337);
#337 = FILL_AREA_STYLE('', (#338));
#338 = FILL_AREA_STYLE_COLOUR('', #339);
#339 = COLOUR_RGB('', 0.8, 0.8, 0.8);
#340 = STYLED_ITEM('', (#333), #233);
#341 = TRIMMED_CURVE('cutting part line', #342, (#346), (#347), .T., .CARTESIAN.);
#342 = LINE('', #343, #344);
#343 = CARTESIAN_POINT('', (-7.98622084267439E-31, -4.3474961369731E-15, -71.));
#344 = VECTOR('', #345, 6.);
#345 = DIRECTION('', (6., -1.10218211923262E-15, 0.));
#346 = CARTESIAN_POINT('', (-7.98622084267439E-31, -4.3474961369731E-15, -71.));
#347 = CARTESIAN_POINT('', (6., -5.44967825620572E-15, -71.));
#348 = TRIMMED_CURVE('cutting part line', #349, (#353), (#354), .T., .CARTESIAN.);
#349 = LINE('', #350, #351);
#350 = CARTESIAN_POINT('', (6., -5.44967825620572E-15, -71.));
#351 = VECTOR('', #352, 6.);
#352 = DIRECTION('', (0., -3.67394039744209E-16, -6.));
#353 = CARTESIAN_POINT('', (6., -5.44967825620572E-15, -71.));
#354 = CARTESIAN_POINT('', (6., -5.81707229594993E-15, -77.));
#355 = TRIMMED_CURVE('cutting part line', #356, (#361), (#362), .T., .CARTESIAN.);
#356 = CIRCLE('', #357, 5.99999999999999);
#357 = AXIS2_PLACEMENT_3D('', #358, #359, #360);
#358 = CARTESIAN_POINT('', (4.44089209850063E-15, -4.71489017671732E-15, -77.));
#359 = DIRECTION('', (1.83697019872102E-16, 1., -6.12323399573664E-17));
#360 = DIRECTION('', (1., -1.83697019872102E-16, 2.368475785867E-15));
#361 = CARTESIAN_POINT('', (5.99999999999999, -5.81707229594993E-15, -77.));
#362 = CARTESIAN_POINT('', (-2.29714121935614E-15, -5.08228421646152E-15, -83.));
#363 = TRIMMED_CURVE('cutting part line', #364, (#368), (#369), .T., .CARTESIAN.);
#364 = LINE('', #365, #366);
#365 = CARTESIAN_POINT('', (-9.33600464707006E-31, -5.08228421646152E-15, -83.));
#366 = VECTOR('', #367, 12.);
#367 = DIRECTION('', (1.34978380439567E-31, 7.3478807948842E-16, 12.));
#368 = CARTESIAN_POINT('', (-9.33600464707006E-31, -5.08228421646152E-15, -83.));
#369 = CARTESIAN_POINT('', (-7.98622084267439E-31, -4.3474961369731E-15, -71.));
#370 = COMPOSITE_CURVE('cutting part line', (#371, #372, #373, #374), .U.);
#371 = COMPOSITE_CURVE_SEGMENT(.CONTINUOUS., .T., #341);
#372 = COMPOSITE_CURVE_SEGMENT(.CONTINUOUS., .T., #348);
#373 = COMPOSITE_CURVE_SEGMENT(.CONTINUOUS., .T., #355);
#374 = COMPOSITE_CURVE_SEGMENT(.CONTINUOUS., .T., #363);
#375 = GEOMETRIC_SET('', (#370, #413));
#376 = PRESENTATION_STYLE_ASSIGNMENT((#377));
#377 = CURVE_STYLE('', #379, POSITIVE_LENGTH_MEASURE(1.E-6), #378);
#378 = COLOUR_RGB('', 0., 0., 1.);
#379 = DRAUGHTING_PRE_DEFINED_CURVE_FONT('continuous');
#380 = STYLED_ITEM('', (#376), #370);
#381 = PRESENTATION_STYLE_ASSIGNMENT((#382));
#382 = CURVE_STYLE('', #384, POSITIVE_LENGTH_MEASURE(1.E-6), #383);
#383 = COLOUR_RGB('', 0., 0., 1.);
#384 = DRAUGHTING_PRE_DEFINED_CURVE_FONT('continuous');
#385 = OVER_RIDING_STYLED_ITEM('', (#381), #341, #380);
#386 = PRESENTATION_STYLE_ASSIGNMENT((#387));
#387 = CURVE_STYLE('', #389, POSITIVE_LENGTH_MEASURE(1.E-6), #388);
#388 = COLOUR_RGB('', 0., 0., 1.);
#389 = DRAUGHTING_PRE_DEFINED_CURVE_FONT('continuous');
#390 = OVER_RIDING_STYLED_ITEM('', (#386), #348, #380);
#391 = PRESENTATION_STYLE_ASSIGNMENT((#392));
#392 = CURVE_STYLE('', #394, POSITIVE_LENGTH_MEASURE(1.E-6), #393);
#393 = COLOUR_RGB('', 0., 0., 1.);
#394 = DRAUGHTING_PRE_DEFINED_CURVE_FONT('continuous');
#395 = OVER_RIDING_STYLED_ITEM('', (#391), #355, #380);
#396 = PRESENTATION_STYLE_ASSIGNMENT((#397));
#397 = CURVE_STYLE('', #399, POSITIVE_LENGTH_MEASURE(1.E-6), #398);
#398 = COLOUR_RGB('', 0., 0., 1.);
#399 = DRAUGHTING_PRE_DEFINED_CURVE_FONT('continuous');
#400 = OVER_RIDING_STYLED_ITEM('', (#396), #363, #380);
#401 = AXIS2_PLACEMENT_3D('CIP', #402, #403, #404);
#402 = CARTESIAN_POINT('', (3.11200154902335E-31, 5.08228421646152E-15, -83.));
#403 = DIRECTION('', (-3.74939945665465E-33, -6.12323399573677E-17, 1.));
#404 = DIRECTION('', (1., -6.12323399573677E-17, 0.));
#405 = AXIS2_PLACEMENT_3D('MCS', #406, #407, #408);
#406 = CARTESIAN_POINT('', (1.68722975549459E-31, 2.75545529808154E-15, -45.));
#407 = DIRECTION('', (-3.74939945665465E-33, -6.12323399573677E-17, 1.));
#408 = DIRECTION('', (1., -6.12323399573677E-17, 0.));
#409 = AXIS2_PLACEMENT_3D('PCS', #410, #411, #412);
#410 = CARTESIAN_POINT('', (0., 0., 0.));
#411 = DIRECTION('', (0., 0., 1.));
#412 = DIRECTION('', (1., 0., 0.));
#413 = CARTESIAN_POINT('CRP', (6., 0., -83.));
#414 = (
   GEOMETRIC_REPRESENTATION_CONTEXT (3)
   GLOBAL_UNCERTAINTY_ASSIGNED_CONTEXT ((#416))
   GLOBAL_UNIT_ASSIGNED_CONTEXT ((#415, #417, #418))
   REPRESENTATION_CONTEXT ('', '3D')
);
#415 = (
   LENGTH_UNIT ()
   NAMED_UNIT (*)
   SI_UNIT (.MILLI., .METRE.)
);
#416 = UNCERTAINTY_MEASURE_WITH_UNIT(LENGTH_MEASURE(1.E-6), #415, 'DISTANCE_ACCURACY_VALUE', '');
#417 = (
   NAMED_UNIT (*)
   SI_UNIT ($, .STERADIAN.)
   SOLID_ANGLE_UNIT ()
);
#418 = (
   NAMED_UNIT (*)
   PLANE_ANGLE_UNIT ()
   SI_UNIT ($, .RADIAN.)
);
#419 = SHAPE_REPRESENTATION('', (), #414);
#420 = PRODUCT_DEFINITION_SHAPE('', '', #421);
#421 = PRODUCT_DEFINITION('', '', #424, #428);
#422 = APPLICATION_CONTEXT('configuration controlled 3D designs of mechanical parts and assemblies');
#423 = APPLICATION_PROTOCOL_DEFINITION('International Standard', 'automotive_design', 2002, #422);
#424 = PRODUCT_DEFINITION_FORMATION_WITH_SPECIFIED_SOURCE('', '', #425, .NOT_KNOWN.);
#425 = PRODUCT('EmptyName', 'EmptyName', '', (#426));
#426 = PRODUCT_CONTEXT('', #422, 'mechanical');
#427 = PRODUCT_RELATED_PRODUCT_CATEGORY('detail', '', (#425));
#428 = PRODUCT_DEFINITION_CONTEXT('part definition', #422, 'design');
#429 = SHAPE_DEFINITION_REPRESENTATION(#420, #419);
#430 = CONSTRUCTIVE_GEOMETRY_REPRESENTATION('supplemental geometry', (#401, #405, #409), #414);
#431 = CONSTRUCTIVE_GEOMETRY_REPRESENTATION_RELATIONSHIP('', '', #419, #430);
#432 = SHAPE_REPRESENTATION_RELATIONSHIP('', '', #419, #433);
#433 = SHAPE_REPRESENTATION('', (#375), #414);
#434 = SHAPE_REPRESENTATION_RELATIONSHIP('', '', #419, #435);
#435 = ADVANCED_BREP_SHAPE_REPRESENTATION('', (#1, #233), #414);
ENDSEC;
END-ISO-10303-21;
