ISO-10303-21;
HEADER;
FILE_DESCRIPTION(('STEP'), '1');
FILE_NAME('C:\\Users\\ds2002\\OneDrive - Sandvik\\HomeShare\\Documents\\Batchrepair\\CorSRT2\\NEW_MILBN_SLD\\Output2\\MOD000000000000000020084649200000.stp', '2018-11-23T12:39:03', (''), (''), 'Express v3.0.0.0', 'Express Tool', 'Unknown');
FILE_SCHEMA(('AUTOMOTIVE_DESIGN'));
ENDSEC;

DATA;
#1 = MANIFOLD_SOLID_BREP('NOCUT', #2);
#2 = CLOSED_SHELL('', (#3, #50, #97, #106, #137, #176));
#3 = ADVANCED_FACE('', (#4), #31, .T.);
#4 = FACE_OUTER_BOUND('', #5, .T.);
#5 = EDGE_LOOP('', (#6, #16, #23, #24));
#6 = ORIENTED_EDGE('', *, *, #7, .F.);
#7 = EDGE_CURVE('', #8, #10, #12, .T.);
#8 = VERTEX_POINT('', #9);
#9 = CARTESIAN_POINT('', (-7., 4.54343962483668E-15, -67.2));
#10 = VERTEX_POINT('', #11);
#11 = CARTESIAN_POINT('', (-5., 7.22541611496938E-15, -113.));
#12 = LINE('', #13, #14);
#13 = CARTESIAN_POINT('', (-7., 4.54343962483668E-15, -67.2));
#14 = VECTOR('', #15, 45.8436473243567);
#15 = DIRECTION('', (2., 2.6819764901327E-15, -45.8));
#16 = ORIENTED_EDGE('', *, *, #17, .T.);
#17 = EDGE_CURVE('', #8, #8, #18, .T.);
#18 = CIRCLE('', #19, 7.);
#19 = AXIS2_PLACEMENT_3D('', #20, #21, #22);
#20 = CARTESIAN_POINT('', (-3.88578058618805E-16, 2.22044604925031E-15, -67.2));
#21 = DIRECTION('', (0., 0., -1.));
#22 = DIRECTION('', (-1., 3.31856225083767E-16, 0.));
#23 = ORIENTED_EDGE('', *, *, #7, .T.);
#24 = ORIENTED_EDGE('', *, *, #25, .F.);
#25 = EDGE_CURVE('', #10, #10, #26, .T.);
#26 = CIRCLE('', #27, 5.);
#27 = AXIS2_PLACEMENT_3D('', #28, #29, #30);
#28 = CARTESIAN_POINT('', (1.66533453693773E-16, 6.32827124036339E-15, -113.));
#29 = DIRECTION('', (0., 0., -1.));
#30 = DIRECTION('', (-1., -6.55003849082724E-17, 0.));
#31 = (
   BOUNDED_SURFACE ()
   B_SPLINE_SURFACE (2, 1, ((#32, #33), (#34, #35), (#36, #37), (#38, #39), (#40, #41), (#42, #43), (#44, #45), (#46, #47), (#48, #49)), .UNSPECIFIED., .T., .F., .U.)
   B_SPLINE_SURFACE_WITH_KNOTS ((3, 2, 2, 2, 3), (2, 2), (0., 0.25, 0.5, 0.75, 1.), (0., 1.), .UNSPECIFIED.)
   GEOMETRIC_REPRESENTATION_ITEM ()
   RATIONAL_B_SPLINE_SURFACE (((1., 1.), (0.707106781186548, 0.707106781186548), (1., 1.), (0.707106781186548, 0.707106781186548), (1., 1.), (0.707106781186548, 0.707106781186548), (1., 1.), (0.707106781186548, 0.707106781186548), (1., 1.)))
   REPRESENTATION_ITEM ('')
   SURFACE ()
);
#32 = CARTESIAN_POINT('', (-7., 4.54343962483668E-15, -67.2));
#33 = CARTESIAN_POINT('', (-5., 8.6378258516341E-15, -113.));
#34 = CARTESIAN_POINT('', (-7., 7., -67.2));
#35 = CARTESIAN_POINT('', (-5., 5.00000000000001, -113.));
#36 = CARTESIAN_POINT('', (3.75399076213193E-15, 7., -67.2));
#37 = CARTESIAN_POINT('', (2.64177115064334E-15, 5.00000000000001, -113.));
#38 = CARTESIAN_POINT('', (7., 7., -67.2));
#39 = CARTESIAN_POINT('', (5., 5., -113.));
#40 = CARTESIAN_POINT('', (7., -3.24209765558347E-15, -67.2));
#41 = CARTESIAN_POINT('', (5., 3.07672779419114E-15, -113.));
#42 = CARTESIAN_POINT('', (7., -7., -67.2));
#43 = CARTESIAN_POINT('', (5., -5., -113.));
#44 = CARTESIAN_POINT('', (-3.17429375888507E-15, -7., -67.2));
#45 = CARTESIAN_POINT('', (-2.30700350722595E-15, -4.99999999999999, -113.));
#46 = CARTESIAN_POINT('', (-7., -7., -67.2));
#47 = CARTESIAN_POINT('', (-5., -4.99999999999999, -113.));
#48 = CARTESIAN_POINT('', (-7., 4.54343962483668E-15, -67.2));
#49 = CARTESIAN_POINT('', (-5., 8.6378258516341E-15, -113.));
#50 = ADVANCED_FACE('', (#51), #78, .T.);
#51 = FACE_OUTER_BOUND('', #52, .T.);
#52 = EDGE_LOOP('', (#53, #63, #70, #71));
#53 = ORIENTED_EDGE('', *, *, #54, .T.);
#54 = EDGE_CURVE('', #55, #57, #59, .T.);
#55 = VERTEX_POINT('', #56);
#56 = CARTESIAN_POINT('', (-7., 4.71489017671731E-16, -0.700000000000003));
#57 = VERTEX_POINT('', #58);
#58 = CARTESIAN_POINT('', (-6.3, 3.85763741731416E-16, 0.));
#59 = LINE('', #60, #61);
#60 = CARTESIAN_POINT('', (-7., 4.71489017671731E-16, -0.700000000000003));
#61 = VECTOR('', #62, 0.989949493661169);
#62 = DIRECTION('', (0.7, -8.57252759403149E-17, 0.700000000000003));
#63 = ORIENTED_EDGE('', *, *, #64, .T.);
#64 = EDGE_CURVE('', #57, #57, #65, .T.);
#65 = CIRCLE('', #66, 6.3);
#66 = AXIS2_PLACEMENT_3D('', #67, #68, #69);
#67 = CARTESIAN_POINT('', (6.10622663543836E-16, -1.11022302462516E-16, -2.46519032881566E-32));
#68 = DIRECTION('', (9.15471215238416E-34, 6.12323399573676E-17, -1.));
#69 = DIRECTION('', (-1., -1.6607443217964E-16, -1.10845973046889E-32));
#70 = ORIENTED_EDGE('', *, *, #54, .F.);
#71 = ORIENTED_EDGE('', *, *, #72, .F.);
#72 = EDGE_CURVE('', #55, #55, #73, .T.);
#73 = CIRCLE('', #74, 7.);
#74 = AXIS2_PLACEMENT_3D('', #75, #76, #77);
#75 = CARTESIAN_POINT('', (1.55431223447522E-15, 2.22044604925031E-16, -0.700000000000003));
#76 = DIRECTION('', (3.1720657846433E-17, 4.76511226738224E-18, -1.));
#77 = DIRECTION('', (-1., -2.09294443722799E-16, -3.1720657846433E-17));
#78 = (
   BOUNDED_SURFACE ()
   B_SPLINE_SURFACE (1, 2, ((#79, #80, #81, #82, #83, #84, #85, #86, #87), (#88, #89, #90, #91, #92, #93, #94, #95, #96)), .UNSPECIFIED., .F., .T., .U.)
   B_SPLINE_SURFACE_WITH_KNOTS ((2, 2), (3, 2, 2, 2, 3), (0., 1.), (0., 0.25, 0.5, 0.75, 1.), .UNSPECIFIED.)
   GEOMETRIC_REPRESENTATION_ITEM ()
   RATIONAL_B_SPLINE_SURFACE (((1., 0.707106781186548, 1., 0.707106781186548, 1., 0.707106781186548, 1., 0.707106781186548, 1.), (1., 0.707106781186548, 1., 0.707106781186548, 1., 0.707106781186548, 1., 0.707106781186548, 1.)))
   REPRESENTATION_ITEM ('')
   SURFACE ()
);
#79 = CARTESIAN_POINT('', (-7., -2.1865656338599E-15, -0.700000000000003));
#80 = CARTESIAN_POINT('', (-7., 7., -0.700000000000033));
#81 = CARTESIAN_POINT('', (3.1302121388737E-15, 6.99999999999999, -0.700000000000033));
#82 = CARTESIAN_POINT('', (7., 6.99999999999999, -0.700000000000033));
#83 = CARTESIAN_POINT('', (7., -9.83476869238876E-15, -0.700000000000003));
#84 = CARTESIAN_POINT('', (7., -7.00000000000001, -0.699999999999973));
#85 = CARTESIAN_POINT('', (-3.66073816025201E-15, -7.00000000000001, -0.699999999999973));
#86 = CARTESIAN_POINT('', (-7., -7., -0.699999999999973));
#87 = CARTESIAN_POINT('', (-7., -2.1865656338599E-15, -0.700000000000003));
#88 = CARTESIAN_POINT('', (-6.3, 3.85763741731417E-16, 4.37905770101505E-47));
#89 = CARTESIAN_POINT('', (-6.3, 6.3, -2.69784194983912E-14));
#90 = CARTESIAN_POINT('', (2.74780198594726E-15, 6.3, -2.69784194983912E-14));
#91 = CARTESIAN_POINT('', (6.3, 6.29999999999999, -2.69784194983912E-14));
#92 = CARTESIAN_POINT('', (6.3, -6.49761901094455E-15, -3.74763776766275E-30));
#93 = CARTESIAN_POINT('', (6.3, -6.30000000000001, 2.69784194983912E-14));
#94 = CARTESIAN_POINT('', (-3.36405328326588E-15, -6.3, 2.69784194983912E-14));
#95 = CARTESIAN_POINT('', (-6.3, -6.3, 2.69784194983912E-14));
#96 = CARTESIAN_POINT('', (-6.3, 3.85763741731417E-16, 4.37905770101505E-47));
#97 = ADVANCED_FACE('', (#98), #101, .T.);
#98 = FACE_OUTER_BOUND('', #99, .T.);
#99 = EDGE_LOOP('', (#100));
#100 = ORIENTED_EDGE('', *, *, #64, .F.);
#101 = B_SPLINE_SURFACE_WITH_KNOTS('', 1, 1, ((#102, #103), (#104, #105)), .UNSPECIFIED., .F., .F., .U., (2, 2), (2, 2), (3.50049998724555, 16.1004999872455), (3.50049998724555, 16.1004999872455), .UNSPECIFIED.);
#102 = CARTESIAN_POINT('', (6.3, -6.3, -7.49119109933243E-15));
#103 = CARTESIAN_POINT('', (-6.3, -6.3, -7.49119109933243E-15));
#104 = CARTESIAN_POINT('', (6.3, 6.3, 7.49119109933244E-15));
#105 = CARTESIAN_POINT('', (-6.3, 6.3, 7.49119109933244E-15));
#106 = ADVANCED_FACE('', (#107), #118, .T.);
#107 = FACE_OUTER_BOUND('', #108, .T.);
#108 = EDGE_LOOP('', (#109, #115, #116, #117));
#109 = ORIENTED_EDGE('', *, *, #110, .T.);
#110 = EDGE_CURVE('', #8, #55, #111, .T.);
#111 = LINE('', #112, #113);
#112 = CARTESIAN_POINT('', (-7., 4.54343962483668E-15, -67.2));
#113 = VECTOR('', #114, 66.5);
#114 = DIRECTION('', (0., -4.07195060716495E-15, 66.5));
#115 = ORIENTED_EDGE('', *, *, #72, .T.);
#116 = ORIENTED_EDGE('', *, *, #110, .F.);
#117 = ORIENTED_EDGE('', *, *, #17, .F.);
#118 = (
   BOUNDED_SURFACE ()
   B_SPLINE_SURFACE (1, 2, ((#119, #120, #121, #122, #123, #124, #125, #126, #127), (#128, #129, #130, #131, #132, #133, #134, #135, #136)), .UNSPECIFIED., .F., .T., .U.)
   B_SPLINE_SURFACE_WITH_KNOTS ((2, 2), (3, 2, 2, 2, 3), (0., 1.), (0., 10.9955742875643, 21.9911485751286, 32.9867228626928, 43.9822971502571), .UNSPECIFIED.)
   GEOMETRIC_REPRESENTATION_ITEM ()
   RATIONAL_B_SPLINE_SURFACE (((1., 0.707106781186548, 1., 0.707106781186548, 1., 0.707106781186548, 1., 0.707106781186548, 1.), (1., 0.707106781186548, 1., 0.707106781186548, 1., 0.707106781186548, 1., 0.707106781186548, 1.)))
   REPRESENTATION_ITEM ('')
   SURFACE ()
);
#119 = CARTESIAN_POINT('', (-7., 2.49444412746699E-16, -67.2));
#120 = CARTESIAN_POINT('', (-7., 7., -67.2));
#121 = CARTESIAN_POINT('', (3.31802056061437E-15, 7., -67.2));
#122 = CARTESIAN_POINT('', (7., 7., -67.2));
#123 = CARTESIAN_POINT('', (7., -3.38899454199412E-15, -67.2));
#124 = CARTESIAN_POINT('', (7., -7., -67.2));
#125 = CARTESIAN_POINT('', (5.36834365276701E-16, -7., -67.2));
#126 = CARTESIAN_POINT('', (-7., -7., -67.2));
#127 = CARTESIAN_POINT('', (-7., 2.49444412746699E-16, -67.2));
#128 = CARTESIAN_POINT('', (-7., 4.71489017671731E-16, -0.700000000000003));
#129 = CARTESIAN_POINT('', (-7., 7., -0.700000000000003));
#130 = CARTESIAN_POINT('', (2.26330868722047E-15, 7., -0.700000000000003));
#131 = CARTESIAN_POINT('', (7., 7., -0.700000000000003));
#132 = CARTESIAN_POINT('', (7., -3.16694993706908E-15, -0.700000000000003));
#133 = CARTESIAN_POINT('', (7., -7., -0.700000000000003));
#134 = CARTESIAN_POINT('', (-5.17877508117198E-16, -7., -0.700000000000003));
#135 = CARTESIAN_POINT('', (-7., -7., -0.700000000000003));
#136 = CARTESIAN_POINT('', (-7., 4.71489017671731E-16, -0.700000000000003));
#137 = ADVANCED_FACE('', (#138), #157, .T.);
#138 = FACE_OUTER_BOUND('', #139, .T.);
#139 = EDGE_LOOP('', (#140, #149, #155, #156));
#140 = ORIENTED_EDGE('', *, *, #141, .F.);
#141 = EDGE_CURVE('', #142, #142, #144, .T.);
#142 = VERTEX_POINT('', #143);
#143 = CARTESIAN_POINT('', (-5., 7.34788079488412E-15, -115.));
#144 = CIRCLE('', #145, 5.);
#145 = AXIS2_PLACEMENT_3D('', #146, #147, #148);
#146 = CARTESIAN_POINT('', (-4.85722573273506E-16, 1.0991207943789E-14, -115.));
#147 = DIRECTION('', (-7.04869831992506E-30, 9.67343588956001E-15, -1.));
#148 = DIRECTION('', (-1., -7.28665429780986E-16, 0.));
#149 = ORIENTED_EDGE('', *, *, #150, .F.);
#150 = EDGE_CURVE('', #10, #142, #151, .T.);
#151 = LINE('', #152, #153);
#152 = CARTESIAN_POINT('', (-5., 7.22541611496938E-15, -113.));
#153 = VECTOR('', #154, 2.);
#154 = DIRECTION('', (0., 1.2246467991474E-16, -2.));
#155 = ORIENTED_EDGE('', *, *, #25, .T.);
#156 = ORIENTED_EDGE('', *, *, #150, .T.);
#157 = (
   BOUNDED_SURFACE ()
   B_SPLINE_SURFACE (2, 1, ((#158, #159), (#160, #161), (#162, #163), (#164, #165), (#166, #167), (#168, #169), (#170, #171), (#172, #173), (#174, #175)), .UNSPECIFIED., .T., .F., .U.)
   B_SPLINE_SURFACE_WITH_KNOTS ((3, 2, 2, 2, 3), (2, 2), (0., 7.85398163397448, 15.707963267949, 23.5619449019234, 31.4159265358979), (0., 0.285714285714286), .UNSPECIFIED.)
   GEOMETRIC_REPRESENTATION_ITEM ()
   RATIONAL_B_SPLINE_SURFACE (((1., 1.), (0.707106781186548, 0.707106781186548), (1., 1.), (0.707106781186548, 0.707106781186548), (1., 1.), (0.707106781186548, 0.707106781186548), (1., 1.), (0.707106781186548, 0.707106781186548), (1., 1.)))
   REPRESENTATION_ITEM ('')
   SURFACE ()
);
#158 = CARTESIAN_POINT('', (-5., 7.22541611496938E-15, -113.));
#159 = CARTESIAN_POINT('', (-5., 5.56008157803165E-15, -115.));
#160 = CARTESIAN_POINT('', (-5., 5.00000000000001, -113.));
#161 = CARTESIAN_POINT('', (-5., 5.00000000000001, -115.));
#162 = CARTESIAN_POINT('', (8.82416718783253E-16, 5.00000000000001, -113.));
#163 = CARTESIAN_POINT('', (8.82416718783253E-16, 5.00000000000001, -115.));
#164 = CARTESIAN_POINT('', (5., 5.00000000000001, -113.));
#165 = CARTESIAN_POINT('', (5., 5.00000000000001, -115.));
#166 = CARTESIAN_POINT('', (5., 6.93162818503121E-15, -113.));
#167 = CARTESIAN_POINT('', (5., 5.26629364809347E-15, -115.));
#168 = CARTESIAN_POINT('', (5., -4.99999999999999, -113.));
#169 = CARTESIAN_POINT('', (5., -4.99999999999999, -115.));
#170 = CARTESIAN_POINT('', (1.20095218841876E-15, -4.99999999999999, -113.));
#171 = CARTESIAN_POINT('', (1.20095218841876E-15, -4.99999999999999, -115.));
#172 = CARTESIAN_POINT('', (-5., -4.99999999999999, -113.));
#173 = CARTESIAN_POINT('', (-5., -5., -115.));
#174 = CARTESIAN_POINT('', (-5., 7.22541611496938E-15, -113.));
#175 = CARTESIAN_POINT('', (-5., 5.56008157803165E-15, -115.));
#176 = ADVANCED_FACE('', (#177), #180, .T.);
#177 = FACE_OUTER_BOUND('', #178, .T.);
#178 = EDGE_LOOP('', (#179));
#179 = ORIENTED_EDGE('', *, *, #141, .T.);
#180 = B_SPLINE_SURFACE_WITH_KNOTS('', 1, 1, ((#181, #182), (#183, #184)), .UNSPECIFIED., .F., .F., .U., (2, 2), (2, 2), (127.438292409824, 137.438292409824), (115.678289220064, 125.678289220064), .UNSPECIFIED.);
#181 = CARTESIAN_POINT('', (-5., 5.00000000000001, -115.));
#182 = CARTESIAN_POINT('', (-5., -4.99999999999999, -115.));
#183 = CARTESIAN_POINT('', (5., 5.00000000000001, -115.));
#184 = CARTESIAN_POINT('', (5., -4.99999999999999, -115.));
#185 = DRAUGHTING_MODEL('', (#193, #301, #341, #346, #351, #356, #361), #375);
#186 = PRESENTATION_STYLE_ASSIGNMENT((#187));
#187 = SURFACE_STYLE_USAGE(.POSITIVE., #188);
#188 = SURFACE_SIDE_STYLE('', (#189));
#189 = SURFACE_STYLE_FILL_AREA(#190);
#190 = FILL_AREA_STYLE('', (#191));
#191 = FILL_AREA_STYLE_COLOUR('', #192);
#192 = COLOUR_RGB('', 0.50196078431373, 0.50196078431373, 0.50196078431373);
#193 = STYLED_ITEM('', (#186), #1);
#194 = MANIFOLD_SOLID_BREP('CUT', #195);
#195 = CLOSED_SHELL('', (#196, #213, #252));
#196 = ADVANCED_FACE('', (#197), #208, .T.);
#197 = FACE_OUTER_BOUND('', #198, .T.);
#198 = EDGE_LOOP('', (#199));
#199 = ORIENTED_EDGE('', *, *, #200, .F.);
#200 = EDGE_CURVE('', #201, #201, #203, .T.);
#201 = VERTEX_POINT('', #202);
#202 = CARTESIAN_POINT('', (-5., 7.34788079488412E-15, -115.));
#203 = CIRCLE('', #204, 5.);
#204 = AXIS2_PLACEMENT_3D('', #205, #206, #207);
#205 = CARTESIAN_POINT('', (-4.85722573273506E-16, 1.0991207943789E-14, -115.));
#206 = DIRECTION('', (-7.04869831992506E-30, 9.67343588956001E-15, -1.));
#207 = DIRECTION('', (-1., -7.28665429780986E-16, 0.));
#208 = B_SPLINE_SURFACE_WITH_KNOTS('', 1, 1, ((#209, #210), (#211, #212)), .UNSPECIFIED., .F., .F., .U., (2, 2), (2, 2), (115.678289220064, 125.678289220064), (127.438292409824, 137.438292409824), .UNSPECIFIED.);
#209 = CARTESIAN_POINT('', (-5., 5.00000000000001, -115.));
#210 = CARTESIAN_POINT('', (5., 5.00000000000001, -115.));
#211 = CARTESIAN_POINT('', (-5., -4.99999999999999, -115.));
#212 = CARTESIAN_POINT('', (5., -4.99999999999999, -115.));
#213 = ADVANCED_FACE('', (#214), #233, .T.);
#214 = FACE_OUTER_BOUND('', #215, .T.);
#215 = EDGE_LOOP('', (#216, #217, #225, #232));
#216 = ORIENTED_EDGE('', *, *, #200, .T.);
#217 = ORIENTED_EDGE('', *, *, #218, .T.);
#218 = EDGE_CURVE('', #201, #219, #221, .T.);
#219 = VERTEX_POINT('', #220);
#220 = CARTESIAN_POINT('', (-5., 7.65404249467096E-15, -120.));
#221 = LINE('', #222, #223);
#222 = CARTESIAN_POINT('', (-5., 7.34788079488412E-15, -115.));
#223 = VECTOR('', #224, 5.);
#224 = DIRECTION('', (0., 3.06161699786839E-16, -5.));
#225 = ORIENTED_EDGE('', *, *, #226, .F.);
#226 = EDGE_CURVE('', #219, #219, #227, .T.);
#227 = CIRCLE('', #228, 5.);
#228 = AXIS2_PLACEMENT_3D('', #229, #230, #231);
#229 = CARTESIAN_POINT('', (-5.13478148889135E-16, 1.14352971536391E-14, -120.));
#230 = DIRECTION('', (-7.31554490512571E-30, 9.67343588956001E-15, -1.));
#231 = DIRECTION('', (-1., -7.56250931793631E-16, 0.));
#232 = ORIENTED_EDGE('', *, *, #218, .F.);
#233 = (
   BOUNDED_SURFACE ()
   B_SPLINE_SURFACE (2, 1, ((#234, #235), (#236, #237), (#238, #239), (#240, #241), (#242, #243), (#244, #245), (#246, #247), (#248, #249), (#250, #251)), .UNSPECIFIED., .T., .F., .U.)
   B_SPLINE_SURFACE_WITH_KNOTS ((3, 2, 2, 2, 3), (2, 2), (0., 7.85398163397448, 15.707963267949, 23.5619449019234, 31.4159265358979), (0.285714285714286, 1.), .UNSPECIFIED.)
   GEOMETRIC_REPRESENTATION_ITEM ()
   RATIONAL_B_SPLINE_SURFACE (((1., 1.), (0.707106781186548, 0.707106781186548), (1., 1.), (0.707106781186548, 0.707106781186548), (1., 1.), (0.707106781186548, 0.707106781186548), (1., 1.), (0.707106781186548, 0.707106781186548), (1., 1.)))
   REPRESENTATION_ITEM ('')
   SURFACE ()
);
#234 = CARTESIAN_POINT('', (-5., 7.34788079488412E-15, -115.));
#235 = CARTESIAN_POINT('', (-5., 7.68094770227167E-15, -120.));
#236 = CARTESIAN_POINT('', (-5., 5.00000000000001, -115.));
#237 = CARTESIAN_POINT('', (-5., 5.00000000000001, -120.));
#238 = CARTESIAN_POINT('', (2.9338939039842E-15, 5.00000000000001, -115.));
#239 = CARTESIAN_POINT('', (2.9338939039842E-15, 5.00000000000001, -120.));
#240 = CARTESIAN_POINT('', (5., 5., -115.));
#241 = CARTESIAN_POINT('', (5., 5., -120.));
#242 = CARTESIAN_POINT('', (5., 3.478494431241E-15, -115.));
#243 = CARTESIAN_POINT('', (5., 3.81156133862854E-15, -120.));
#244 = CARTESIAN_POINT('', (5., -5., -115.));
#245 = CARTESIAN_POINT('', (5., -5., -120.));
#246 = CARTESIAN_POINT('', (-3.23169060085244E-16, -4.99999999999999, -115.));
#247 = CARTESIAN_POINT('', (-3.23169060085244E-16, -4.99999999999999, -120.));
#248 = CARTESIAN_POINT('', (-5., -4.99999999999999, -115.));
#249 = CARTESIAN_POINT('', (-5., -4.99999999999999, -120.));
#250 = CARTESIAN_POINT('', (-5., 7.34788079488412E-15, -115.));
#251 = CARTESIAN_POINT('', (-5., 7.68094770227167E-15, -120.));
#252 = ADVANCED_FACE('', (#253), #266, .T.);
#253 = FACE_OUTER_BOUND('', #254, .T.);
#254 = EDGE_LOOP('', (#255, #264, #265));
#255 = ORIENTED_EDGE('', *, *, #256, .F.);
#256 = EDGE_CURVE('', #219, #257, #259, .T.);
#257 = VERTEX_POINT('', #258);
#258 = CARTESIAN_POINT('', (1.80666351906064E-15, 7.65404249467096E-15, -125.));
#259 = CIRCLE('', #260, 5.00000000000003);
#260 = AXIS2_PLACEMENT_3D('', #261, #262, #263);
#261 = CARTESIAN_POINT('', (3.28626015289046E-14, 7.34788079488412E-15, -120.));
#262 = DIRECTION('', (-6.12323399573678E-17, -1., -6.12323399573679E-17));
#263 = DIRECTION('', (-1., 6.12323399573681E-17, -5.68434188608076E-15));
#264 = ORIENTED_EDGE('', *, *, #226, .T.);
#265 = ORIENTED_EDGE('', *, *, #256, .T.);
#266 = (
   BOUNDED_SURFACE ()
   B_SPLINE_SURFACE (2, 2, ((#267, #268, #269), (#270, #271, #272), (#273, #274, #275), (#276, #277, #278), (#279, #280, #281), (#282, #283, #284), (#285, #286, #287), (#288, #289, #290), (#291, #292, #293)), .UNSPECIFIED., .T., .F., .U.)
   B_SPLINE_SURFACE_WITH_KNOTS ((3, 2, 2, 2, 3), (3, 3), (0., 0.25, 0.5, 0.75, 1.), (0., 1.), .UNSPECIFIED.)
   GEOMETRIC_REPRESENTATION_ITEM ()
   RATIONAL_B_SPLINE_SURFACE (((1., 0.707106781186548, 1.), (0.707106781186548, 0.5, 0.707106781186548), (1., 0.707106781186548, 1.), (0.707106781186548, 0.5, 0.707106781186548), (1., 0.707106781186548, 1.), (0.707106781186548, 0.5, 0.707106781186548), (1., 0.707106781186548, 1.), (0.707106781186548, 0.5, 0.707106781186548), (1., 0.707106781186548, 1.)))
   REPRESENTATION_ITEM ('')
   SURFACE ()
);
#267 = CARTESIAN_POINT('', (-5., 7.65404249467096E-15, -120.));
#268 = CARTESIAN_POINT('', (-5., 7.9602041944578E-15, -125.));
#269 = CARTESIAN_POINT('', (1.80666351906064E-15, 7.65404249467096E-15, -125.));
#270 = CARTESIAN_POINT('', (-5., 4.99999999999996, -120.));
#271 = CARTESIAN_POINT('', (-5., 4.99999999999996, -125.));
#272 = CARTESIAN_POINT('', (1.80666351906064E-15, 7.65404249467096E-15, -125.));
#273 = CARTESIAN_POINT('', (-4.9737991503207E-14, 4.99999999999996, -120.));
#274 = CARTESIAN_POINT('', (-4.94318298034202E-14, 4.99999999999996, -125.));
#275 = CARTESIAN_POINT('', (1.80666351906064E-15, 7.65404249467096E-15, -125.));
#276 = CARTESIAN_POINT('', (4.9999999999999, 4.99999999999996, -120.));
#277 = CARTESIAN_POINT('', (4.9999999999999, 4.99999999999996, -125.));
#278 = CARTESIAN_POINT('', (1.80666351906064E-15, 7.65404249467096E-15, -125.));
#279 = CARTESIAN_POINT('', (4.9999999999999, 7.65404249467096E-15, -120.));
#280 = CARTESIAN_POINT('', (4.9999999999999, 7.34788079488412E-15, -125.));
#281 = CARTESIAN_POINT('', (1.80666351906064E-15, 7.65404249467096E-15, -125.));
#282 = CARTESIAN_POINT('', (4.9999999999999, -4.99999999999994, -120.));
#283 = CARTESIAN_POINT('', (4.9999999999999, -4.99999999999994, -125.));
#284 = CARTESIAN_POINT('', (1.80666351906064E-15, 7.65404249467096E-15, -125.));
#285 = CARTESIAN_POINT('', (-4.91256681036333E-14, -4.99999999999994, -120.));
#286 = CARTESIAN_POINT('', (-4.94318298034202E-14, -4.99999999999994, -125.));
#287 = CARTESIAN_POINT('', (1.80666351906064E-15, 7.65404249467096E-15, -125.));
#288 = CARTESIAN_POINT('', (-5., -4.99999999999994, -120.));
#289 = CARTESIAN_POINT('', (-5., -4.99999999999994, -125.));
#290 = CARTESIAN_POINT('', (1.80666351906064E-15, 7.65404249467096E-15, -125.));
#291 = CARTESIAN_POINT('', (-5., 7.65404249467096E-15, -120.));
#292 = CARTESIAN_POINT('', (-5., 7.9602041944578E-15, -125.));
#293 = CARTESIAN_POINT('', (1.80666351906064E-15, 7.65404249467096E-15, -125.));
#294 = PRESENTATION_STYLE_ASSIGNMENT((#295));
#295 = SURFACE_STYLE_USAGE(.POSITIVE., #296);
#296 = SURFACE_SIDE_STYLE('', (#297));
#297 = SURFACE_STYLE_FILL_AREA(#298);
#298 = FILL_AREA_STYLE('', (#299));
#299 = FILL_AREA_STYLE_COLOUR('', #300);
#300 = COLOUR_RGB('', 0.8, 0.8, 0.8);
#301 = STYLED_ITEM('', (#294), #194);
#302 = TRIMMED_CURVE('cutting part line', #303, (#307), (#308), .T., .CARTESIAN.);
#303 = LINE('', #304, #305);
#304 = CARTESIAN_POINT('', (-1.29354281254585E-30, -7.04171909509728E-15, -115.));
#305 = VECTOR('', #306, 5.);
#306 = DIRECTION('', (5., -9.18485099360518E-16, 0.));
#307 = CARTESIAN_POINT('', (-1.29354281254585E-30, -7.04171909509728E-15, -115.));
#308 = CARTESIAN_POINT('', (5., -7.9602041944578E-15, -115.));
#309 = TRIMMED_CURVE('cutting part line', #310, (#314), (#315), .T., .CARTESIAN.);
#310 = LINE('', #311, #312);
#311 = CARTESIAN_POINT('', (5., -7.9602041944578E-15, -115.));
#312 = VECTOR('', #313, 5.);
#313 = DIRECTION('', (0., -3.06161699786839E-16, -5.));
#314 = CARTESIAN_POINT('', (5., -7.9602041944578E-15, -115.));
#315 = CARTESIAN_POINT('', (5., -8.26636589424464E-15, -120.));
#316 = TRIMMED_CURVE('cutting part line', #317, (#322), (#323), .T., .CARTESIAN.);
#317 = CIRCLE('', #318, 5.00000000000004);
#318 = AXIS2_PLACEMENT_3D('', #319, #320, #321);
#319 = CARTESIAN_POINT('', (-3.99680288865056E-14, -7.34788079488411E-15, -120.));
#320 = DIRECTION('', (1.83697019872104E-16, 1., -6.12323399573684E-17));
#321 = DIRECTION('', (1., -1.83697019872104E-16, -8.52651282912113E-15));
#322 = CARTESIAN_POINT('', (5., -8.26636589424464E-15, -120.));
#323 = CARTESIAN_POINT('', (-3.46859658393803E-15, -7.65404249467096E-15, -125.));
#324 = TRIMMED_CURVE('cutting part line', #325, (#329), (#330), .T., .CARTESIAN.);
#325 = LINE('', #326, #327);
#326 = CARTESIAN_POINT('', (-1.40602479624549E-30, -7.65404249467096E-15, -125.));
#327 = VECTOR('', #328, 10.);
#328 = DIRECTION('', (1.1248198369964E-31, 6.1232339957368E-16, 10.));
#329 = CARTESIAN_POINT('', (-1.40602479624549E-30, -7.65404249467096E-15, -125.));
#330 = CARTESIAN_POINT('', (-1.29354281254585E-30, -7.04171909509728E-15, -115.));
#331 = COMPOSITE_CURVE('cutting part line', (#332, #333, #334, #335), .U.);
#332 = COMPOSITE_CURVE_SEGMENT(.CONTINUOUS., .T., #302);
#333 = COMPOSITE_CURVE_SEGMENT(.CONTINUOUS., .T., #309);
#334 = COMPOSITE_CURVE_SEGMENT(.CONTINUOUS., .T., #316);
#335 = COMPOSITE_CURVE_SEGMENT(.CONTINUOUS., .T., #324);
#336 = GEOMETRIC_SET('', (#331, #374));
#337 = PRESENTATION_STYLE_ASSIGNMENT((#338));
#338 = CURVE_STYLE('', #340, POSITIVE_LENGTH_MEASURE(1.E-6), #339);
#339 = COLOUR_RGB('', 0., 0., 1.);
#340 = DRAUGHTING_PRE_DEFINED_CURVE_FONT('continuous');
#341 = STYLED_ITEM('', (#337), #331);
#342 = PRESENTATION_STYLE_ASSIGNMENT((#343));
#343 = CURVE_STYLE('', #345, POSITIVE_LENGTH_MEASURE(1.E-6), #344);
#344 = COLOUR_RGB('', 0., 0., 1.);
#345 = DRAUGHTING_PRE_DEFINED_CURVE_FONT('continuous');
#346 = OVER_RIDING_STYLED_ITEM('', (#342), #302, #341);
#347 = PRESENTATION_STYLE_ASSIGNMENT((#348));
#348 = CURVE_STYLE('', #350, POSITIVE_LENGTH_MEASURE(1.E-6), #349);
#349 = COLOUR_RGB('', 0., 0., 1.);
#350 = DRAUGHTING_PRE_DEFINED_CURVE_FONT('continuous');
#351 = OVER_RIDING_STYLED_ITEM('', (#347), #309, #341);
#352 = PRESENTATION_STYLE_ASSIGNMENT((#353));
#353 = CURVE_STYLE('', #355, POSITIVE_LENGTH_MEASURE(1.E-6), #354);
#354 = COLOUR_RGB('', 0., 0., 1.);
#355 = DRAUGHTING_PRE_DEFINED_CURVE_FONT('continuous');
#356 = OVER_RIDING_STYLED_ITEM('', (#352), #316, #341);
#357 = PRESENTATION_STYLE_ASSIGNMENT((#358));
#358 = CURVE_STYLE('', #360, POSITIVE_LENGTH_MEASURE(1.E-6), #359);
#359 = COLOUR_RGB('', 0., 0., 1.);
#360 = DRAUGHTING_PRE_DEFINED_CURVE_FONT('continuous');
#361 = OVER_RIDING_STYLED_ITEM('', (#357), #324, #341);
#362 = AXIS2_PLACEMENT_3D('CIP', #363, #364, #365);
#363 = CARTESIAN_POINT('', (4.6867493208183E-31, 7.65404249467096E-15, -125.));
#364 = DIRECTION('', (-3.74939945665465E-33, -6.12323399573677E-17, 1.));
#365 = DIRECTION('', (1., -6.12323399573677E-17, 0.));
#366 = AXIS2_PLACEMENT_3D('MCS', #367, #368, #369);
#367 = CARTESIAN_POINT('', (1.68722975549459E-31, 2.75545529808154E-15, -45.));
#368 = DIRECTION('', (-3.74939945665465E-33, -6.12323399573677E-17, 1.));
#369 = DIRECTION('', (1., -6.12323399573677E-17, 0.));
#370 = AXIS2_PLACEMENT_3D('PCS', #371, #372, #373);
#371 = CARTESIAN_POINT('', (0., 0., 0.));
#372 = DIRECTION('', (0., 0., 1.));
#373 = DIRECTION('', (1., 0., 0.));
#374 = CARTESIAN_POINT('CRP', (5., 0., -125.));
#375 = (
   GEOMETRIC_REPRESENTATION_CONTEXT (3)
   GLOBAL_UNCERTAINTY_ASSIGNED_CONTEXT ((#377))
   GLOBAL_UNIT_ASSIGNED_CONTEXT ((#376, #378, #379))
   REPRESENTATION_CONTEXT ('', '3D')
);
#376 = (
   LENGTH_UNIT ()
   NAMED_UNIT (*)
   SI_UNIT (.MILLI., .METRE.)
);
#377 = UNCERTAINTY_MEASURE_WITH_UNIT(LENGTH_MEASURE(1.E-6), #376, 'DISTANCE_ACCURACY_VALUE', '');
#378 = (
   NAMED_UNIT (*)
   SI_UNIT ($, .STERADIAN.)
   SOLID_ANGLE_UNIT ()
);
#379 = (
   NAMED_UNIT (*)
   PLANE_ANGLE_UNIT ()
   SI_UNIT ($, .RADIAN.)
);
#380 = SHAPE_REPRESENTATION('', (), #375);
#381 = PRODUCT_DEFINITION_SHAPE('', '', #382);
#382 = PRODUCT_DEFINITION('', '', #385, #389);
#383 = APPLICATION_CONTEXT('configuration controlled 3D designs of mechanical parts and assemblies');
#384 = APPLICATION_PROTOCOL_DEFINITION('International Standard', 'automotive_design', 2002, #383);
#385 = PRODUCT_DEFINITION_FORMATION_WITH_SPECIFIED_SOURCE('', '', #386, .NOT_KNOWN.);
#386 = PRODUCT('EmptyName', 'EmptyName', '', (#387));
#387 = PRODUCT_CONTEXT('', #383, 'mechanical');
#388 = PRODUCT_RELATED_PRODUCT_CATEGORY('detail', '', (#386));
#389 = PRODUCT_DEFINITION_CONTEXT('part definition', #383, 'design');
#390 = SHAPE_DEFINITION_REPRESENTATION(#381, #380);
#391 = CONSTRUCTIVE_GEOMETRY_REPRESENTATION('supplemental geometry', (#362, #366, #370), #375);
#392 = CONSTRUCTIVE_GEOMETRY_REPRESENTATION_RELATIONSHIP('', '', #380, #391);
#393 = SHAPE_REPRESENTATION_RELATIONSHIP('', '', #380, #394);
#394 = SHAPE_REPRESENTATION('', (#336), #375);
#395 = SHAPE_REPRESENTATION_RELATIONSHIP('', '', #380, #396);
#396 = ADVANCED_BREP_SHAPE_REPRESENTATION('', (#1, #194), #375);
ENDSEC;
END-ISO-10303-21;
